  0
SECTION
  2
HEADER
  9
$ACADVER
  1
AC1018
  9
$ACADMAINTVER
 70
     0
  9
$DWGCODEPAGE
  3
ANSI_932
  9
$INSBASE
 10
0.0
 20
0.0
 30
0.0
  9
$EXTMIN
 10
125.6231794641626
 20
84.01795176791347
 30
-0.0015258207003583
  9
$EXTMAX
 10
4562.541056640379
 20
3038.104255250777
 30
0.0000000349246037
  9
$LIMMIN
 10
0.0
 20
0.0
  9
$LIMMAX
 10
4455.0
 20
3150.0
  9
$ORTHOMODE
 70
     1
  9
$REGENMODE
 70
     1
  9
$FILLMODE
 70
     1
  9
$QTEXTMODE
 70
     0
  9
$MIRRTEXT
 70
     0
  9
$LTSCALE
 40
15.0
  9
$ATTMODE
 70
     1
  9
$TEXTSIZE
 40
0.2
  9
$TRACEWID
 40
0.05
  9
$TEXTSTYLE
  7
STANDARD
  9
$CLAYER
  8
0
  9
$CELTYPE
  6
CONTINUOUS
  9
$CECOLOR
 62
   256
  9
$CELTSCALE
 40
1.0
  9
$DISPSILH
 70
     0
  9
$DIMSCALE
 40
1.0
  9
$DIMASZ
 40
0.18
  9
$DIMEXO
 40
0.0625
  9
$DIMDLI
 40
0.38
  9
$DIMRND
 40
0.0
  9
$DIMDLE
 40
0.0
  9
$DIMEXE
 40
0.18
  9
$DIMTP
 40
0.0
  9
$DIMTM
 40
0.0
  9
$DIMTXT
 40
0.18
  9
$DIMCEN
 40
0.09
  9
$DIMTSZ
 40
0.0
  9
$DIMTOL
 70
     0
  9
$DIMLIM
 70
     0
  9
$DIMTIH
 70
     1
  9
$DIMTOH
 70
     1
  9
$DIMSE1
 70
     0
  9
$DIMSE2
 70
     0
  9
$DIMTAD
 70
     0
  9
$DIMZIN
 70
     0
  9
$DIMBLK
  1

  9
$DIMASO
 70
     1
  9
$DIMSHO
 70
     1
  9
$DIMPOST
  1

  9
$DIMAPOST
  1

  9
$DIMALT
 70
     0
  9
$DIMALTD
 70
     2
  9
$DIMALTF
 40
25.4
  9
$DIMLFAC
 40
1.0
  9
$DIMTOFL
 70
     0
  9
$DIMTVP
 40
0.0
  9
$DIMTIX
 70
     0
  9
$DIMSOXD
 70
     0
  9
$DIMSAH
 70
     0
  9
$DIMBLK1
  1

  9
$DIMBLK2
  1

  9
$DIMSTYLE
  2
Standard
  9
$DIMCLRD
 70
     0
  9
$DIMCLRE
 70
     0
  9
$DIMCLRT
 70
     0
  9
$DIMTFAC
 40
1.0
  9
$DIMGAP
 40
0.09
  9
$DIMJUST
 70
     0
  9
$DIMSD1
 70
     0
  9
$DIMSD2
 70
     0
  9
$DIMTOLJ
 70
     1
  9
$DIMTZIN
 70
     0
  9
$DIMALTZ
 70
     0
  9
$DIMALTTZ
 70
     0
  9
$DIMUPT
 70
     0
  9
$DIMDEC
 70
     4
  9
$DIMTDEC
 70
     4
  9
$DIMALTU
 70
     2
  9
$DIMALTTD
 70
     2
  9
$DIMTXSTY
  7
STANDARD
  9
$DIMAUNIT
 70
     0
  9
$DIMADEC
 70
     0
  9
$DIMALTRND
 40
0.0
  9
$DIMAZIN
 70
     0
  9
$DIMDSEP
 70
    46
  9
$DIMATFIT
 70
     3
  9
$DIMFRAC
 70
     0
  9
$DIMLDRBLK
  1

  9
$DIMLUNIT
 70
     2
  9
$DIMLWD
 70
    -2
  9
$DIMLWE
 70
    -2
  9
$DIMTMOVE
 70
     0
  9
$LUNITS
 70
     2
  9
$LUPREC
 70
     4
  9
$SKETCHINC
 40
0.1
  9
$FILLETRAD
 40
0.0
  9
$AUNITS
 70
     0
  9
$AUPREC
 70
     0
  9
$MENU
  1
.
  9
$ELEVATION
 40
0.0
  9
$PELEVATION
 40
0.0
  9
$THICKNESS
 40
0.0
  9
$LIMCHECK
 70
     0
  9
$CHAMFERA
 40
0.0
  9
$CHAMFERB
 40
0.0
  9
$CHAMFERC
 40
0.0
  9
$CHAMFERD
 40
0.0
  9
$SKPOLY
 70
     0
  9
$TDCREATE
 40
2457301.459614942
  9
$TDUCREATE
 40
2457301.084614942
  9
$TDUPDATE
 40
2457301.464964630
  9
$TDUUPDATE
 40
2457301.089964630
  9
$TDINDWG
 40
0.0053502315
  9
$TDUSRTIMER
 40
0.0053502315
  9
$USRTIMER
 70
     1
  9
$ANGBASE
 50
0.0
  9
$ANGDIR
 70
     0
  9
$PDMODE
 70
     0
  9
$PDSIZE
 40
0.0
  9
$PLINEWID
 40
0.0
  9
$SPLFRAME
 70
     0
  9
$SPLINETYPE
 70
     6
  9
$SPLINESEGS
 70
     8
  9
$HANDSEED
  5
294
  9
$SURFTAB1
 70
     6
  9
$SURFTAB2
 70
     6
  9
$SURFTYPE
 70
     6
  9
$SURFU
 70
     6
  9
$SURFV
 70
     6
  9
$UCSBASE
  2

  9
$UCSNAME
  2

  9
$UCSORG
 10
0.0
 20
0.0
 30
0.0
  9
$UCSXDIR
 10
1.0
 20
0.0
 30
0.0
  9
$UCSYDIR
 10
0.0
 20
1.0
 30
0.0
  9
$UCSORTHOREF
  2

  9
$UCSORTHOVIEW
 70
     0
  9
$UCSORGTOP
 10
0.0
 20
0.0
 30
0.0
  9
$UCSORGBOTTOM
 10
0.0
 20
0.0
 30
0.0
  9
$UCSORGLEFT
 10
0.0
 20
0.0
 30
0.0
  9
$UCSORGRIGHT
 10
0.0
 20
0.0
 30
0.0
  9
$UCSORGFRONT
 10
0.0
 20
0.0
 30
0.0
  9
$UCSORGBACK
 10
0.0
 20
0.0
 30
0.0
  9
$PUCSBASE
  2

  9
$PUCSNAME
  2

  9
$PUCSORG
 10
0.0
 20
0.0
 30
0.0
  9
$PUCSXDIR
 10
1.0
 20
0.0
 30
0.0
  9
$PUCSYDIR
 10
0.0
 20
1.0
 30
0.0
  9
$PUCSORTHOREF
  2

  9
$PUCSORTHOVIEW
 70
     0
  9
$PUCSORGTOP
 10
0.0
 20
0.0
 30
0.0
  9
$PUCSORGBOTTOM
 10
0.0
 20
0.0
 30
0.0
  9
$PUCSORGLEFT
 10
0.0
 20
0.0
 30
0.0
  9
$PUCSORGRIGHT
 10
0.0
 20
0.0
 30
0.0
  9
$PUCSORGFRONT
 10
0.0
 20
0.0
 30
0.0
  9
$PUCSORGBACK
 10
0.0
 20
0.0
 30
0.0
  9
$USERI1
 70
     0
  9
$USERI2
 70
     0
  9
$USERI3
 70
     0
  9
$USERI4
 70
     0
  9
$USERI5
 70
     0
  9
$USERR1
 40
0.0
  9
$USERR2
 40
0.0
  9
$USERR3
 40
0.0
  9
$USERR4
 40
0.0
  9
$USERR5
 40
0.0
  9
$WORLDVIEW
 70
     1
  9
$SHADEDGE
 70
     3
  9
$SHADEDIF
 70
    70
  9
$TILEMODE
 70
     1
  9
$MAXACTVP
 70
    64
  9
$PINSBASE
 10
0.0
 20
0.0
 30
0.0
  9
$PLIMCHECK
 70
     0
  9
$PEXTMIN
 10
1.000000000000000E+20
 20
1.000000000000000E+20
 30
1.000000000000000E+20
  9
$PEXTMAX
 10
-1.000000000000000E+20
 20
-1.000000000000000E+20
 30
-1.000000000000000E+20
  9
$PLIMMIN
 10
0.0
 20
0.0
  9
$PLIMMAX
 10
12.0
 20
9.0
  9
$UNITMODE
 70
     0
  9
$VISRETAIN
 70
     1
  9
$PLINEGEN
 70
     0
  9
$PSLTSCALE
 70
     1
  9
$TREEDEPTH
 70
  3020
  9
$CMLSTYLE
  2
Standard
  9
$CMLJUST
 70
     0
  9
$CMLSCALE
 40
1.0
  9
$PROXYGRAPHICS
 70
     1
  9
$MEASUREMENT
 70
     0
  9
$CELWEIGHT
370
    -1
  9
$ENDCAPS
280
     0
  9
$JOINSTYLE
280
     0
  9
$LWDISPLAY
290
     0
  9
$INSUNITS
 70
     0
  9
$HYPERLINKBASE
  1

  9
$STYLESHEET
  1

  9
$XEDIT
290
     1
  9
$CEPSNTYPE
380
     0
  9
$PSTYLEMODE
290
     1
  9
$FINGERPRINTGUID
  2
{BE416662-7728-4F02-881A-4802738DAB2A}
  9
$VERSIONGUID
  2
{1C530C00-C35A-4C37-BCCB-09F50888A462}
  9
$EXTNAMES
290
     1
  9
$PSVPSCALE
 40
0.0
  9
$OLESTARTUP
290
     0
  9
$SORTENTS
280
   127
  9
$INDEXCTL
280
     0
  9
$HIDETEXT
280
     0
  9
$XCLIPFRAME
290
     0
  9
$HALOGAP
280
     0
  9
$OBSCOLOR
 70
   257
  9
$OBSLTYPE
280
     0
  9
$INTERSECTIONDISPLAY
280
     0
  9
$INTERSECTIONCOLOR
 70
   257
  9
$DIMASSOC
280
     1
  9
$PROJECTNAME
  1

  0
ENDSEC
  0
SECTION
  2
CLASSES
  0
CLASS
  1
ACDBDICTIONARYWDFLT
  2
AcDbDictionaryWithDefault
  3
ObjectDBX Classes
 90
        0
 91
        1
280
     0
281
     0
  0
ENDSEC
  0
SECTION
  2
TABLES
  0
TABLE
  2
VPORT
  5
8
330
0
100
AcDbSymbolTable
 70
     2
  0
VPORT
  5
293
330
8
100
AcDbSymbolTableRecord
100
AcDbViewportTableRecord
  2
*Active
 70
     0
 10
0.0
 20
0.0
 11
1.0
 21
1.0
 12
1956.535785241056
 22
1758.917489630988
 13
0.0
 23
0.0
 14
1.0
 24
1.0
 15
0.0
 25
0.0
 16
0.0
 26
0.0
 36
1.0
 17
0.0
 27
0.0
 37
0.0
 40
4083.479583260816
 41
1.551413881748072
 42
50.0
 43
0.0
 44
0.0
 50
0.0
 51
0.0
 71
     0
 72
   100
 73
     1
 74
     1
 75
     0
 76
     0
 77
     0
 78
     0
281
     0
 65
     1
110
0.0
120
0.0
130
0.0
111
1.0
121
0.0
131
0.0
112
0.0
122
1.0
132
0.0
 79
     0
146
0.0
  0
ENDTAB
  0
TABLE
  2
LTYPE
  5
5
330
0
100
AcDbSymbolTable
 70
    35
  0
LTYPE
  5
13
330
5
100
AcDbSymbolTableRecord
100
AcDbLinetypeTableRecord
  2
ByBlock
 70
     0
  3

 72
    65
 73
     0
 40
0.0
  0
LTYPE
  5
14
330
5
100
AcDbSymbolTableRecord
100
AcDbLinetypeTableRecord
  2
ByLayer
 70
     0
  3

 72
    65
 73
     0
 40
0.0
  0
LTYPE
  5
15
330
5
100
AcDbSymbolTableRecord
100
AcDbLinetypeTableRecord
  2
CONTINUOUS
 70
     0
  3
実線
 72
    65
 73
     0
 40
0.0
  0
LTYPE
  5
24
330
5
100
AcDbSymbolTableRecord
100
AcDbLinetypeTableRecord
  2
DASHED1
 70
     0
  3
--  --  --  --  --  --  --  --  
 72
    65
 73
     2
 40
2.5
 49
1.25
 74
     0
 49
-1.25
 74
     0
  0
LTYPE
  5
25
330
5
100
AcDbSymbolTableRecord
100
AcDbLinetypeTableRecord
  2
DASHED2
 70
     0
  3
----    ----    ----    ----    
 72
    65
 73
     2
 40
5.0
 49
2.5
 74
     0
 49
-2.5
 74
     0
  0
LTYPE
  5
26
330
5
100
AcDbSymbolTableRecord
100
AcDbLinetypeTableRecord
  2
DASHED3
 70
     0
  3
------  ------  ------  ------  
 72
    65
 73
     2
 40
5.0
 49
3.75
 74
     0
 49
-1.25
 74
     0
  0
LTYPE
  5
27
330
5
100
AcDbSymbolTableRecord
100
AcDbLinetypeTableRecord
  2
CENTER1
 70
     0
  3
----- - ----- - ----- - ----- - 
 72
    65
 73
     4
 40
10.0
 49
6.25
 74
     0
 49
-1.25
 74
     0
 49
1.25
 74
     0
 49
-1.25
 74
     0
  0
LTYPE
  5
28
330
5
100
AcDbSymbolTableRecord
100
AcDbLinetypeTableRecord
  2
CENTER2
 70
     0
  3
----------  --  ----------  --  
 72
    65
 73
     4
 40
20.0
 49
12.5
 74
     0
 49
-2.5
 74
     0
 49
2.5
 74
     0
 49
-2.5
 74
     0
  0
LTYPE
  5
29
330
5
100
AcDbSymbolTableRecord
100
AcDbLinetypeTableRecord
  2
PHANTOM1
 70
     0
  3
--- - - --- - - --- - - --- - - 
 72
    65
 73
     6
 40
10.0
 49
3.25
 74
     0
 49
-1.25
 74
     0
 49
1.25
 74
     0
 49
-1.25
 74
     0
 49
1.25
 74
     0
 49
-1.25
 74
     0
  0
LTYPE
  5
2A
330
5
100
AcDbSymbolTableRecord
100
AcDbLinetypeTableRecord
  2
PHANTOM2
 70
     0
  3
--------  -  -  --------  -  -  
 72
    65
 73
     6
 40
20.0
 49
10.0
 74
     0
 49
-2.5
 74
     0
 49
1.25
 74
     0
 49
-2.5
 74
     0
 49
1.25
 74
     0
 49
-2.5
 74
     0
  0
LTYPE
  5
2B
330
5
100
AcDbSymbolTableRecord
100
AcDbLinetypeTableRecord
  2
DOT
 70
     0
  3
-   -   -   -   -   -   -   -   
 72
    65
 73
     2
 40
2.5
 49
0.625
 74
     0
 49
-1.875
 74
     0
  0
LTYPE
  5
2C
330
5
100
AcDbSymbolTableRecord
100
AcDbLinetypeTableRecord
  2
DUMMY
 70
     0
  3
ダミー
 72
    65
 73
     0
 40
0.0
  0
LTYPE
  5
2D
330
5
100
AcDbSymbolTableRecord
100
AcDbLinetypeTableRecord
  2
RAND1
 70
     0
  3
ランダム線1
 72
    65
 73
     4
 40
10.0
 49
1.0
 74
     0
 49
-2.0
 74
     0
 49
3.0
 74
     0
 49
-4.0
 74
     0
  0
LTYPE
  5
2E
330
5
100
AcDbSymbolTableRecord
100
AcDbLinetypeTableRecord
  2
RAND2
 70
     0
  3
ランダム線2
 72
    65
 73
     4
 40
14.0
 49
2.0
 74
     0
 49
-3.0
 74
     0
 49
4.0
 74
     0
 49
-5.0
 74
     0
  0
LTYPE
  5
2F
330
5
100
AcDbSymbolTableRecord
100
AcDbLinetypeTableRecord
  2
RAND3
 70
     0
  3
ランダム線3
 72
    65
 73
     4
 40
18.0
 49
3.0
 74
     0
 49
-4.0
 74
     0
 49
5.0
 74
     0
 49
-6.0
 74
     0
  0
LTYPE
  5
30
330
5
100
AcDbSymbolTableRecord
100
AcDbLinetypeTableRecord
  2
RAND4
 70
     0
  3
ランダム線4
 72
    65
 73
     4
 40
22.0
 49
4.0
 74
     0
 49
-5.0
 74
     0
 49
6.0
 74
     0
 49
-7.0
 74
     0
  0
LTYPE
  5
31
330
5
100
AcDbSymbolTableRecord
100
AcDbLinetypeTableRecord
  2
RAND5
 70
     0
  3
ランダム線5
 72
    65
 73
     4
 40
26.0
 49
5.0
 74
     0
 49
-6.0
 74
     0
 49
7.0
 74
     0
 49
-8.0
 74
     0
  0
LTYPE
  5
32
330
5
100
AcDbSymbolTableRecord
100
AcDbLinetypeTableRecord
  2
LONG1
 70
     0
  3
----------  --  ----------  --  
 72
    65
 73
     4
 40
40.0
 49
32.5
 74
     0
 49
-2.5
 74
     0
 49
2.5
 74
     0
 49
-2.5
 74
     0
  0
LTYPE
  5
33
330
5
100
AcDbSymbolTableRecord
100
AcDbLinetypeTableRecord
  2
LONG2
 70
     0
  3
--------  -  -  --------  -  -  
 72
    65
 73
     6
 40
40.0
 49
30.0
 74
     0
 49
-2.5
 74
     0
 49
1.25
 74
     0
 49
-2.5
 74
     0
 49
1.25
 74
     0
 49
-2.5
 74
     0
  0
LTYPE
  5
34
330
5
100
AcDbSymbolTableRecord
100
AcDbLinetypeTableRecord
  2
LONG3
 70
     0
  3
+++++++++++++++..+++++++++++++++
 72
    65
 73
     2
 40
40.0
 49
37.5
 74
     0
 49
-2.5
 74
     0
  0
LTYPE
  5
35
330
5
100
AcDbSymbolTableRecord
100
AcDbLinetypeTableRecord
  2
LONG4
 70
     0
  3
+++++++++++++++..+++++++++++++++
 72
    65
 73
     2
 40
80.0
 49
75.0
 74
     0
 49
-5.0
 74
     0
  0
LTYPE
  5
36
330
5
100
AcDbSymbolTableRecord
100
AcDbLinetypeTableRecord
  2
LONG5
 70
     0
  3
----------  --  ----------  --  
 72
    65
 73
     4
 40
60.0
 49
37.5
 74
     0
 49
-7.5
 74
     0
 49
7.5
 74
     0
 49
-7.5
 74
     0
  0
LTYPE
  5
37
330
5
100
AcDbSymbolTableRecord
100
AcDbLinetypeTableRecord
  2
DASHED
 70
     0
  3
-------   -------------   ------
 72
    65
 73
     2
 40
7.5
 49
6.0
 74
     0
 49
-1.5
 74
     0
  0
LTYPE
  5
38
330
5
100
AcDbSymbolTableRecord
100
AcDbLinetypeTableRecord
  2
DASHED_SPACED
 70
     0
  3
----        --------        ----
 72
    65
 73
     2
 40
12.0
 49
6.0
 74
     0
 49
-6.0
 74
     0
  0
LTYPE
  5
39
330
5
100
AcDbSymbolTableRecord
100
AcDbLinetypeTableRecord
  2
LONG_DASHED_DOTTED
 70
     0
  3
------------- --- --------------
 72
    65
 73
     4
 40
15.25
 49
12.0
 74
     0
 49
-1.5
 74
     0
 49
0.25
 74
     0
 49
-1.5
 74
     0
  0
LTYPE
  5
3A
330
5
100
AcDbSymbolTableRecord
100
AcDbLinetypeTableRecord
  2
LONG_DASHED_DOUBLE-DOTTED
 70
     0
  3
----------- --- --- ------------
 72
    65
 73
     6
 40
17.0
 49
12.0
 74
     0
 49
-1.5
 74
     0
 49
0.25
 74
     0
 49
-1.5
 74
     0
 49
0.25
 74
     0
 49
-1.5
 74
     0
  0
LTYPE
  5
3B
330
5
100
AcDbSymbolTableRecord
100
AcDbLinetypeTableRecord
  2
LONG_DASHED_TRIPLICATE-DOTTED
 70
     0
  3
--------- --- --- --- ----------
 72
    65
 73
     8
 40
18.75
 49
12.0
 74
     0
 49
-1.5
 74
     0
 49
0.25
 74
     0
 49
-1.5
 74
     0
 49
0.25
 74
     0
 49
-1.5
 74
     0
 49
0.25
 74
     0
 49
-1.5
 74
     0
  0
LTYPE
  5
3C
330
5
100
AcDbSymbolTableRecord
100
AcDbLinetypeTableRecord
  2
DOTTED
 70
     0
  3
   -       -       -       -    
 72
    65
 73
     2
 40
1.75
 49
0.25
 74
     0
 49
-1.5
 74
     0
  0
LTYPE
  5
3D
330
5
100
AcDbSymbolTableRecord
100
AcDbLinetypeTableRecord
  2
CHAIN
 70
     0
  3
-------------- -- --------------
 72
    65
 73
     4
 40
18.5
 49
12.0
 74
     0
 49
-1.5
 74
     0
 49
3.5
 74
     0
 49
-1.5
 74
     0
  0
LTYPE
  5
3E
330
5
100
AcDbSymbolTableRecord
100
AcDbLinetypeTableRecord
  2
CHAIN_DOUBLE_DASH
 70
     0
  3
------------ -- -- -------------
 72
    65
 73
     6
 40
23.5
 49
12.0
 74
     0
 49
-1.5
 74
     0
 49
3.5
 74
     0
 49
-1.5
 74
     0
 49
3.5
 74
     0
 49
-1.5
 74
     0
  0
LTYPE
  5
3F
330
5
100
AcDbSymbolTableRecord
100
AcDbLinetypeTableRecord
  2
DASHED_DOTTED
 70
     0
  3
-----------     -     ----------
 72
    65
 73
     4
 40
9.25
 49
6.0
 74
     0
 49
-1.5
 74
     0
 49
0.25
 74
     0
 49
-1.5
 74
     0
  0
LTYPE
  5
40
330
5
100
AcDbSymbolTableRecord
100
AcDbLinetypeTableRecord
  2
DOUBLE-DASHED_DOTTED
 70
     0
  3
------   -----------   -   -----
 72
    65
 73
     6
 40
16.75
 49
6.0
 74
     0
 49
-1.5
 74
     0
 49
6.0
 74
     0
 49
-1.5
 74
     0
 49
0.25
 74
     0
 49
-1.5
 74
     0
  0
LTYPE
  5
41
330
5
100
AcDbSymbolTableRecord
100
AcDbLinetypeTableRecord
  2
DASHED_DOUBLE-DOTTED
 70
     0
  3
---------    -    -    ---------
 72
    65
 73
     6
 40
11.0
 49
6.0
 74
     0
 49
-1.5
 74
     0
 49
0.25
 74
     0
 49
-1.5
 74
     0
 49
0.25
 74
     0
 49
-1.5
 74
     0
  0
LTYPE
  5
42
330
5
100
AcDbSymbolTableRecord
100
AcDbLinetypeTableRecord
  2
DOUBLE-DASHED_DOUBLE-DOTTED
 70
     0
  3
-----   ---------   -   -   ----
 72
    65
 73
     8
 40
18.5
 49
6.0
 74
     0
 49
-1.5
 74
     0
 49
6.0
 74
     0
 49
-1.5
 74
     0
 49
0.25
 74
     0
 49
-1.5
 74
     0
 49
0.25
 74
     0
 49
-1.5
 74
     0
  0
LTYPE
  5
43
330
5
100
AcDbSymbolTableRecord
100
AcDbLinetypeTableRecord
  2
DASHED_TRIPLICATE-DOTTED
 70
     0
  3
-------    -    -    -    ------
 72
    65
 73
     8
 40
12.75
 49
6.0
 74
     0
 49
-1.5
 74
     0
 49
0.25
 74
     0
 49
-1.5
 74
     0
 49
0.25
 74
     0
 49
-1.5
 74
     0
 49
0.25
 74
     0
 49
-1.5
 74
     0
  0
LTYPE
  5
44
330
5
100
AcDbSymbolTableRecord
100
AcDbLinetypeTableRecord
  2
DOUBLE-DASHED_TRIPLICATE-DOTTED
 70
     0
  3
-----  ---------  -  -  -  -----
 72
    65
 73
    10
 40
20.25
 49
6.0
 74
     0
 49
-1.5
 74
     0
 49
6.0
 74
     0
 49
-1.5
 74
     0
 49
0.25
 74
     0
 49
-1.5
 74
     0
 49
0.25
 74
     0
 49
-1.5
 74
     0
 49
0.25
 74
     0
 49
-1.5
 74
     0
  0
LTYPE
  5
45
330
5
100
AcDbSymbolTableRecord
100
AcDbLinetypeTableRecord
  2
UNDEFINED
 70
     0
  3
--------------------------------
 72
    65
 73
     0
 40
0.0
  0
ENDTAB
  0
TABLE
  2
LAYER
  5
2
330
0
100
AcDbSymbolTable
 70
     3
  0
LAYER
  5
10
330
2
100
AcDbSymbolTableRecord
100
AcDbLayerTableRecord
  2
0
 70
     0
 62
     7
  6
CONTINUOUS
370
    -3
390
F
  0
LAYER
  5
47
330
2
100
AcDbSymbolTableRecord
100
AcDbLayerTableRecord
  2
_0-0_
 70
     0
 62
     7
  6
CONTINUOUS
370
    -3
390
F
  0
LAYER
  5
48
330
2
100
AcDbSymbolTableRecord
100
AcDbLayerTableRecord
  2
ADD_LINE
 70
     0
 62
     7
  6
CONTINUOUS
370
    -3
390
F
  0
ENDTAB
  0
TABLE
  2
STYLE
  5
3
330
0
100
AcDbSymbolTable
 70
     2
  0
STYLE
  5
11
330
3
100
AcDbSymbolTableRecord
100
AcDbTextStyleTableRecord
  2
STANDARD
 70
     0
 40
0.0
 41
1.0
 50
0.0
 71
     0
 42
0.2
  3
txt
  4
bigfont.shx
  0
STYLE
  5
46
330
3
100
AcDbSymbolTableRecord
100
AcDbTextStyleTableRecord
  2
TATEGAKI
 70
     4
 40
0.0
 41
1.0
 50
0.0
 71
     0
 42
1.0
  3
txt
  4
bigfont.shx
  0
ENDTAB
  0
TABLE
  2
VIEW
  5
6
330
0
100
AcDbSymbolTable
 70
     0
  0
ENDTAB
  0
TABLE
  2
UCS
  5
7
330
0
100
AcDbSymbolTable
 70
     0
  0
ENDTAB
  0
TABLE
  2
APPID
  5
9
330
0
100
AcDbSymbolTable
 70
     1
  0
APPID
  5
12
330
9
100
AcDbSymbolTableRecord
100
AcDbRegAppTableRecord
  2
ACAD
 70
     0
  0
ENDTAB
  0
TABLE
  2
DIMSTYLE
  5
A
330
0
100
AcDbSymbolTable
 70
     1
100
AcDbDimStyleTable
 71
     0
  0
DIMSTYLE
105
291
330
A
100
AcDbSymbolTableRecord
100
AcDbDimStyleTableRecord
  2
Standard
 70
     0
340
11
  0
ENDTAB
  0
TABLE
  2
BLOCK_RECORD
  5
1
330
0
100
AcDbSymbolTable
 70
     0
  0
BLOCK_RECORD
  5
20
330
1
100
AcDbSymbolTableRecord
100
AcDbBlockTableRecord
  2
*Model_Space
340
23
  0
BLOCK_RECORD
  5
1C
330
1
100
AcDbSymbolTableRecord
100
AcDbBlockTableRecord
  2
*Paper_Space
340
1F
  0
ENDTAB
  0
ENDSEC
  0
SECTION
  2
BLOCKS
  0
BLOCK
  5
21
330
20
100
AcDbEntity
  8
0
100
AcDbBlockBegin
  2
*Model_Space
 70
     0
 10
0.0
 20
0.0
 30
0.0
  3
*Model_Space
  1

  0
ENDBLK
  5
22
330
20
100
AcDbEntity
  8
0
100
AcDbBlockEnd
  0
BLOCK
  5
1D
330
1C
100
AcDbEntity
 67
     1
  8
0
100
AcDbBlockBegin
  2
*Paper_Space
 70
     0
 10
0.0
 20
0.0
 30
0.0
  3
*Paper_Space
  1

  0
ENDBLK
  5
1E
330
1C
100
AcDbEntity
 67
     1
  8
0
100
AcDbBlockEnd
  0
ENDSEC
  0
SECTION
  2
ENTITIES
  0
LINE
  5
4C
330
20
100
AcDbEntity
  8
_0-0_
  6
Continuous
 62
     7
100
AcDbLine
 10
4342.452350150187
 20
434.19646031322
 30
0.0
 11
2542.452350150187
 21
434.19646031322
 31
0.0
  0
LINE
  5
4D
330
20
100
AcDbEntity
  8
_0-0_
  6
Continuous
 62
     7
100
AcDbLine
 10
4342.452350150187
 20
364.19646031322
 30
0.0
 11
2542.452350150187
 21
364.19646031322
 31
0.0
  0
LINE
  5
4E
330
20
100
AcDbEntity
  8
_0-0_
  6
Continuous
 62
     7
100
AcDbLine
 10
4342.452350150187
 20
294.1964603132198
 30
0.0
 11
2542.452350150187
 21
294.1964603132198
 31
0.0
  0
LINE
  5
4F
330
20
100
AcDbEntity
  8
_0-0_
  6
Continuous
 62
     7
100
AcDbLine
 10
3542.452350150187
 20
504.1964603132201
 30
0.0
 11
3542.452350150187
 21
84.19646031321965
 31
0.0
  0
LINE
  5
50
330
20
100
AcDbEntity
  8
_0-0_
  6
Continuous
 62
     7
100
AcDbLine
 10
3792.452350150187
 20
504.1964603132201
 30
0.0
 11
3792.452350150187
 21
154.1964603132197
 31
0.0
  0
LINE
  5
51
330
20
100
AcDbEntity
  8
_0-0_
  6
Continuous
 62
     7
100
AcDbLine
 10
2792.452350150187
 20
504.1964603132201
 30
0.0
 11
2792.452350150187
 21
84.19646031321965
 31
0.0
  0
LINE
  5
52
330
20
100
AcDbEntity
  8
_0-0_
  6
Continuous
 62
     7
100
AcDbLine
 10
2542.452350150187
 20
504.1964603132201
 30
0.0
 11
2542.452350150187
 21
84.19646031321965
 31
0.0
  0
LINE
  5
53
330
20
100
AcDbEntity
  8
_0-0_
  6
Continuous
 62
     7
100
AcDbLine
 10
4342.452350150187
 20
154.1964603132197
 30
0.0
 11
2542.452350150187
 21
154.1964603132197
 31
0.0
  0
LINE
  5
54
330
20
100
AcDbEntity
  8
_0-0_
  6
Continuous
 62
     7
100
AcDbLine
 10
4342.452350150187
 20
224.1964603132198
 30
0.0
 11
2542.452350150187
 21
224.1964603132198
 31
0.0
  0
LINE
  5
55
330
20
100
AcDbEntity
  8
_0-0_
  6
Continuous
 62
     7
100
AcDbLine
 10
4342.452350150187
 20
504.1964603132201
 30
0.0
 11
2542.452350150187
 21
504.1964603132201
 31
0.0
  0
LINE
  5
56
330
20
100
AcDbEntity
  8
_0-0_
  6
Continuous
 62
     7
100
AcDbLine
 10
3042.452350150187
 20
154.1964603132197
 30
0.0
 11
3042.452350150187
 21
84.19646031321965
 31
0.0
  0
LINE
  5
57
330
20
100
AcDbEntity
  8
_0-0_
  6
Continuous
 62
     7
100
AcDbLine
 10
3292.452350150187
 20
154.1964603132197
 30
0.0
 11
3292.452350150187
 21
84.19646031321965
 31
0.0
  0
TEXT
  5
58
330
20
100
AcDbEntity
  8
_0-0_
 62
     7
100
AcDbText
 10
2966.995638884132
 20
445.5676097157739
 30
0.0
 40
45.0
  1
ＦＫ式ハンドホール
100
AcDbText
  0
TEXT
  5
59
330
20
100
AcDbEntity
  8
_0-0_
 62
     7
100
AcDbText
 10
2567.669119464564
 20
445.2468448969897
 30
0.0
 40
45.0
  1
製 品 名
100
AcDbText
  0
TEXT
  5
5A
330
20
100
AcDbEntity
  8
_0-0_
 62
     7
100
AcDbText
 10
2567.72918031314
 20
375.7312562871442
 30
0.0
 40
45.0
  1
種　　類
100
AcDbText
  0
TEXT
  5
5B
330
20
100
AcDbEntity
  8
_0-0_
 62
     7
100
AcDbText
 10
2567.72918031314
 20
305.018325599236
 30
0.0
 40
45.0
  1
呼 び 名
100
AcDbText
  0
TEXT
  5
5C
330
20
100
AcDbEntity
  8
_0-0_
 62
     7
100
AcDbText
 10
3067.837434980633
 20
97.16516569841473
 30
0.0
 40
45.0
  1
製　　図
100
AcDbText
  0
TEXT
  5
5D
330
20
100
AcDbEntity
  8
_0-0_
 62
     7
100
AcDbText
 10
3387.03778646637
 20
93.84432375726987
 30
0.0
 40
45.0
  1
H.O
100
AcDbText
  0
TEXT
  5
5E
330
20
100
AcDbEntity
  8
_0-0_
 62
     7
100
AcDbText
 10
3567.259562969747
 20
444.4438655970056
 30
0.0
 40
45.0
  1
縮　　尺
100
AcDbText
  0
TEXT
  5
5F
330
20
100
AcDbEntity
  8
_0-0_
 62
     7
100
AcDbText
 10
4009.096184523825
 20
444.4438655970056
 30
0.0
 40
45.0
  1
1/15
100
AcDbText
  0
TEXT
  5
60
330
20
100
AcDbEntity
  8
_0-0_
 62
     7
100
AcDbText
 10
3567.349380069471
 20
376.5645924804431
 30
0.0
 40
45.0
  1
参考重量
100
AcDbText
  0
TEXT
  5
61
330
20
100
AcDbEntity
  8
_0-0_
 62
     7
100
AcDbText
 10
3568.274496196631
 20
304.3830802870912
 30
0.0
 40
45.0
  1
設計Ｎｏ
100
AcDbText
  0
TEXT
  5
62
330
20
100
AcDbEntity
  8
_0-0_
 62
     7
100
AcDbText
 10
3568.274496196631
 20
234.352687632134
 30
0.0
 40
45.0
  1
図面Ｎｏ
100
AcDbText
  0
TEXT
  5
63
330
20
100
AcDbEntity
  8
_0-0_
 62
     7
100
AcDbText
 10
3568.274496196631
 20
166.3521614309436
 30
0.0
 40
45.0
  1
製 図 日
100
AcDbText
  0
TEXT
  5
64
330
20
100
AcDbEntity
  8
_0-0_
 62
     7
100
AcDbText
 10
3814.683952187591
 20
165.871402585008
 30
0.0
 40
45.0
  1
平成　年　月　日
100
AcDbText
  0
TEXT
  5
65
330
20
100
AcDbEntity
  8
_0-0_
 62
     7
100
AcDbText
 10
3569.073967825608
 20
97.00886958887673
 30
0.0
 40
45.0
  1
株式会社　丸治コンクリート工業所
 41
0.88
100
AcDbText
  0
TEXT
  5
66
330
20
100
AcDbEntity
  8
_0-0_
 62
     7
100
AcDbText
 10
4001.759715950963
 20
377.0950099578686
 30
0.0
 40
45.0
  1
725kg
100
AcDbText
  0
TEXT
  5
67
330
20
100
AcDbEntity
  8
_0-0_
 62
     7
100
AcDbText
 10
2568.420950389566
 20
165.7162066362001
 30
0.0
 40
45.0
  1
特記事項
100
AcDbText
  0
TEXT
  5
68
330
20
100
AcDbEntity
  8
_0-0_
 62
     7
100
AcDbText
 10
2569.682913760501
 20
95.04625786383412
 30
0.0
 40
45.0
  1
検　　図
100
AcDbText
  0
TEXT
  5
69
330
20
100
AcDbEntity
  8
_0-0_
 62
     7
100
AcDbText
 10
2567.158987018631
 20
236.3861554085658
 30
0.0
 40
45.0
  1
寸　　法
100
AcDbText
  0
TEXT
  5
6A
330
20
100
AcDbEntity
  8
_0-0_
 62
     7
100
AcDbText
 10
2888.553724090969
 20
165.7162066362001
 30
0.0
 40
45.0
  1
国土交通省仕様　H1-9
100
AcDbText
  0
TEXT
  5
6B
330
20
100
AcDbEntity
  8
_0-0_
 62
     7
100
AcDbText
 10
2940.153157346991
 20
237.6481187795009
 30
0.0
 40
45.0
  1
600×600×900
100
AcDbText
  0
TEXT
  5
6C
330
20
100
AcDbEntity
  8
_0-0_
 62
     7
100
AcDbText
 10
2899.404313285695
 20
305.7941408099966
 30
0.0
 40
45.0
  1
H-0609(CR-600)
100
AcDbText
  0
TEXT
  5
6D
330
20
100
AcDbEntity
  8
_0-0_
 62
     7
100
AcDbText
 10
3108.474682792236
 20
377.7260529532977
 30
0.0
 40
45.0
  1
600型
100
AcDbText
  0
TEXT
  5
6E
330
20
100
AcDbEntity
  8
_0-0_
 62
     7
100
AcDbText
 10
3811.916665772506
 20
237.559914181785
 30
0.0
 40
45.0
  1
FKHH-H0609-CR600
 41
0.76
100
AcDbText
  0
LINE
  5
6F
330
20
100
AcDbEntity
  8
_0-0_
  6
Continuous
 62
     4
100
AcDbLine
 10
3628.844138517369
 20
2383.243535772645
 30
0.0
 11
3028.844138517369
 21
2383.243535772645
 31
0.0
  0
CIRCLE
  5
70
330
20
100
AcDbEntity
  8
_0-0_
  6
Continuous
 62
     7
100
AcDbCircle
 10
3328.844138517369
 20
1718.243535772645
 30
0.0
 40
300.0
  0
CIRCLE
  5
71
330
20
100
AcDbEntity
  8
_0-0_
  6
Continuous
 62
     7
100
AcDbCircle
 10
3328.844138517369
 20
1718.243535772645
 30
0.0
 40
435.0
  0
LINE
  5
72
330
20
100
AcDbEntity
  8
_0-0_
  6
Continuous
 62
     7
100
AcDbLine
 10
2893.844138517369
 20
1293.243535772645
 30
0.0
 11
2903.844138517369
 21
1283.243535772645
 31
0.0
  0
LINE
  5
73
330
20
100
AcDbEntity
  8
_0-0_
  6
Continuous
 62
     7
100
AcDbLine
 10
2903.844138517369
 20
1283.243535772645
 30
0.0
 11
3753.844138517369
 21
1283.243535772645
 31
0.0
  0
LINE
  5
74
330
20
100
AcDbEntity
  8
_0-0_
  6
Continuous
 62
     7
100
AcDbLine
 10
3763.844138517369
 20
1293.243535772645
 30
0.0
 11
3753.844138517369
 21
1283.243535772645
 31
0.0
  0
LINE
  5
75
330
20
100
AcDbEntity
  8
_0-0_
  6
Continuous
 62
     7
100
AcDbLine
 10
3753.844138517369
 20
2153.243535772645
 30
0.0
 11
3763.844138517369
 21
2143.243535772644
 31
0.0
  0
LINE
  5
76
330
20
100
AcDbEntity
  8
_0-0_
  6
Continuous
 62
     7
100
AcDbLine
 10
3763.844138517369
 20
2143.243535772644
 30
0.0
 11
3763.844138517369
 21
1293.243535772645
 31
0.0
  0
LINE
  5
77
330
20
100
AcDbEntity
  8
_0-0_
  6
Continuous
 62
     7
100
AcDbLine
 10
2893.844138517369
 20
2143.243535772644
 30
0.0
 11
2893.844138517369
 21
1293.243535772645
 31
0.0
  0
LINE
  5
78
330
20
100
AcDbEntity
  8
_0-0_
  6
Continuous
 62
     7
100
AcDbLine
 10
2903.844138517369
 20
2153.243535772645
 30
0.0
 11
2893.844138517369
 21
2143.243535772644
 31
0.0
  0
LINE
  5
79
330
20
100
AcDbEntity
  8
_0-0_
  6
Continuous
 62
     7
100
AcDbLine
 10
2903.844138517369
 20
2153.243535772645
 30
0.0
 11
3753.844138517369
 21
2153.243535772645
 31
0.0
  0
LINE
  5
7A
330
20
100
AcDbEntity
  8
_0-0_
  6
DASHED1
 62
   136
100
AcDbLine
 10
2968.844138517369
 20
1368.243535772645
 30
0.0
 11
2978.844138517369
 21
1358.243535772645
 31
0.0
  0
LINE
  5
7B
330
20
100
AcDbEntity
  8
_0-0_
  6
DASHED1
 62
   136
100
AcDbLine
 10
2968.844138517369
 20
2068.243535772644
 30
0.0
 11
2968.844138517369
 21
1368.243535772645
 31
0.0
  0
LINE
  5
7C
330
20
100
AcDbEntity
  8
_0-0_
  6
DASHED1
 62
   136
100
AcDbLine
 10
2978.844138517369
 20
2078.243535772644
 30
0.0
 11
2968.844138517369
 21
2068.243535772644
 31
0.0
  0
LINE
  5
7D
330
20
100
AcDbEntity
  8
_0-0_
  6
DASHED1
 62
   136
100
AcDbLine
 10
2978.844138517369
 20
2078.243535772644
 30
0.0
 11
3678.844138517368
 21
2078.243535772644
 31
0.0
  0
LINE
  5
7E
330
20
100
AcDbEntity
  8
_0-0_
  6
DASHED1
 62
   136
100
AcDbLine
 10
3678.844138517368
 20
2078.243535772644
 30
0.0
 11
3688.844138517369
 21
2068.243535772644
 31
0.0
  0
LINE
  5
7F
330
20
100
AcDbEntity
  8
_0-0_
  6
DASHED1
 62
   136
100
AcDbLine
 10
3688.844138517369
 20
2068.243535772644
 30
0.0
 11
3688.844138517369
 21
1368.243535772645
 31
0.0
  0
LINE
  5
80
330
20
100
AcDbEntity
  8
_0-0_
  6
DASHED1
 62
   136
100
AcDbLine
 10
3688.844138517369
 20
1368.243535772645
 30
0.0
 11
3678.844138517368
 21
1358.243535772645
 31
0.0
  0
LINE
  5
81
330
20
100
AcDbEntity
  8
_0-0_
  6
DASHED1
 62
   136
100
AcDbLine
 10
2978.844138517369
 20
1358.243535772645
 30
0.0
 11
3678.844138517368
 21
1358.243535772645
 31
0.0
  0
LINE
  5
82
330
20
100
AcDbEntity
  8
_0-0_
  6
Continuous
 62
     4
100
AcDbLine
 10
2893.844138517369
 20
2603.243535772645
 30
0.0
 11
3763.844138517369
 21
2603.243535772645
 31
0.0
  0
LINE
  5
83
330
20
100
AcDbEntity
  8
_0-0_
  6
Continuous
 62
     4
100
AcDbLine
 10
2893.844138517369
 20
2613.243535772645
 30
0.0
 11
2893.844138517369
 21
2173.243535772645
 31
0.0
  0
LINE
  5
84
330
20
100
AcDbEntity
  8
_0-0_
  6
Continuous
 62
     4
100
AcDbLine
 10
3763.844138517369
 20
2613.243535772645
 30
0.0
 11
3763.844138517369
 21
2173.243535772645
 31
0.0
  0
LINE
  5
85
330
20
100
AcDbEntity
  8
_0-0_
  6
Continuous
 62
     4
100
AcDbLine
 10
2968.844138517369
 20
2503.243535772645
 30
0.0
 11
2968.844138517369
 21
2173.243535772645
 31
0.0
  0
LINE
  5
86
330
20
100
AcDbEntity
  8
_0-0_
  6
Continuous
 62
     4
100
AcDbLine
 10
3688.844138517369
 20
2503.243535772645
 30
0.0
 11
3688.844138517369
 21
2173.243535772645
 31
0.0
  0
LINE
  5
87
330
20
100
AcDbEntity
  8
_0-0_
  6
Continuous
 62
     4
100
AcDbLine
 10
3688.844138517369
 20
2493.243535772645
 30
0.0
 11
2968.844138517369
 21
2493.243535772645
 31
0.0
  0
LINE
  5
88
330
20
100
AcDbEntity
  8
_0-0_
  6
Continuous
 62
     4
100
AcDbLine
 10
3028.844138517369
 20
2393.243535772645
 30
0.0
 11
3028.844138517369
 21
2173.243535772645
 31
0.0
  0
LINE
  5
89
330
20
100
AcDbEntity
  8
_0-0_
  6
Continuous
 62
     4
100
AcDbLine
 10
3628.844138517369
 20
2393.243535772645
 30
0.0
 11
3628.844138517369
 21
2173.243535772645
 31
0.0
  0
LINE
  5
8A
330
20
100
AcDbEntity
  8
_0-0_
  6
Continuous
 62
     4
100
AcDbLine
 10
2968.844138517369
 20
2383.243535772645
 30
0.0
 11
3028.844138517369
 21
2383.243535772645
 31
0.0
  0
LINE
  5
8B
330
20
100
AcDbEntity
  8
_0-0_
  6
Continuous
 62
     4
100
AcDbLine
 10
3628.844138517369
 20
2383.243535772645
 30
0.0
 11
3688.844138517369
 21
2383.243535772645
 31
0.0
  0
LINE
  5
8C
330
20
100
AcDbEntity
  8
_0-0_
  6
Continuous
 62
     4
100
AcDbLine
 10
3058.844138517369
 20
2283.243535772645
 30
0.0
 11
3058.844138517369
 21
2173.243535772645
 31
0.0
  0
LINE
  5
8D
330
20
100
AcDbEntity
  8
_0-0_
  6
Continuous
 62
     4
100
AcDbLine
 10
3598.844138517369
 20
2283.243535772645
 30
0.0
 11
3598.844138517369
 21
2173.243535772645
 31
0.0
  0
LINE
  5
8E
330
20
100
AcDbEntity
  8
_0-0_
  6
Continuous
 62
     4
100
AcDbLine
 10
2988.844138517369
 20
2273.243535772645
 30
0.0
 11
3028.844138517369
 21
2273.243535772645
 31
0.0
  0
LINE
  5
8F
330
20
100
AcDbEntity
  8
_0-0_
  6
Continuous
 62
     4
100
AcDbLine
 10
3058.844138517369
 20
2273.243535772645
 30
0.0
 11
3098.844138517369
 21
2273.243535772645
 31
0.0
  0
LINE
  5
90
330
20
100
AcDbEntity
  8
_0-0_
  6
Continuous
 62
     4
100
AcDbLine
 10
3558.844138517369
 20
2273.243535772645
 30
0.0
 11
3598.844138517369
 21
2273.243535772645
 31
0.0
  0
LINE
  5
91
330
20
100
AcDbEntity
  8
_0-0_
  6
Continuous
 62
     4
100
AcDbLine
 10
3628.844138517369
 20
2273.243535772645
 30
0.0
 11
3668.844138517369
 21
2273.243535772645
 31
0.0
  0
LINE
  5
92
330
20
100
AcDbEntity
  8
_0-0_
  6
Continuous
 62
     4
100
AcDbLine
 10
3058.844138517369
 20
2273.243535772645
 30
0.0
 11
3028.844138517369
 21
2273.243535772645
 31
0.0
  0
LINE
  5
93
330
20
100
AcDbEntity
  8
_0-0_
  6
Continuous
 62
     4
100
AcDbLine
 10
3628.844138517369
 20
2273.243535772645
 30
0.0
 11
3598.844138517369
 21
2273.243535772645
 31
0.0
  0
LINE
  5
94
330
20
100
AcDbEntity
  8
_0-0_
  6
Continuous
 62
     4
100
AcDbLine
 10
3763.844138517369
 20
2603.243535772645
 30
0.0
 11
3742.110807425865
 21
2597.420107257839
 31
0.0
  0
LINE
  5
95
330
20
100
AcDbEntity
  8
_0-0_
  6
Continuous
 62
     4
100
AcDbLine
 10
3763.844138517369
 20
2603.243535772645
 30
0.0
 11
3742.110807425865
 21
2609.066964287452
 31
0.0
  0
LINE
  5
96
330
20
100
AcDbEntity
  8
_0-0_
  6
Continuous
 62
     4
100
AcDbLine
 10
2893.844138517369
 20
2603.243535772645
 30
0.0
 11
2915.577469608873
 21
2609.066964287452
 31
0.0
  0
LINE
  5
97
330
20
100
AcDbEntity
  8
_0-0_
  6
Continuous
 62
     4
100
AcDbLine
 10
2893.844138517369
 20
2603.243535772645
 30
0.0
 11
2915.577469608873
 21
2597.420107257839
 31
0.0
  0
LINE
  5
98
330
20
100
AcDbEntity
  8
_0-0_
  6
Continuous
 62
     4
100
AcDbLine
 10
2968.844138517369
 20
2493.243535772645
 30
0.0
 11
2990.577469608873
 21
2499.066964287452
 31
0.0
  0
LINE
  5
99
330
20
100
AcDbEntity
  8
_0-0_
  6
Continuous
 62
     4
100
AcDbLine
 10
2968.844138517369
 20
2493.243535772645
 30
0.0
 11
2990.577469608873
 21
2487.420107257838
 31
0.0
  0
LINE
  5
9A
330
20
100
AcDbEntity
  8
_0-0_
  6
Continuous
 62
     4
100
AcDbLine
 10
3688.844138517369
 20
2493.243535772645
 30
0.0
 11
3667.110807425865
 21
2487.420107257838
 31
0.0
  0
LINE
  5
9B
330
20
100
AcDbEntity
  8
_0-0_
  6
Continuous
 62
     4
100
AcDbLine
 10
3688.844138517369
 20
2493.243535772645
 30
0.0
 11
3667.110807425865
 21
2499.066964287452
 31
0.0
  0
LINE
  5
9C
330
20
100
AcDbEntity
  8
_0-0_
  6
Continuous
 62
     4
100
AcDbLine
 10
2968.844138517369
 20
2383.243535772645
 30
0.0
 11
2990.577469608873
 21
2389.066964287453
 31
0.0
  0
LINE
  5
9D
330
20
100
AcDbEntity
  8
_0-0_
  6
Continuous
 62
     4
100
AcDbLine
 10
2968.844138517369
 20
2383.243535772645
 30
0.0
 11
2990.577469608873
 21
2377.420107257838
 31
0.0
  0
LINE
  5
9E
330
20
100
AcDbEntity
  8
_0-0_
  6
Continuous
 62
     4
100
AcDbLine
 10
3028.844138517369
 20
2383.243535772645
 30
0.0
 11
3007.110807425864
 21
2377.420107257838
 31
0.0
  0
LINE
  5
9F
330
20
100
AcDbEntity
  8
_0-0_
  6
Continuous
 62
     4
100
AcDbLine
 10
3028.844138517369
 20
2383.243535772645
 30
0.0
 11
3007.110807425864
 21
2389.066964287453
 31
0.0
  0
LINE
  5
A0
330
20
100
AcDbEntity
  8
_0-0_
  6
Continuous
 62
     4
100
AcDbLine
 10
3028.844138517369
 20
2383.243535772645
 30
0.0
 11
3050.577469608873
 21
2389.066964287453
 31
0.0
  0
LINE
  5
A1
330
20
100
AcDbEntity
  8
_0-0_
  6
Continuous
 62
     4
100
AcDbLine
 10
3028.844138517369
 20
2383.243535772645
 30
0.0
 11
3050.577469608873
 21
2377.420107257838
 31
0.0
  0
LINE
  5
A2
330
20
100
AcDbEntity
  8
_0-0_
  6
Continuous
 62
     4
100
AcDbLine
 10
3628.844138517369
 20
2383.243535772645
 30
0.0
 11
3607.110807425865
 21
2377.420107257838
 31
0.0
  0
LINE
  5
A3
330
20
100
AcDbEntity
  8
_0-0_
  6
Continuous
 62
     4
100
AcDbLine
 10
3628.844138517369
 20
2383.243535772645
 30
0.0
 11
3607.110807425865
 21
2389.066964287453
 31
0.0
  0
LINE
  5
A4
330
20
100
AcDbEntity
  8
_0-0_
  6
Continuous
 62
     4
100
AcDbLine
 10
3628.844138517369
 20
2383.243535772645
 30
0.0
 11
3650.577469608872
 21
2389.066964287453
 31
0.0
  0
LINE
  5
A5
330
20
100
AcDbEntity
  8
_0-0_
  6
Continuous
 62
     4
100
AcDbLine
 10
3628.844138517369
 20
2383.243535772645
 30
0.0
 11
3650.577469608872
 21
2377.420107257838
 31
0.0
  0
LINE
  5
A6
330
20
100
AcDbEntity
  8
_0-0_
  6
Continuous
 62
     4
100
AcDbLine
 10
3688.844138517369
 20
2383.243535772645
 30
0.0
 11
3667.110807425865
 21
2377.420107257838
 31
0.0
  0
LINE
  5
A7
330
20
100
AcDbEntity
  8
_0-0_
  6
Continuous
 62
     4
100
AcDbLine
 10
3688.844138517369
 20
2383.243535772645
 30
0.0
 11
3667.110807425865
 21
2389.066964287453
 31
0.0
  0
LINE
  5
A8
330
20
100
AcDbEntity
  8
_0-0_
  6
Continuous
 62
     4
100
AcDbLine
 10
3628.844138517369
 20
2273.243535772645
 30
0.0
 11
3650.577469608872
 21
2279.066964287452
 31
0.0
  0
LINE
  5
A9
330
20
100
AcDbEntity
  8
_0-0_
  6
Continuous
 62
     4
100
AcDbLine
 10
3628.844138517369
 20
2273.243535772645
 30
0.0
 11
3650.577469608872
 21
2267.420107257839
 31
0.0
  0
LINE
  5
AA
330
20
100
AcDbEntity
  8
_0-0_
  6
Continuous
 62
     4
100
AcDbLine
 10
3598.844138517369
 20
2273.243535772645
 30
0.0
 11
3577.110807425865
 21
2267.420107257839
 31
0.0
  0
LINE
  5
AB
330
20
100
AcDbEntity
  8
_0-0_
  6
Continuous
 62
     4
100
AcDbLine
 10
3598.844138517369
 20
2273.243535772645
 30
0.0
 11
3577.110807425865
 21
2279.066964287452
 31
0.0
  0
LINE
  5
AC
330
20
100
AcDbEntity
  8
_0-0_
  6
Continuous
 62
     4
100
AcDbLine
 10
3058.844138517369
 20
2273.243535772645
 30
0.0
 11
3080.577469608873
 21
2279.066964287452
 31
0.0
  0
LINE
  5
AD
330
20
100
AcDbEntity
  8
_0-0_
  6
Continuous
 62
     4
100
AcDbLine
 10
3058.844138517369
 20
2273.243535772645
 30
0.0
 11
3080.577469608873
 21
2267.420107257839
 31
0.0
  0
LINE
  5
AE
330
20
100
AcDbEntity
  8
_0-0_
  6
Continuous
 62
     4
100
AcDbLine
 10
3028.844138517369
 20
2273.243535772645
 30
0.0
 11
3007.110807425864
 21
2267.420107257839
 31
0.0
  0
LINE
  5
AF
330
20
100
AcDbEntity
  8
_0-0_
  6
Continuous
 62
     4
100
AcDbLine
 10
3028.844138517369
 20
2273.243535772645
 30
0.0
 11
3007.110807425864
 21
2279.066964287452
 31
0.0
  0
TEXT
  5
B0
330
20
100
AcDbEntity
  8
_0-0_
 62
     7
100
AcDbText
 10
3298.033519264464
 20
2612.386852941457
 30
0.0
 40
45.0
  1
870
100
AcDbText
  0
TEXT
  5
B1
330
20
100
AcDbEntity
  8
_0-0_
 62
     7
100
AcDbText
 10
3295.147972746169
 20
2502.736085246241
 30
0.0
 40
45.0
  1
720
100
AcDbText
  0
TEXT
  5
B2
330
20
100
AcDbEntity
  8
_0-0_
 62
     7
100
AcDbText
 10
3296.590746005317
 20
2393.085317551026
 30
0.0
 40
45.0
  1
600
100
AcDbText
  0
TEXT
  5
B3
330
20
100
AcDbEntity
  8
_0-0_
 62
     7
100
AcDbText
 10
2979.180628992851
 20
2394.528090810173
 30
0.0
 40
45.0
  1
60
100
AcDbText
  0
TEXT
  5
B4
330
20
100
AcDbEntity
  8
_0-0_
 62
     7
100
AcDbText
 10
3601.125550681403
 20
2394.528090810173
 30
0.0
 40
45.0
  1
60
100
AcDbText
  0
TEXT
  5
B5
330
20
100
AcDbEntity
  8
_0-0_
 62
     7
100
AcDbText
 10
3038.942644931089
 20
2284.877323114958
 30
0.0
 40
45.0
  1
30
100
AcDbText
  0
TEXT
  5
B6
330
20
100
AcDbEntity
  8
_0-0_
 62
     7
100
AcDbText
 10
3543.414620315501
 20
2286.320096374106
 30
0.0
 40
45.0
  1
30
100
AcDbText
  0
LINE
  5
B7
330
20
100
AcDbEntity
  8
_0-0_
  6
Continuous
 62
     4
100
AcDbLine
 10
2443.844138517369
 20
2153.243535772645
 30
0.0
 11
2443.844138517369
 21
1283.243535772645
 31
0.0
  0
LINE
  5
B8
330
20
100
AcDbEntity
  8
_0-0_
  6
Continuous
 62
     4
100
AcDbLine
 10
2873.844138517369
 20
1283.243535772645
 30
0.0
 11
2433.844138517368
 21
1283.243535772645
 31
0.0
  0
LINE
  5
B9
330
20
100
AcDbEntity
  8
_0-0_
  6
Continuous
 62
     4
100
AcDbLine
 10
2873.844138517369
 20
2153.243535772645
 30
0.0
 11
2433.844138517368
 21
2153.243535772645
 31
0.0
  0
LINE
  5
BA
330
20
100
AcDbEntity
  8
_0-0_
  6
Continuous
 62
     4
100
AcDbLine
 10
2873.844138517369
 20
1358.243535772645
 30
0.0
 11
2543.844138517368
 21
1358.243535772645
 31
0.0
  0
LINE
  5
BB
330
20
100
AcDbEntity
  8
_0-0_
  6
Continuous
 62
     4
100
AcDbLine
 10
2873.844138517369
 20
2078.243535772644
 30
0.0
 11
2543.844138517368
 21
2078.243535772644
 31
0.0
  0
LINE
  5
BC
330
20
100
AcDbEntity
  8
_0-0_
  6
Continuous
 62
     4
100
AcDbLine
 10
2553.844138517368
 20
2078.243535772644
 30
0.0
 11
2553.844138517368
 21
1358.243535772645
 31
0.0
  0
LINE
  5
BD
330
20
100
AcDbEntity
  8
_0-0_
  6
Continuous
 62
     4
100
AcDbLine
 10
2873.844138517369
 20
2018.243535772645
 30
0.0
 11
2653.844138517369
 21
2018.243535772645
 31
0.0
  0
LINE
  5
BE
330
20
100
AcDbEntity
  8
_0-0_
  6
Continuous
 62
     4
100
AcDbLine
 10
2873.844138517369
 20
1418.243535772645
 30
0.0
 11
2653.844138517369
 21
1418.243535772645
 31
0.0
  0
LINE
  5
BF
330
20
100
AcDbEntity
  8
_0-0_
  6
Continuous
 62
     4
100
AcDbLine
 10
2663.844138517368
 20
2078.243535772644
 30
0.0
 11
2663.844138517368
 21
2018.243535772645
 31
0.0
  0
LINE
  5
C0
330
20
100
AcDbEntity
  8
_0-0_
  6
Continuous
 62
     4
100
AcDbLine
 10
2663.844138517368
 20
1418.243535772645
 30
0.0
 11
2663.844138517368
 21
1358.243535772645
 31
0.0
  0
LINE
  5
C1
330
20
100
AcDbEntity
  8
_0-0_
  6
Continuous
 62
     4
100
AcDbLine
 10
2663.844138517368
 20
2018.243535772645
 30
0.0
 11
2663.844138517368
 21
1418.243535772645
 31
0.0
  0
LINE
  5
C2
330
20
100
AcDbEntity
  8
_0-0_
  6
Continuous
 62
     4
100
AcDbLine
 10
2873.844138517369
 20
1448.243535772644
 30
0.0
 11
2763.844138517369
 21
1448.243535772644
 31
0.0
  0
LINE
  5
C3
330
20
100
AcDbEntity
  8
_0-0_
  6
Continuous
 62
     4
100
AcDbLine
 10
2873.844138517369
 20
1988.243535772644
 30
0.0
 11
2763.844138517369
 21
1988.243535772644
 31
0.0
  0
LINE
  5
C4
330
20
100
AcDbEntity
  8
_0-0_
  6
Continuous
 62
     4
100
AcDbLine
 10
2773.844138517369
 20
2058.243535772644
 30
0.0
 11
2773.844138517369
 21
2018.243535772645
 31
0.0
  0
LINE
  5
C5
330
20
100
AcDbEntity
  8
_0-0_
  6
Continuous
 62
     4
100
AcDbLine
 10
2773.844138517369
 20
1988.243535772644
 30
0.0
 11
2773.844138517369
 21
1948.243535772645
 31
0.0
  0
LINE
  5
C6
330
20
100
AcDbEntity
  8
_0-0_
  6
Continuous
 62
     4
100
AcDbLine
 10
2773.844138517369
 20
1488.243535772644
 30
0.0
 11
2773.844138517369
 21
1448.243535772644
 31
0.0
  0
LINE
  5
C7
330
20
100
AcDbEntity
  8
_0-0_
  6
Continuous
 62
     4
100
AcDbLine
 10
2773.844138517369
 20
1418.243535772645
 30
0.0
 11
2773.844138517369
 21
1378.243535772645
 31
0.0
  0
LINE
  5
C8
330
20
100
AcDbEntity
  8
_0-0_
  6
Continuous
 62
     4
100
AcDbLine
 10
2773.844138517369
 20
2018.243535772645
 30
0.0
 11
2773.844138517369
 21
1988.243535772644
 31
0.0
  0
LINE
  5
C9
330
20
100
AcDbEntity
  8
_0-0_
  6
Continuous
 62
     4
100
AcDbLine
 10
2773.844138517369
 20
1448.243535772644
 30
0.0
 11
2773.844138517369
 21
1418.243535772645
 31
0.0
  0
LINE
  5
CA
330
20
100
AcDbEntity
  8
_0-0_
  6
Continuous
 62
     4
100
AcDbLine
 10
2443.844138517369
 20
2153.243535772645
 30
0.0
 11
2449.667567032176
 21
2131.510204681141
 31
0.0
  0
LINE
  5
CB
330
20
100
AcDbEntity
  8
_0-0_
  6
Continuous
 62
     4
100
AcDbLine
 10
2443.844138517369
 20
2153.243535772645
 30
0.0
 11
2438.020710002561
 21
2131.510204681141
 31
0.0
  0
LINE
  5
CC
330
20
100
AcDbEntity
  8
_0-0_
  6
Continuous
 62
     4
100
AcDbLine
 10
2443.844138517369
 20
1283.243535772645
 30
0.0
 11
2438.020710002561
 21
1304.976866864149
 31
0.0
  0
LINE
  5
CD
330
20
100
AcDbEntity
  8
_0-0_
  6
Continuous
 62
     4
100
AcDbLine
 10
2443.844138517369
 20
1283.243535772645
 30
0.0
 11
2449.667567032176
 21
1304.976866864149
 31
0.0
  0
LINE
  5
CE
330
20
100
AcDbEntity
  8
_0-0_
  6
Continuous
 62
     4
100
AcDbLine
 10
2553.844138517368
 20
1358.243535772645
 30
0.0
 11
2548.020710002562
 21
1379.976866864149
 31
0.0
  0
LINE
  5
CF
330
20
100
AcDbEntity
  8
_0-0_
  6
Continuous
 62
     4
100
AcDbLine
 10
2553.844138517368
 20
1358.243535772645
 30
0.0
 11
2559.667567032175
 21
1379.976866864149
 31
0.0
  0
LINE
  5
D0
330
20
100
AcDbEntity
  8
_0-0_
  6
Continuous
 62
     4
100
AcDbLine
 10
2553.844138517368
 20
2078.243535772644
 30
0.0
 11
2559.667567032175
 21
2056.510204681141
 31
0.0
  0
LINE
  5
D1
330
20
100
AcDbEntity
  8
_0-0_
  6
Continuous
 62
     4
100
AcDbLine
 10
2553.844138517368
 20
2078.243535772644
 30
0.0
 11
2548.020710002562
 21
2056.510204681141
 31
0.0
  0
LINE
  5
D2
330
20
100
AcDbEntity
  8
_0-0_
  6
Continuous
 62
     4
100
AcDbLine
 10
2663.844138517368
 20
2078.243535772644
 30
0.0
 11
2669.667567032175
 21
2056.510204681141
 31
0.0
  0
LINE
  5
D3
330
20
100
AcDbEntity
  8
_0-0_
  6
Continuous
 62
     4
100
AcDbLine
 10
2663.844138517368
 20
2078.243535772644
 30
0.0
 11
2658.020710002561
 21
2056.510204681141
 31
0.0
  0
LINE
  5
D4
330
20
100
AcDbEntity
  8
_0-0_
  6
Continuous
 62
     4
100
AcDbLine
 10
2663.844138517368
 20
2018.243535772645
 30
0.0
 11
2658.020710002561
 21
2039.976866864149
 31
0.0
  0
LINE
  5
D5
330
20
100
AcDbEntity
  8
_0-0_
  6
Continuous
 62
     4
100
AcDbLine
 10
2663.844138517368
 20
2018.243535772645
 30
0.0
 11
2669.667567032175
 21
2039.976866864149
 31
0.0
  0
LINE
  5
D6
330
20
100
AcDbEntity
  8
_0-0_
  6
Continuous
 62
     4
100
AcDbLine
 10
2663.844138517368
 20
2018.243535772645
 30
0.0
 11
2669.667567032175
 21
1996.510204681141
 31
0.0
  0
LINE
  5
D7
330
20
100
AcDbEntity
  8
_0-0_
  6
Continuous
 62
     4
100
AcDbLine
 10
2663.844138517368
 20
2018.243535772645
 30
0.0
 11
2658.020710002561
 21
1996.510204681141
 31
0.0
  0
LINE
  5
D8
330
20
100
AcDbEntity
  8
_0-0_
  6
Continuous
 62
     4
100
AcDbLine
 10
2663.844138517368
 20
1418.243535772645
 30
0.0
 11
2658.020710002561
 21
1439.976866864149
 31
0.0
  0
LINE
  5
D9
330
20
100
AcDbEntity
  8
_0-0_
  6
Continuous
 62
     4
100
AcDbLine
 10
2663.844138517368
 20
1418.243535772645
 30
0.0
 11
2669.667567032175
 21
1439.976866864149
 31
0.0
  0
LINE
  5
DA
330
20
100
AcDbEntity
  8
_0-0_
  6
Continuous
 62
     4
100
AcDbLine
 10
2663.844138517368
 20
1418.243535772645
 30
0.0
 11
2669.667567032175
 21
1396.510204681141
 31
0.0
  0
LINE
  5
DB
330
20
100
AcDbEntity
  8
_0-0_
  6
Continuous
 62
     4
100
AcDbLine
 10
2663.844138517368
 20
1418.243535772645
 30
0.0
 11
2658.020710002561
 21
1396.510204681141
 31
0.0
  0
LINE
  5
DC
330
20
100
AcDbEntity
  8
_0-0_
  6
Continuous
 62
     4
100
AcDbLine
 10
2663.844138517368
 20
1358.243535772645
 30
0.0
 11
2658.020710002561
 21
1379.976866864149
 31
0.0
  0
LINE
  5
DD
330
20
100
AcDbEntity
  8
_0-0_
  6
Continuous
 62
     4
100
AcDbLine
 10
2663.844138517368
 20
1358.243535772645
 30
0.0
 11
2669.667567032175
 21
1379.976866864149
 31
0.0
  0
LINE
  5
DE
330
20
100
AcDbEntity
  8
_0-0_
  6
Continuous
 62
     4
100
AcDbLine
 10
2773.844138517369
 20
1418.243535772645
 30
0.0
 11
2779.667567032175
 21
1396.510204681141
 31
0.0
  0
LINE
  5
DF
330
20
100
AcDbEntity
  8
_0-0_
  6
Continuous
 62
     4
100
AcDbLine
 10
2773.844138517369
 20
1418.243535772645
 30
0.0
 11
2768.020710002561
 21
1396.510204681141
 31
0.0
  0
LINE
  5
E0
330
20
100
AcDbEntity
  8
_0-0_
  6
Continuous
 62
     4
100
AcDbLine
 10
2773.844138517369
 20
1448.243535772644
 30
0.0
 11
2768.020710002561
 21
1469.976866864149
 31
0.0
  0
LINE
  5
E1
330
20
100
AcDbEntity
  8
_0-0_
  6
Continuous
 62
     4
100
AcDbLine
 10
2773.844138517369
 20
1448.243535772644
 30
0.0
 11
2779.667567032175
 21
1469.976866864149
 31
0.0
  0
LINE
  5
E2
330
20
100
AcDbEntity
  8
_0-0_
  6
Continuous
 62
     4
100
AcDbLine
 10
2773.844138517369
 20
1988.243535772644
 30
0.0
 11
2779.667567032175
 21
1966.510204681141
 31
0.0
  0
LINE
  5
E3
330
20
100
AcDbEntity
  8
_0-0_
  6
Continuous
 62
     4
100
AcDbLine
 10
2773.844138517369
 20
1988.243535772644
 30
0.0
 11
2768.020710002561
 21
1966.510204681141
 31
0.0
  0
LINE
  5
E4
330
20
100
AcDbEntity
  8
_0-0_
  6
Continuous
 62
     4
100
AcDbLine
 10
2773.844138517369
 20
2018.243535772645
 30
0.0
 11
2768.020710002561
 21
2039.976866864149
 31
0.0
  0
LINE
  5
E5
330
20
100
AcDbEntity
  8
_0-0_
  6
Continuous
 62
     4
100
AcDbLine
 10
2773.844138517369
 20
2018.243535772645
 30
0.0
 11
2779.667567032175
 21
2039.976866864149
 31
0.0
  0
TEXT
  5
E6
330
20
100
AcDbEntity
  8
_0-0_
 62
     7
100
AcDbText
 10
2433.757305088966
 20
1661.826877823797
 30
0.0
 40
45.0
  1
870
 50
90.0
100
AcDbText
  0
TEXT
  5
E7
330
20
100
AcDbEntity
  8
_0-0_
 62
     7
100
AcDbText
 10
2541.857857012661
 20
1665.153048652218
 30
0.0
 40
45.0
  1
720
 50
90.0
100
AcDbText
  0
TEXT
  5
E8
330
20
100
AcDbEntity
  8
_0-0_
 62
     7
100
AcDbText
 10
2653.284579764778
 20
1668.689208615639
 30
0.0
 40
45.0
  1
600
 50
90.0
100
AcDbText
  0
TEXT
  5
E9
330
20
100
AcDbEntity
  8
_0-0_
 62
     7
100
AcDbText
 10
2651.621494350567
 20
1997.361311246029
 30
0.0
 40
45.0
  1
60
 50
90.0
100
AcDbText
  0
TEXT
  5
EA
330
20
100
AcDbEntity
  8
_0-0_
 62
     7
100
AcDbText
 10
2651.621494350567
 20
1374.285036887359
 30
0.0
 40
45.0
  1
60
 50
90.0
100
AcDbText
  0
TEXT
  5
EB
330
20
100
AcDbEntity
  8
_0-0_
 62
     7
100
AcDbText
 10
2758.058960860052
 20
1432.493026384733
 30
0.0
 40
45.0
  1
30
 50
90.0
100
AcDbText
  0
TEXT
  5
EC
330
20
100
AcDbEntity
  8
_0-0_
 62
     7
100
AcDbText
 10
2759.722046274263
 20
1940.816407162865
 30
0.0
 40
45.0
  1
30
 50
90.0
100
AcDbText
  0
LINE
  5
ED
330
20
100
AcDbEntity
  8
_0-0_
  6
DASHED1
 62
   136
100
AcDbLine
 10
3058.844138517369
 20
2018.243535772645
 30
0.0
 11
3058.844138517369
 21
1418.243535772645
 31
0.0
  0
LINE
  5
EE
330
20
100
AcDbEntity
  8
_0-0_
  6
DASHED1
 62
   136
100
AcDbLine
 10
3028.844138517369
 20
1988.243535772644
 30
0.0
 11
3628.844138517369
 21
1988.243535772644
 31
0.0
  0
LINE
  5
EF
330
20
100
AcDbEntity
  8
_0-0_
  6
DASHED1
 62
   136
100
AcDbLine
 10
3598.844138517369
 20
2018.243535772645
 30
0.0
 11
3598.844138517369
 21
1418.243535772645
 31
0.0
  0
LINE
  5
F0
330
20
100
AcDbEntity
  8
_0-0_
  6
DASHED1
 62
   136
100
AcDbLine
 10
3028.844138517369
 20
1448.243535772644
 30
0.0
 11
3628.844138517369
 21
1448.243535772644
 31
0.0
  0
LINE
  5
F1
330
20
100
AcDbEntity
  8
_0-0_
  6
DASHED1
 62
   136
100
AcDbLine
 10
3058.844138517369
 20
2018.243535772645
 30
0.0
 11
3028.844138517369
 21
1988.243535772644
 31
0.0
  0
LINE
  5
F2
330
20
100
AcDbEntity
  8
_0-0_
  6
DASHED1
 62
   136
100
AcDbLine
 10
3058.844138517369
 20
2018.243535772645
 30
0.0
 11
3598.844138517369
 21
2018.243535772645
 31
0.0
  0
LINE
  5
F3
330
20
100
AcDbEntity
  8
_0-0_
  6
DASHED1
 62
   136
100
AcDbLine
 10
3598.844138517369
 20
2018.243535772645
 30
0.0
 11
3628.844138517369
 21
1988.243535772644
 31
0.0
  0
LINE
  5
F4
330
20
100
AcDbEntity
  8
_0-0_
  6
DASHED1
 62
   136
100
AcDbLine
 10
3628.844138517369
 20
1988.243535772644
 30
0.0
 11
3628.844138517369
 21
1448.243535772644
 31
0.0
  0
LINE
  5
F5
330
20
100
AcDbEntity
  8
_0-0_
  6
DASHED1
 62
   136
100
AcDbLine
 10
3628.844138517369
 20
1448.243535772644
 30
0.0
 11
3598.844138517369
 21
1418.243535772645
 31
0.0
  0
LINE
  5
F6
330
20
100
AcDbEntity
  8
_0-0_
  6
DASHED1
 62
   136
100
AcDbLine
 10
3058.844138517369
 20
1418.243535772645
 30
0.0
 11
3598.844138517369
 21
1418.243535772645
 31
0.0
  0
LINE
  5
F7
330
20
100
AcDbEntity
  8
_0-0_
  6
DASHED1
 62
   136
100
AcDbLine
 10
3028.844138517369
 20
1448.243535772644
 30
0.0
 11
3058.844138517369
 21
1418.243535772645
 31
0.0
  0
LINE
  5
F8
330
20
100
AcDbEntity
  8
_0-0_
  6
DASHED1
 62
   136
100
AcDbLine
 10
3028.844138517369
 20
1988.243535772644
 30
0.0
 11
3028.844138517369
 21
1448.243535772644
 31
0.0
  0
LINE
  5
F9
330
20
100
AcDbEntity
  8
_0-0_
  6
DASHED1
 62
   136
100
AcDbLine
 10
3116.712104161405
 20
1930.375570128608
 30
0.0
 11
3058.844138517369
 21
1988.243535772644
 31
0.0
  0
LINE
  5
FA
330
20
100
AcDbEntity
  8
_0-0_
  6
DASHED1
 62
   136
100
AcDbLine
 10
3540.976172873334
 20
1930.375570128608
 30
0.0
 11
3598.844138517369
 21
1988.243535772644
 31
0.0
  0
LINE
  5
FB
330
20
100
AcDbEntity
  8
_0-0_
  6
DASHED1
 62
   136
100
AcDbLine
 10
3540.976172873334
 20
1506.11150141668
 30
0.0
 11
3598.844138517369
 21
1448.243535772644
 31
0.0
  0
LINE
  5
FC
330
20
100
AcDbEntity
  8
_0-0_
  6
DASHED1
 62
   136
100
AcDbLine
 10
3116.712104161405
 20
1506.111501416681
 30
0.0
 11
3058.844138517369
 21
1448.243535772644
 31
0.0
  0
LINE
  5
FD
330
20
100
AcDbEntity
  8
_0-0_
  6
Continuous
 62
     4
100
AcDbLine
 10
3610.751924753141
 20
1820.849578770345
 30
0.0
 11
3046.936352281596
 21
1615.637492774944
 31
0.0
  0
LINE
  5
FE
330
20
100
AcDbEntity
  8
_0-0_
  6
Continuous
 62
     4
100
AcDbLine
 10
3737.610428559239
 20
1867.022298119311
 30
0.0
 11
3610.751924753141
 21
1820.849578770345
 31
0.0
  0
LINE
  5
FF
330
20
100
AcDbEntity
  8
_0-0_
  6
Continuous
 62
     4
100
AcDbLine
 10
3046.936352281596
 20
1615.637492774944
 30
0.0
 11
2920.077848475499
 21
1569.464773425979
 31
0.0
  0
LINE
  5
100
330
20
100
AcDbEntity
  8
_0-0_
  6
Continuous
 62
     4
100
AcDbLine
 10
2920.077848475499
 20
1569.464773425979
 30
0.0
 11
2938.508769472001
 21
1582.370243243878
 31
0.0
  0
LINE
  5
101
330
20
100
AcDbEntity
  8
_0-0_
  6
Continuous
 62
     4
100
AcDbLine
 10
2920.077848475499
 20
1569.464773425979
 30
0.0
 11
2942.492229182564
 21
1571.425777637801
 31
0.0
  0
LINE
  5
102
330
20
100
AcDbEntity
  8
_0-0_
  6
Continuous
 62
     4
100
AcDbLine
 10
3046.936352281596
 20
1615.637492774944
 30
0.0
 11
3028.505431285095
 21
1602.732022957046
 31
0.0
  0
LINE
  5
103
330
20
100
AcDbEntity
  8
_0-0_
  6
Continuous
 62
     4
100
AcDbLine
 10
3046.936352281596
 20
1615.637492774944
 30
0.0
 11
3024.521971574532
 21
1613.676488563122
 31
0.0
  0
LINE
  5
104
330
20
100
AcDbEntity
  8
_0-0_
  6
Continuous
 62
     4
100
AcDbLine
 10
3046.936352281596
 20
1615.637492774944
 30
0.0
 11
3065.367273278099
 21
1628.542962592843
 31
0.0
  0
LINE
  5
105
330
20
100
AcDbEntity
  8
_0-0_
  6
Continuous
 62
     4
100
AcDbLine
 10
3046.936352281596
 20
1615.637492774944
 30
0.0
 11
3069.350732988661
 21
1617.598496986766
 31
0.0
  0
LINE
  5
106
330
20
100
AcDbEntity
  8
_0-0_
  6
Continuous
 62
     4
100
AcDbLine
 10
3610.751924753141
 20
1820.849578770345
 30
0.0
 11
3592.321003756639
 21
1807.944108952447
 31
0.0
  0
LINE
  5
107
330
20
100
AcDbEntity
  8
_0-0_
  6
Continuous
 62
     4
100
AcDbLine
 10
3610.751924753141
 20
1820.849578770345
 30
0.0
 11
3588.337544046077
 21
1818.888574558523
 31
0.0
  0
LINE
  5
108
330
20
100
AcDbEntity
  8
_0-0_
  6
Continuous
 62
     4
100
AcDbLine
 10
3737.610428559239
 20
1867.022298119311
 30
0.0
 11
3719.179507562737
 21
1854.116828301412
 31
0.0
  0
LINE
  5
109
330
20
100
AcDbEntity
  8
_0-0_
  6
Continuous
 62
     4
100
AcDbLine
 10
3737.610428559239
 20
1867.022298119311
 30
0.0
 11
3715.196047852174
 21
1865.061293907489
 31
0.0
  0
LINE
  5
10A
330
20
100
AcDbEntity
  8
_0-0_
  6
Continuous
 62
     4
100
AcDbLine
 10
3610.751924753141
 20
1820.849578770345
 30
0.0
 11
3629.182845749645
 21
1833.755048588244
 31
0.0
  0
LINE
  5
10B
330
20
100
AcDbEntity
  8
_0-0_
  6
Continuous
 62
     4
100
AcDbLine
 10
3610.751924753141
 20
1820.849578770345
 30
0.0
 11
3633.166305460206
 21
1822.810582982168
 31
0.0
  0
TEXT
  5
10C
330
20
100
AcDbEntity
  8
_0-0_
 62
     7
100
AcDbText
 10
3249.677944576561
 20
1707.279261230004
 30
0.0
 40
45.0
  1
φ600
 50
20.00000000000003
100
AcDbText
  0
TEXT
  5
10D
330
20
100
AcDbEntity
  8
_0-0_
 62
     7
100
AcDbText
 10
3612.926542772621
 20
1842.109526935965
 30
0.0
 40
45.0
  1
135
 50
19.99999999999995
100
AcDbText
  0
TEXT
  5
10E
330
20
100
AcDbEntity
  8
_0-0_
 62
     7
100
AcDbText
 10
2929.257783722394
 20
1594.656333405024
 30
0.0
 40
45.0
  1
135
 50
20.00000000000001
100
AcDbText
  0
LINE
  5
10F
330
20
100
AcDbEntity
  8
_0-0_
  6
DASHED1
 62
   136
100
AcDbLine
 10
3128.844138517369
 20
1383.243535772645
 30
0.0
 11
3118.844138517369
 21
1358.243535772645
 31
0.0
  0
LINE
  5
110
330
20
100
AcDbEntity
  8
_0-0_
  6
DASHED1
 62
   136
100
AcDbLine
 10
3528.844138517369
 20
1383.243535772645
 30
0.0
 11
3538.844138517369
 21
1358.243535772645
 31
0.0
  0
LINE
  5
111
330
20
100
AcDbEntity
  8
_0-0_
  6
DASHED1
 62
   136
100
AcDbLine
 10
3128.844138517369
 20
1383.243535772645
 30
0.0
 11
3528.844138517369
 21
1383.243535772645
 31
0.0
  0
LINE
  5
112
330
20
100
AcDbEntity
  8
_0-0_
  6
DASHED1
 62
   136
100
AcDbLine
 10
3118.844138517369
 20
2078.243535772644
 30
0.0
 11
3128.844138517369
 21
2053.243535772645
 31
0.0
  0
LINE
  5
113
330
20
100
AcDbEntity
  8
_0-0_
  6
DASHED1
 62
   136
100
AcDbLine
 10
3538.844138517369
 20
2078.243535772644
 30
0.0
 11
3528.844138517369
 21
2053.243535772645
 31
0.0
  0
LINE
  5
114
330
20
100
AcDbEntity
  8
_0-0_
  6
DASHED1
 62
   136
100
AcDbLine
 10
3128.844138517369
 20
2053.243535772645
 30
0.0
 11
3528.844138517369
 21
2053.243535772645
 31
0.0
  0
LINE
  5
115
330
20
100
AcDbEntity
  8
_0-0_
  6
DASHED1
 62
   136
100
AcDbLine
 10
2968.844138517369
 20
1928.243535772645
 30
0.0
 11
2993.844138517369
 21
1918.243535772645
 31
0.0
  0
LINE
  5
116
330
20
100
AcDbEntity
  8
_0-0_
  6
DASHED1
 62
   136
100
AcDbLine
 10
2993.844138517369
 20
1518.243535772645
 30
0.0
 11
2968.844138517369
 21
1508.243535772645
 31
0.0
  0
LINE
  5
117
330
20
100
AcDbEntity
  8
_0-0_
  6
DASHED1
 62
   136
100
AcDbLine
 10
2993.844138517369
 20
1918.243535772645
 30
0.0
 11
2993.844138517369
 21
1518.243535772645
 31
0.0
  0
LINE
  5
118
330
20
100
AcDbEntity
  8
_0-0_
  6
DASHED1
 62
   136
100
AcDbLine
 10
3688.844138517369
 20
1508.243535772645
 30
0.0
 11
3663.844138517369
 21
1518.243535772645
 31
0.0
  0
LINE
  5
119
330
20
100
AcDbEntity
  8
_0-0_
  6
DASHED1
 62
   136
100
AcDbLine
 10
3663.844138517369
 20
1918.243535772645
 30
0.0
 11
3663.844138517369
 21
1518.243535772645
 31
0.0
  0
LINE
  5
11A
330
20
100
AcDbEntity
  8
_0-0_
  6
DASHED1
 62
   136
100
AcDbLine
 10
3688.844138517369
 20
1928.243535772645
 30
0.0
 11
3663.844138517369
 21
1918.243535772645
 31
0.0
  0
LINE
  5
11B
330
20
100
AcDbEntity
  8
_0-0_
  6
Continuous
 62
     4
100
AcDbLine
 10
3128.844138517369
 20
1263.243535772645
 30
0.0
 11
3128.844138517369
 21
1153.243535772645
 31
0.0
  0
LINE
  5
11C
330
20
100
AcDbEntity
  8
_0-0_
  6
Continuous
 62
     4
100
AcDbLine
 10
3528.844138517369
 20
1263.243535772645
 30
0.0
 11
3528.844138517369
 21
1153.243535772645
 31
0.0
  0
LINE
  5
11D
330
20
100
AcDbEntity
  8
_0-0_
  6
Continuous
 62
     4
100
AcDbLine
 10
3128.844138517369
 20
1163.243535772645
 30
0.0
 11
3528.844138517369
 21
1163.243535772645
 31
0.0
  0
LINE
  5
11E
330
20
100
AcDbEntity
  8
_0-0_
  6
Continuous
 62
     4
100
AcDbLine
 10
3128.844138517369
 20
1163.243535772645
 30
0.0
 11
3150.577469608874
 21
1169.066964287451
 31
0.0
  0
LINE
  5
11F
330
20
100
AcDbEntity
  8
_0-0_
  6
Continuous
 62
     4
100
AcDbLine
 10
3128.844138517369
 20
1163.243535772645
 30
0.0
 11
3150.577469608874
 21
1157.420107257838
 31
0.0
  0
LINE
  5
120
330
20
100
AcDbEntity
  8
_0-0_
  6
Continuous
 62
     4
100
AcDbLine
 10
3528.844138517369
 20
1163.243535772645
 30
0.0
 11
3507.110807425866
 21
1157.420107257838
 31
0.0
  0
LINE
  5
121
330
20
100
AcDbEntity
  8
_0-0_
  6
Continuous
 62
     4
100
AcDbLine
 10
3528.844138517369
 20
1163.243535772645
 30
0.0
 11
3507.110807425866
 21
1169.066964287451
 31
0.0
  0
TEXT
  5
122
330
20
100
AcDbEntity
  8
_0-0_
 62
     7
100
AcDbText
 10
3273.713042042052
 20
1173.137744869507
 30
0.0
 40
45.0
  1
400
100
AcDbText
  0
LINE
  5
123
330
20
100
AcDbEntity
  8
_0-0_
  6
Continuous
 62
     4
100
AcDbLine
 10
3783.844138517368
 20
1918.243535772645
 30
0.0
 11
3893.844138517369
 21
1918.243535772645
 31
0.0
  0
LINE
  5
124
330
20
100
AcDbEntity
  8
_0-0_
  6
Continuous
 62
     4
100
AcDbLine
 10
3783.844138517368
 20
1518.243535772645
 30
0.0
 11
3893.844138517369
 21
1518.243535772645
 31
0.0
  0
LINE
  5
125
330
20
100
AcDbEntity
  8
_0-0_
  6
Continuous
 62
     4
100
AcDbLine
 10
3883.844138517369
 20
1918.243535772645
 30
0.0
 11
3889.667567032176
 21
1896.51020468114
 31
0.0
  0
LINE
  5
126
330
20
100
AcDbEntity
  8
_0-0_
  6
Continuous
 62
     4
100
AcDbLine
 10
3883.844138517369
 20
1918.243535772645
 30
0.0
 11
3878.020710002562
 21
1896.51020468114
 31
0.0
  0
LINE
  5
127
330
20
100
AcDbEntity
  8
_0-0_
  6
Continuous
 62
     4
100
AcDbLine
 10
3883.844138517369
 20
1518.243535772645
 30
0.0
 11
3878.020710002562
 21
1539.976866864149
 31
0.0
  0
LINE
  5
128
330
20
100
AcDbEntity
  8
_0-0_
  6
Continuous
 62
     4
100
AcDbLine
 10
3883.844138517369
 20
1518.243535772645
 30
0.0
 11
3889.667567032176
 21
1539.976866864149
 31
0.0
  0
LINE
  5
129
330
20
100
AcDbEntity
  8
_0-0_
  6
Continuous
 62
     4
100
AcDbLine
 10
3538.844138517369
 20
1393.243535772645
 30
0.0
 11
3768.844138517369
 21
1163.243535772645
 31
0.0
  0
TEXT
  5
12A
330
20
100
AcDbEntity
  8
_0-0_
 62
     7
100
AcDbText
 10
3772.108568211681
 20
1172.501670528342
 30
0.0
 40
45.0
  1
インサート　M12
100
AcDbText
  0
LINE
  5
12B
330
20
100
AcDbEntity
  8
_0-0_
  6
Continuous
 62
     4
100
AcDbLine
 10
3768.844138517369
 20
1163.243535772645
 30
0.0
 11
4205.140425775382
 21
1163.243535772645
 31
0.0
  0
LINE
  5
12C
330
20
100
AcDbEntity
  8
_0-0_
  6
Continuous
 62
   136
100
AcDbLine
 10
3198.077170211149
 20
1988.243535772644
 30
0.0
 11
3459.611106823589
 21
1988.243535772644
 31
0.0
  0
LINE
  5
12D
330
20
100
AcDbEntity
  8
_0-0_
  6
Continuous
 62
   136
100
AcDbLine
 10
3598.844138517369
 20
1849.010504078864
 30
0.0
 11
3598.844138517369
 21
1587.476567466425
 31
0.0
  0
LINE
  5
12E
330
20
100
AcDbEntity
  8
_0-0_
  6
Continuous
 62
   136
100
AcDbLine
 10
3459.611106823589
 20
1448.243535772644
 30
0.0
 11
3198.077170211149
 21
1448.243535772644
 31
0.0
  0
LINE
  5
12F
330
20
100
AcDbEntity
  8
_0-0_
  6
Continuous
 62
   136
100
AcDbLine
 10
3058.844138517369
 20
1849.010504078864
 30
0.0
 11
3058.844138517369
 21
1587.476567466425
 31
0.0
  0
LINE
  5
130
330
20
100
AcDbEntity
  8
_0-0_
  6
Continuous
 62
   136
100
AcDbLine
 10
3258.133460398714
 20
1788.954213891299
 30
0.0
 11
3116.712104161405
 21
1930.375570128608
 31
0.0
  0
CIRCLE
  5
131
330
20
100
AcDbEntity
  8
_0-0_
  6
Continuous
 62
   136
100
AcDbCircle
 10
3328.844138517369
 20
1718.243535772645
 30
0.0
 40
100.0
  0
LINE
  5
132
330
20
100
AcDbEntity
  8
_0-0_
  6
Continuous
 62
   136
100
AcDbLine
 10
3399.554816636025
 20
1788.954213891299
 30
0.0
 11
3540.976172873334
 21
1930.375570128608
 31
0.0
  0
CIRCLE
  5
133
330
20
100
AcDbEntity
  8
_0-0_
  6
Continuous
 62
   136
100
AcDbCircle
 10
3328.844138517369
 20
1718.243535772645
 30
0.0
 40
90.0
  0
LINE
  5
134
330
20
100
AcDbEntity
  8
_0-0_
  6
Continuous
 62
   136
100
AcDbLine
 10
3399.554816636025
 20
1647.53285765399
 30
0.0
 11
3540.976172873334
 21
1506.11150141668
 31
0.0
  0
LINE
  5
135
330
20
100
AcDbEntity
  8
_0-0_
  6
Continuous
 62
   136
100
AcDbLine
 10
3258.133460398714
 20
1647.53285765399
 30
0.0
 11
3116.712104161405
 21
1506.111501416681
 31
0.0
  0
LINE
  5
136
330
20
100
AcDbEntity
  8
_0-0_
  6
DASHED1
 62
     6
100
AcDbLine
 10
3118.844138517369
 20
2043.243535772645
 30
0.0
 11
3118.844138517369
 21
2018.243535772645
 31
0.0
  0
LINE
  5
137
330
20
100
AcDbEntity
  8
_0-0_
  6
DASHED1
 62
     6
100
AcDbLine
 10
3118.844138517369
 20
2043.243535772645
 30
0.0
 11
3138.844138517369
 21
2043.243535772645
 31
0.0
  0
LINE
  5
138
330
20
100
AcDbEntity
  8
_0-0_
  6
DASHED1
 62
     6
100
AcDbLine
 10
3138.844138517369
 20
2043.243535772645
 30
0.0
 11
3138.844138517369
 21
2018.243535772645
 31
0.0
  0
LINE
  5
139
330
20
100
AcDbEntity
  8
_0-0_
  6
DASHED1
 62
     6
100
AcDbLine
 10
3318.844138517369
 20
2043.243535772645
 30
0.0
 11
3318.844138517369
 21
2018.243535772645
 31
0.0
  0
LINE
  5
13A
330
20
100
AcDbEntity
  8
_0-0_
  6
DASHED1
 62
     6
100
AcDbLine
 10
3318.844138517369
 20
2043.243535772645
 30
0.0
 11
3338.844138517369
 21
2043.243535772645
 31
0.0
  0
LINE
  5
13B
330
20
100
AcDbEntity
  8
_0-0_
  6
DASHED1
 62
     6
100
AcDbLine
 10
3338.844138517369
 20
2043.243535772645
 30
0.0
 11
3338.844138517369
 21
2018.243535772645
 31
0.0
  0
LINE
  5
13C
330
20
100
AcDbEntity
  8
_0-0_
  6
DASHED1
 62
     6
100
AcDbLine
 10
3518.844138517369
 20
2043.243535772645
 30
0.0
 11
3518.844138517369
 21
2018.243535772645
 31
0.0
  0
LINE
  5
13D
330
20
100
AcDbEntity
  8
_0-0_
  6
DASHED1
 62
     6
100
AcDbLine
 10
3518.844138517369
 20
2043.243535772645
 30
0.0
 11
3538.844138517369
 21
2043.243535772645
 31
0.0
  0
LINE
  5
13E
330
20
100
AcDbEntity
  8
_0-0_
  6
DASHED1
 62
     6
100
AcDbLine
 10
3538.844138517369
 20
2043.243535772645
 30
0.0
 11
3538.844138517369
 21
2018.243535772645
 31
0.0
  0
LINE
  5
13F
330
20
100
AcDbEntity
  8
_0-0_
  6
DASHED1
 62
     6
100
AcDbLine
 10
3653.844138517369
 20
1928.243535772645
 30
0.0
 11
3628.844138517369
 21
1928.243535772645
 31
0.0
  0
LINE
  5
140
330
20
100
AcDbEntity
  8
_0-0_
  6
DASHED1
 62
     6
100
AcDbLine
 10
3653.844138517369
 20
1908.243535772644
 30
0.0
 11
3628.844138517369
 21
1908.243535772644
 31
0.0
  0
LINE
  5
141
330
20
100
AcDbEntity
  8
_0-0_
  6
DASHED1
 62
     6
100
AcDbLine
 10
3653.844138517369
 20
1928.243535772645
 30
0.0
 11
3653.844138517369
 21
1908.243535772644
 31
0.0
  0
LINE
  5
142
330
20
100
AcDbEntity
  8
_0-0_
  6
DASHED1
 62
     6
100
AcDbLine
 10
3628.844138517369
 20
1728.243535772645
 30
0.0
 11
3653.844138517369
 21
1728.243535772645
 31
0.0
  0
LINE
  5
143
330
20
100
AcDbEntity
  8
_0-0_
  6
DASHED1
 62
     6
100
AcDbLine
 10
3628.844138517369
 20
1708.243535772644
 30
0.0
 11
3653.844138517369
 21
1708.243535772644
 31
0.0
  0
LINE
  5
144
330
20
100
AcDbEntity
  8
_0-0_
  6
DASHED1
 62
     6
100
AcDbLine
 10
3653.844138517369
 20
1728.243535772645
 30
0.0
 11
3653.844138517369
 21
1708.243535772644
 31
0.0
  0
LINE
  5
145
330
20
100
AcDbEntity
  8
_0-0_
  6
DASHED1
 62
     6
100
AcDbLine
 10
3653.844138517369
 20
1528.243535772644
 30
0.0
 11
3628.844138517369
 21
1528.243535772644
 31
0.0
  0
LINE
  5
146
330
20
100
AcDbEntity
  8
_0-0_
  6
DASHED1
 62
     6
100
AcDbLine
 10
3653.844138517369
 20
1508.243535772645
 30
0.0
 11
3628.844138517369
 21
1508.243535772645
 31
0.0
  0
LINE
  5
147
330
20
100
AcDbEntity
  8
_0-0_
  6
DASHED1
 62
     6
100
AcDbLine
 10
3653.844138517369
 20
1528.243535772644
 30
0.0
 11
3653.844138517369
 21
1508.243535772645
 31
0.0
  0
LINE
  5
148
330
20
100
AcDbEntity
  8
_0-0_
  6
DASHED1
 62
     6
100
AcDbLine
 10
3118.844138517369
 20
1418.243535772645
 30
0.0
 11
3118.844138517369
 21
1393.243535772645
 31
0.0
  0
LINE
  5
149
330
20
100
AcDbEntity
  8
_0-0_
  6
DASHED1
 62
     6
100
AcDbLine
 10
3118.844138517369
 20
1393.243535772645
 30
0.0
 11
3138.844138517369
 21
1393.243535772645
 31
0.0
  0
LINE
  5
14A
330
20
100
AcDbEntity
  8
_0-0_
  6
DASHED1
 62
     6
100
AcDbLine
 10
3138.844138517369
 20
1418.243535772645
 30
0.0
 11
3138.844138517369
 21
1393.243535772645
 31
0.0
  0
LINE
  5
14B
330
20
100
AcDbEntity
  8
_0-0_
  6
DASHED1
 62
     6
100
AcDbLine
 10
3318.844138517369
 20
1418.243535772645
 30
0.0
 11
3318.844138517369
 21
1393.243535772645
 31
0.0
  0
LINE
  5
14C
330
20
100
AcDbEntity
  8
_0-0_
  6
DASHED1
 62
     6
100
AcDbLine
 10
3318.844138517369
 20
1393.243535772645
 30
0.0
 11
3338.844138517369
 21
1393.243535772645
 31
0.0
  0
LINE
  5
14D
330
20
100
AcDbEntity
  8
_0-0_
  6
DASHED1
 62
     6
100
AcDbLine
 10
3338.844138517369
 20
1418.243535772645
 30
0.0
 11
3338.844138517369
 21
1393.243535772645
 31
0.0
  0
LINE
  5
14E
330
20
100
AcDbEntity
  8
_0-0_
  6
DASHED1
 62
     6
100
AcDbLine
 10
3518.844138517369
 20
1418.243535772645
 30
0.0
 11
3518.844138517369
 21
1393.243535772645
 31
0.0
  0
LINE
  5
14F
330
20
100
AcDbEntity
  8
_0-0_
  6
DASHED1
 62
     6
100
AcDbLine
 10
3518.844138517369
 20
1393.243535772645
 30
0.0
 11
3538.844138517369
 21
1393.243535772645
 31
0.0
  0
LINE
  5
150
330
20
100
AcDbEntity
  8
_0-0_
  6
DASHED1
 62
     6
100
AcDbLine
 10
3538.844138517369
 20
1418.243535772645
 30
0.0
 11
3538.844138517369
 21
1393.243535772645
 31
0.0
  0
LINE
  5
151
330
20
100
AcDbEntity
  8
_0-0_
  6
DASHED1
 62
     6
100
AcDbLine
 10
3028.844138517369
 20
1928.243535772645
 30
0.0
 11
3003.844138517369
 21
1928.243535772645
 31
0.0
  0
LINE
  5
152
330
20
100
AcDbEntity
  8
_0-0_
  6
DASHED1
 62
     6
100
AcDbLine
 10
3028.844138517369
 20
1908.243535772644
 30
0.0
 11
3003.844138517369
 21
1908.243535772644
 31
0.0
  0
LINE
  5
153
330
20
100
AcDbEntity
  8
_0-0_
  6
DASHED1
 62
     6
100
AcDbLine
 10
3003.844138517369
 20
1928.243535772645
 30
0.0
 11
3003.844138517369
 21
1908.243535772644
 31
0.0
  0
LINE
  5
154
330
20
100
AcDbEntity
  8
_0-0_
  6
DASHED1
 62
     6
100
AcDbLine
 10
3003.844138517369
 20
1728.243535772645
 30
0.0
 11
3028.844138517369
 21
1728.243535772645
 31
0.0
  0
LINE
  5
155
330
20
100
AcDbEntity
  8
_0-0_
  6
DASHED1
 62
     6
100
AcDbLine
 10
3003.844138517369
 20
1728.243535772645
 30
0.0
 11
3003.844138517369
 21
1708.243535772644
 31
0.0
  0
LINE
  5
156
330
20
100
AcDbEntity
  8
_0-0_
  6
DASHED1
 62
     6
100
AcDbLine
 10
3003.844138517369
 20
1708.243535772644
 30
0.0
 11
3028.844138517369
 21
1708.243535772644
 31
0.0
  0
LINE
  5
157
330
20
100
AcDbEntity
  8
_0-0_
  6
DASHED1
 62
     6
100
AcDbLine
 10
3028.844138517369
 20
1528.243535772644
 30
0.0
 11
3003.844138517369
 21
1528.243535772644
 31
0.0
  0
LINE
  5
158
330
20
100
AcDbEntity
  8
_0-0_
  6
DASHED1
 62
     6
100
AcDbLine
 10
3003.844138517369
 20
1528.243535772644
 30
0.0
 11
3003.844138517369
 21
1508.243535772645
 31
0.0
  0
LINE
  5
159
330
20
100
AcDbEntity
  8
_0-0_
  6
DASHED1
 62
     6
100
AcDbLine
 10
3028.844138517369
 20
1508.243535772645
 30
0.0
 11
3003.844138517369
 21
1508.243535772645
 31
0.0
  0
LINE
  5
15A
330
20
100
AcDbEntity
  8
_0-0_
  6
Continuous
 62
     4
100
AcDbLine
 10
3538.844138517369
 20
1393.243535772645
 30
0.0
 11
3558.329710102519
 21
1381.993535772644
 31
0.0
  0
LINE
  5
15B
330
20
100
AcDbEntity
  8
_0-0_
  6
Continuous
 62
     4
100
AcDbLine
 10
3538.844138517369
 20
1393.243535772645
 30
0.0
 11
3550.094138517369
 21
1373.757964187495
 31
0.0
  0
LINE
  5
15C
330
20
100
AcDbEntity
  8
_0-0_
  6
Continuous
 62
     4
100
AcDbLine
 10
3883.844138517369
 20
1918.243535772645
 30
0.0
 11
3883.844138517369
 21
1518.243535772645
 31
0.0
  0
TEXT
  5
15D
330
20
100
AcDbEntity
  8
_0-0_
 62
     7
100
AcDbText
 10
3872.144045337152
 20
1657.468222390102
 30
0.0
 40
45.0
  1
400
 50
90.0
100
AcDbText
  0
LINE
  5
15E
330
20
100
AcDbEntity
  8
_0-0_
  6
Continuous
 62
     4
100
AcDbLine
 10
3328.844138517369
 20
2283.243535772645
 30
0.0
 11
3328.844138517369
 21
2173.243535772645
 31
0.0
  0
LINE
  5
15F
330
20
100
AcDbEntity
  8
_0-0_
  6
Continuous
 62
     4
100
AcDbLine
 10
3528.844138517369
 20
2283.243535772645
 30
0.0
 11
3528.844138517369
 21
2173.243535772645
 31
0.0
  0
LINE
  5
160
330
20
100
AcDbEntity
  8
_0-0_
  6
Continuous
 62
     4
100
AcDbLine
 10
3128.844138517369
 20
2283.243535772645
 30
0.0
 11
3128.844138517369
 21
2173.243535772645
 31
0.0
  0
LINE
  5
161
330
20
100
AcDbEntity
  8
_0-0_
  6
Continuous
 62
     4
100
AcDbLine
 10
3328.844138517369
 20
2273.243535772645
 30
0.0
 11
3528.844138517369
 21
2273.243535772645
 31
0.0
  0
LINE
  5
162
330
20
100
AcDbEntity
  8
_0-0_
  6
Continuous
 62
     4
100
AcDbLine
 10
3328.844138517369
 20
2273.243535772645
 30
0.0
 11
3128.844138517369
 21
2273.243535772645
 31
0.0
  0
LINE
  5
163
330
20
100
AcDbEntity
  8
_0-0_
  6
Continuous
 62
     4
100
AcDbLine
 10
3128.844138517369
 20
2273.243535772645
 30
0.0
 11
3150.577469608874
 21
2279.066964287452
 31
0.0
  0
LINE
  5
164
330
20
100
AcDbEntity
  8
_0-0_
  6
Continuous
 62
     4
100
AcDbLine
 10
3128.844138517369
 20
2273.243535772645
 30
0.0
 11
3150.577469608874
 21
2267.420107257839
 31
0.0
  0
LINE
  5
165
330
20
100
AcDbEntity
  8
_0-0_
  6
Continuous
 62
     4
100
AcDbLine
 10
3328.844138517369
 20
2273.243535772645
 30
0.0
 11
3307.110807425865
 21
2267.420107257839
 31
0.0
  0
LINE
  5
166
330
20
100
AcDbEntity
  8
_0-0_
  6
Continuous
 62
     4
100
AcDbLine
 10
3328.844138517369
 20
2273.243535772645
 30
0.0
 11
3307.110807425865
 21
2279.066964287452
 31
0.0
  0
LINE
  5
167
330
20
100
AcDbEntity
  8
_0-0_
  6
Continuous
 62
     4
100
AcDbLine
 10
3328.844138517369
 20
2273.243535772645
 30
0.0
 11
3350.577469608873
 21
2279.066964287452
 31
0.0
  0
LINE
  5
168
330
20
100
AcDbEntity
  8
_0-0_
  6
Continuous
 62
     4
100
AcDbLine
 10
3328.844138517369
 20
2273.243535772645
 30
0.0
 11
3350.577469608873
 21
2267.420107257839
 31
0.0
  0
LINE
  5
169
330
20
100
AcDbEntity
  8
_0-0_
  6
Continuous
 62
     4
100
AcDbLine
 10
3528.844138517369
 20
2273.243535772645
 30
0.0
 11
3507.110807425866
 21
2267.420107257839
 31
0.0
  0
LINE
  5
16A
330
20
100
AcDbEntity
  8
_0-0_
  6
Continuous
 62
     4
100
AcDbLine
 10
3528.844138517369
 20
2273.243535772645
 30
0.0
 11
3507.110807425866
 21
2279.066964287452
 31
0.0
  0
TEXT
  5
16B
330
20
100
AcDbEntity
  8
_0-0_
 62
     7
100
AcDbText
 10
3174.762512469458
 20
2280.184692767008
 30
0.0
 40
45.0
  1
200
100
AcDbText
  0
TEXT
  5
16C
330
20
100
AcDbEntity
  8
_0-0_
 62
     7
100
AcDbText
 10
3375.656862795437
 20
2281.515118928107
 30
0.0
 40
45.0
  1
200
100
AcDbText
  0
LINE
  5
16D
330
20
100
AcDbEntity
  8
_0-0_
  6
Continuous
 62
     4
100
AcDbLine
 10
2763.844138517369
 20
1718.243535772645
 30
0.0
 11
2873.844138517369
 21
1718.243535772645
 31
0.0
  0
LINE
  5
16E
330
20
100
AcDbEntity
  8
_0-0_
  6
Continuous
 62
     4
100
AcDbLine
 10
2763.844138517369
 20
1918.243535772645
 30
0.0
 11
2873.844138517369
 21
1918.243535772645
 31
0.0
  0
LINE
  5
16F
330
20
100
AcDbEntity
  8
_0-0_
  6
Continuous
 62
     4
100
AcDbLine
 10
2763.844138517369
 20
1518.243535772645
 30
0.0
 11
2873.844138517369
 21
1518.243535772645
 31
0.0
  0
LINE
  5
170
330
20
100
AcDbEntity
  8
_0-0_
  6
Continuous
 62
     4
100
AcDbLine
 10
2773.844138517369
 20
1518.243535772645
 30
0.0
 11
2773.844138517369
 21
1718.243535772645
 31
0.0
  0
LINE
  5
171
330
20
100
AcDbEntity
  8
_0-0_
  6
Continuous
 62
     4
100
AcDbLine
 10
2773.844138517369
 20
1918.243535772645
 30
0.0
 11
2773.844138517369
 21
1718.243535772645
 31
0.0
  0
LINE
  5
172
330
20
100
AcDbEntity
  8
_0-0_
  6
Continuous
 62
     4
100
AcDbLine
 10
2773.844138517369
 20
1918.243535772645
 30
0.0
 11
2779.667567032175
 21
1896.51020468114
 31
0.0
  0
LINE
  5
173
330
20
100
AcDbEntity
  8
_0-0_
  6
Continuous
 62
     4
100
AcDbLine
 10
2773.844138517369
 20
1918.243535772645
 30
0.0
 11
2768.020710002561
 21
1896.51020468114
 31
0.0
  0
LINE
  5
174
330
20
100
AcDbEntity
  8
_0-0_
  6
Continuous
 62
     4
100
AcDbLine
 10
2773.844138517369
 20
1718.243535772645
 30
0.0
 11
2768.020710002561
 21
1739.976866864149
 31
0.0
  0
LINE
  5
175
330
20
100
AcDbEntity
  8
_0-0_
  6
Continuous
 62
     4
100
AcDbLine
 10
2773.844138517369
 20
1718.243535772645
 30
0.0
 11
2779.667567032175
 21
1739.976866864149
 31
0.0
  0
LINE
  5
176
330
20
100
AcDbEntity
  8
_0-0_
  6
Continuous
 62
     4
100
AcDbLine
 10
2773.844138517369
 20
1718.243535772645
 30
0.0
 11
2779.667567032175
 21
1696.510204681141
 31
0.0
  0
LINE
  5
177
330
20
100
AcDbEntity
  8
_0-0_
  6
Continuous
 62
     4
100
AcDbLine
 10
2773.844138517369
 20
1718.243535772645
 30
0.0
 11
2768.020710002561
 21
1696.510204681141
 31
0.0
  0
LINE
  5
178
330
20
100
AcDbEntity
  8
_0-0_
  6
Continuous
 62
     4
100
AcDbLine
 10
2773.844138517369
 20
1518.243535772645
 30
0.0
 11
2768.020710002561
 21
1539.976866864149
 31
0.0
  0
LINE
  5
179
330
20
100
AcDbEntity
  8
_0-0_
  6
Continuous
 62
     4
100
AcDbLine
 10
2773.844138517369
 20
1518.243535772645
 30
0.0
 11
2779.667567032175
 21
1539.976866864149
 31
0.0
  0
TEXT
  5
17A
330
20
100
AcDbEntity
  8
_0-0_
 62
     7
100
AcDbText
 10
2766.618906701993
 20
1769.210313011535
 30
0.0
 40
45.0
  1
200
 50
90.0
100
AcDbText
  0
TEXT
  5
17B
330
20
100
AcDbEntity
  8
_0-0_
 62
     7
100
AcDbText
 10
2766.618906701993
 20
1568.932167893861
 30
0.0
 40
45.0
  1
200
 50
90.0
100
AcDbText
  0
LINE
  5
17C
330
20
100
AcDbEntity
  8
_0-0_
  6
Continuous
 62
     7
100
AcDbLine
 10
4342.452350150187
 20
84.19646031321965
 30
0.0
 11
125.80068133321
 21
84.19646031321965
 31
0.0
  0
LINE
  5
17D
330
20
100
AcDbEntity
  8
_0-0_
  6
Continuous
 62
     7
100
AcDbLine
 10
125.80068133321
 20
3038.01667912838
 30
0.0
 11
125.80068133321
 21
84.19646031321965
 31
0.0
  0
LINE
  5
17E
330
20
100
AcDbEntity
  8
_0-0_
  6
Continuous
 62
     7
100
AcDbLine
 10
4342.452350150187
 20
3038.01667912838
 30
0.0
 11
4342.452350150187
 21
84.19646031321965
 31
0.0
  0
LINE
  5
17F
330
20
100
AcDbEntity
  8
_0-0_
  6
Continuous
 62
     7
100
AcDbLine
 10
4342.452350150187
 20
3038.01667912838
 30
0.0
 11
125.80068133321
 21
3038.01667912838
 31
0.0
  0
LINE
  5
180
330
20
100
AcDbEntity
  8
_0-0_
  6
Continuous
 62
     7
100
AcDbLine
 10
625.8006813332102
 20
2938.01667912838
 30
0.0
 11
125.8006813332105
 21
2938.01667912838
 31
0.0
  0
LINE
  5
181
330
20
100
AcDbEntity
  8
_0-0_
  6
Continuous
 62
     7
100
AcDbLine
 10
625.8006813332102
 20
3038.01667912838
 30
0.0
 11
625.8006813332102
 21
2938.01667912838
 31
0.0
  0
TEXT
  5
182
330
20
100
AcDbEntity
  8
_0-0_
 62
     3
100
AcDbText
 10
161.6403946476872
 20
2950.519848771266
 30
0.0
 40
75.0
  1
組立構造図
100
AcDbText
  0
LINE
  5
183
330
20
100
AcDbEntity
  8
_0-0_
  6
Continuous
 62
     7
100
AcDbLine
 10
936.9848367867191
 20
2251.13637522656
 30
0.0
 11
1806.984836786719
 21
2251.13637522656
 31
0.0
  0
LINE
  5
184
330
20
100
AcDbEntity
  8
_0-0_
  6
Continuous
 62
     7
100
AcDbLine
 10
936.9848367867191
 20
2171.13637522656
 30
0.0
 11
1806.984836786719
 21
2171.13637522656
 31
0.0
  0
LINE
  5
185
330
20
100
AcDbEntity
  8
_0-0_
  6
Continuous
 62
     4
100
AcDbLine
 10
936.9848367867191
 20
2581.13637522656
 30
0.0
 11
1806.984836786719
 21
2581.13637522656
 31
0.0
  0
LINE
  5
186
330
20
100
AcDbEntity
  8
_0-0_
  6
Continuous
 62
     4
100
AcDbLine
 10
1806.984836786719
 20
2591.13637522656
 30
0.0
 11
1806.984836786719
 21
2371.13637522656
 31
0.0
  0
LINE
  5
187
330
20
100
AcDbEntity
  8
_0-0_
  6
Continuous
 62
     4
100
AcDbLine
 10
936.9848367867191
 20
2591.13637522656
 30
0.0
 11
936.9848367867191
 21
2371.13637522656
 31
0.0
  0
LINE
  5
188
330
20
100
AcDbEntity
  8
_0-0_
  6
Continuous
 62
     4
100
AcDbLine
 10
486.9848367867188
 20
2351.13637522656
 30
0.0
 11
486.9848367867188
 21
1191.136375226559
 31
0.0
  0
LINE
  5
189
330
20
100
AcDbEntity
  8
_0-0_
  6
Continuous
 62
     4
100
AcDbLine
 10
916.9848367867194
 20
2351.13637522656
 30
0.0
 11
476.9848367867189
 21
2351.13637522656
 31
0.0
  0
LINE
  5
18A
330
20
100
AcDbEntity
  8
_0-0_
  6
Continuous
 62
     7
100
AcDbLine
 10
941.5098055951911
 20
2341.635751395998
 30
0.0
 11
936.9848367867191
 21
2251.13637522656
 31
0.0
  0
ARC
  5
18B
330
20
100
AcDbEntity
  8
_0-0_
  6
Continuous
 62
     7
100
AcDbCircle
 10
951.4973289839696
 20
2341.13637522656
 30
0.0
 40
10.0
100
AcDbArc
 50
90.0
 51
177.1375947738882
  0
LINE
  5
18C
330
20
100
AcDbEntity
  8
_0-0_
  6
Continuous
 62
     7
100
AcDbLine
 10
1792.472344589469
 20
2351.13637522656
 30
0.0
 11
951.4973289839696
 21
2351.13637522656
 31
0.0
  0
LINE
  5
18D
330
20
100
AcDbEntity
  8
_0-0_
  6
Continuous
 62
     7
100
AcDbLine
 10
1802.459867978247
 20
2341.635751395998
 30
0.0
 11
1806.984836786719
 21
2251.13637522656
 31
0.0
  0
ARC
  5
18E
330
20
100
AcDbEntity
  8
_0-0_
  6
Continuous
 62
     7
100
AcDbCircle
 10
1792.472344589469
 20
2341.13637522656
 30
0.0
 40
10.0
100
AcDbArc
 50
2.862405226111732
 51
89.99999999999996
  0
LINE
  5
18F
330
20
100
AcDbEntity
  8
_0-0_
  6
Continuous
 62
     4
100
AcDbLine
 10
1071.984836786719
 20
2481.13637522656
 30
0.0
 11
1071.984836786719
 21
2371.13637522656
 31
0.0
  0
LINE
  5
190
330
20
100
AcDbEntity
  8
_0-0_
  6
Continuous
 62
     4
100
AcDbLine
 10
1671.984836786719
 20
2481.13637522656
 30
0.0
 11
1671.984836786719
 21
2371.13637522656
 31
0.0
  0
LINE
  5
191
330
20
100
AcDbEntity
  8
_0-0_
  6
Continuous
 62
     4
100
AcDbLine
 10
936.9848367867191
 20
2471.13637522656
 30
0.0
 11
1071.984836786719
 21
2471.13637522656
 31
0.0
  0
LINE
  5
192
330
20
100
AcDbEntity
  8
_0-0_
  6
Continuous
 62
     4
100
AcDbLine
 10
1671.984836786719
 20
2471.13637522656
 30
0.0
 11
1806.984836786719
 21
2471.13637522656
 31
0.0
  0
LINE
  5
193
330
20
100
AcDbEntity
  8
_0-0_
  6
Continuous
 62
     4
100
AcDbLine
 10
1671.984836786719
 20
2471.13637522656
 30
0.0
 11
1071.984836786719
 21
2471.13637522656
 31
0.0
  0
LINE
  5
194
330
20
100
AcDbEntity
  8
_0-0_
  6
Continuous
 62
     4
100
AcDbLine
 10
1671.984836786719
 20
2471.13637522656
 30
0.0
 11
1693.718167878223
 21
2476.959803741367
 31
0.0
  0
LINE
  5
195
330
20
100
AcDbEntity
  8
_0-0_
  6
Continuous
 62
     4
100
AcDbLine
 10
1671.984836786719
 20
2471.13637522656
 30
0.0
 11
1693.718167878223
 21
2465.312946711753
 31
0.0
  0
LINE
  5
196
330
20
100
AcDbEntity
  8
_0-0_
  6
Continuous
 62
     4
100
AcDbLine
 10
1806.984836786719
 20
2471.13637522656
 30
0.0
 11
1785.251505695215
 21
2465.312946711753
 31
0.0
  0
LINE
  5
197
330
20
100
AcDbEntity
  8
_0-0_
  6
Continuous
 62
     4
100
AcDbLine
 10
1806.984836786719
 20
2471.13637522656
 30
0.0
 11
1785.251505695215
 21
2476.959803741367
 31
0.0
  0
LINE
  5
198
330
20
100
AcDbEntity
  8
_0-0_
  6
Continuous
 62
     4
100
AcDbLine
 10
1806.984836786719
 20
2581.13637522656
 30
0.0
 11
1785.251505695215
 21
2575.312946711753
 31
0.0
  0
LINE
  5
199
330
20
100
AcDbEntity
  8
_0-0_
  6
Continuous
 62
     4
100
AcDbLine
 10
1806.984836786719
 20
2581.13637522656
 30
0.0
 11
1785.251505695215
 21
2586.959803741367
 31
0.0
  0
LINE
  5
19A
330
20
100
AcDbEntity
  8
_0-0_
  6
Continuous
 62
     4
100
AcDbLine
 10
936.9848367867191
 20
2581.13637522656
 30
0.0
 11
958.7181678782235
 21
2586.959803741367
 31
0.0
  0
LINE
  5
19B
330
20
100
AcDbEntity
  8
_0-0_
  6
Continuous
 62
     4
100
AcDbLine
 10
936.9848367867191
 20
2581.13637522656
 30
0.0
 11
958.7181678782235
 21
2575.312946711753
 31
0.0
  0
LINE
  5
19C
330
20
100
AcDbEntity
  8
_0-0_
  6
Continuous
 62
     4
100
AcDbLine
 10
936.9848367867191
 20
2471.13637522656
 30
0.0
 11
958.7181678782235
 21
2476.959803741367
 31
0.0
  0
LINE
  5
19D
330
20
100
AcDbEntity
  8
_0-0_
  6
Continuous
 62
     4
100
AcDbLine
 10
936.9848367867191
 20
2471.13637522656
 30
0.0
 11
958.7181678782235
 21
2465.312946711753
 31
0.0
  0
LINE
  5
19E
330
20
100
AcDbEntity
  8
_0-0_
  6
Continuous
 62
     4
100
AcDbLine
 10
1071.984836786719
 20
2471.13637522656
 30
0.0
 11
1050.251505695215
 21
2465.312946711753
 31
0.0
  0
LINE
  5
19F
330
20
100
AcDbEntity
  8
_0-0_
  6
Continuous
 62
     4
100
AcDbLine
 10
1071.984836786719
 20
2471.13637522656
 30
0.0
 11
1050.251505695215
 21
2476.959803741367
 31
0.0
  0
LINE
  5
1A0
330
20
100
AcDbEntity
  8
_0-0_
  6
Continuous
 62
     4
100
AcDbLine
 10
1071.984836786719
 20
2471.13637522656
 30
0.0
 11
1093.718167878223
 21
2476.959803741367
 31
0.0
  0
LINE
  5
1A1
330
20
100
AcDbEntity
  8
_0-0_
  6
Continuous
 62
     4
100
AcDbLine
 10
1071.984836786719
 20
2471.13637522656
 30
0.0
 11
1093.718167878223
 21
2465.312946711753
 31
0.0
  0
LINE
  5
1A2
330
20
100
AcDbEntity
  8
_0-0_
  6
Continuous
 62
     7
100
AcDbLine
 10
1011.984836786719
 20
1201.136375226559
 30
0.0
 11
1021.984836786719
 21
1191.136375226559
 31
0.0
  0
LINE
  5
1A3
330
20
100
AcDbEntity
  8
_0-0_
  6
Continuous
 62
     7
100
AcDbLine
 10
1731.984836786719
 20
1201.136375226559
 30
0.0
 11
1721.984836786719
 21
1191.136375226559
 31
0.0
  0
LINE
  5
1A4
330
20
100
AcDbEntity
  8
_0-0_
  6
Continuous
 62
     7
100
AcDbLine
 10
1021.984836786719
 20
1191.136375226559
 30
0.0
 11
1721.984836786719
 21
1191.136375226559
 31
0.0
  0
LINE
  5
1A5
330
20
100
AcDbEntity
  8
_0-0_
  6
Continuous
 62
     7
100
AcDbLine
 10
946.9848367867193
 20
2251.13637522656
 30
0.0
 11
936.9848367867191
 21
2241.13637522656
 31
0.0
  0
LINE
  5
1A6
330
20
100
AcDbEntity
  8
_0-0_
  6
Continuous
 62
     7
100
AcDbLine
 10
1796.984836786719
 20
2251.13637522656
 30
0.0
 11
1806.984836786719
 21
2241.13637522656
 31
0.0
  0
LINE
  5
1A7
330
20
100
AcDbEntity
  8
_0-0_
  6
Continuous
 62
     7
100
AcDbLine
 10
1806.984836786719
 20
2241.13637522656
 30
0.0
 11
1806.984836786719
 21
2171.13637522656
 31
0.0
  0
LINE
  5
1A8
330
20
100
AcDbEntity
  8
_0-0_
  6
Continuous
 62
     7
100
AcDbLine
 10
936.9848367867191
 20
2241.13637522656
 30
0.0
 11
936.9848367867191
 21
2171.13637522656
 31
0.0
  0
LINE
  5
1A9
330
20
100
AcDbEntity
  8
_0-0_
  6
DASHED1
 62
   136
100
AcDbLine
 10
1671.984836786719
 20
2351.13637522656
 30
0.0
 11
1671.984836786719
 21
2251.13637522656
 31
0.0
  0
LINE
  5
1AA
330
20
100
AcDbEntity
  8
_0-0_
  6
DASHED1
 62
   136
100
AcDbLine
 10
1071.984836786719
 20
2351.13637522656
 30
0.0
 11
1071.984836786719
 21
2251.13637522656
 31
0.0
  0
LINE
  5
1AB
330
20
100
AcDbEntity
  8
_0-0_
  6
DASHED1
 62
   136
100
AcDbLine
 10
1471.984836786719
 20
1261.136375226559
 30
0.0
 11
1461.984836786719
 21
1231.136375226559
 31
0.0
  0
LINE
  5
1AC
330
20
100
AcDbEntity
  8
_0-0_
  6
DASHED1
 62
   136
100
AcDbLine
 10
1281.984836786719
 20
1231.136375226559
 30
0.0
 11
1461.984836786719
 21
1231.136375226559
 31
0.0
  0
LINE
  5
1AD
330
20
100
AcDbEntity
  8
_0-0_
  6
DASHED1
 62
   136
100
AcDbLine
 10
1271.984836786719
 20
1261.136375226559
 30
0.0
 11
1281.984836786719
 21
1231.136375226559
 31
0.0
  0
LINE
  5
1AE
330
20
100
AcDbEntity
  8
_0-0_
  6
DASHED1
 62
   136
100
AcDbLine
 10
1071.984836786719
 20
2096.13637522656
 30
0.0
 11
1071.984836786719
 21
2251.13637522656
 31
0.0
  0
LINE
  5
1AF
330
20
100
AcDbEntity
  8
_0-0_
  6
DASHED1
 62
   136
100
AcDbLine
 10
1671.984836786719
 20
2096.13637522656
 30
0.0
 11
1671.984836786719
 21
2251.13637522656
 31
0.0
  0
LINE
  5
1B0
330
20
100
AcDbEntity
  8
_0-0_
  6
Continuous
 62
     4
100
AcDbLine
 10
916.9848367867194
 20
2251.13637522656
 30
0.0
 11
586.984836786719
 21
2251.13637522656
 31
0.0
  0
LINE
  5
1B1
330
20
100
AcDbEntity
  8
_0-0_
  6
Continuous
 62
     4
100
AcDbLine
 10
916.9848367867194
 20
2171.13637522656
 30
0.0
 11
586.984836786719
 21
2171.13637522656
 31
0.0
  0
LINE
  5
1B2
330
20
100
AcDbEntity
  8
_0-0_
  6
Continuous
 62
     4
100
AcDbLine
 10
596.9848367867188
 20
1271.136375226559
 30
0.0
 11
596.9848367867188
 21
1191.136375226559
 31
0.0
  0
LINE
  5
1B3
330
20
100
AcDbEntity
  8
_0-0_
  6
Continuous
 62
     4
100
AcDbLine
 10
596.9848367867188
 20
2171.13637522656
 30
0.0
 11
596.9848367867188
 21
1271.136375226559
 31
0.0
  0
LINE
  5
1B4
330
20
100
AcDbEntity
  8
_0-0_
  6
Continuous
 62
     4
100
AcDbLine
 10
596.9848367867188
 20
2351.13637522656
 30
0.0
 11
596.9848367867188
 21
2251.13637522656
 31
0.0
  0
LINE
  5
1B5
330
20
100
AcDbEntity
  8
_0-0_
  6
Continuous
 62
     4
100
AcDbLine
 10
596.9848367867188
 20
2251.13637522656
 30
0.0
 11
596.9848367867188
 21
2171.13637522656
 31
0.0
  0
LINE
  5
1B6
330
20
100
AcDbEntity
  8
_0-0_
  6
Continuous
 62
     7
100
AcDbLine
 10
1011.984836786719
 20
1721.136375226559
 30
0.0
 11
1731.984836786719
 21
1721.136375226559
 31
0.0
  0
LINE
  5
1B7
330
20
100
AcDbEntity
  8
_0-0_
  6
Continuous
 62
     4
100
AcDbLine
 10
816.984836786719
 20
1721.136375226559
 30
0.0
 11
816.984836786719
 21
1521.136375226559
 31
0.0
  0
LINE
  5
1B8
330
20
100
AcDbEntity
  8
_0-0_
  6
Continuous
 62
     4
100
AcDbLine
 10
816.984836786719
 20
1521.136375226559
 30
0.0
 11
816.984836786719
 21
1321.136375226559
 31
0.0
  0
LINE
  5
1B9
330
20
100
AcDbEntity
  8
_0-0_
  6
Continuous
 62
     4
100
AcDbLine
 10
486.9848367867188
 20
2351.13637522656
 30
0.0
 11
492.8082653015255
 21
2329.403044135056
 31
0.0
  0
LINE
  5
1BA
330
20
100
AcDbEntity
  8
_0-0_
  6
Continuous
 62
     4
100
AcDbLine
 10
486.9848367867188
 20
2351.13637522656
 30
0.0
 11
481.161408271912
 21
2329.403044135056
 31
0.0
  0
LINE
  5
1BB
330
20
100
AcDbEntity
  8
_0-0_
  6
Continuous
 62
     4
100
AcDbLine
 10
486.9848367867188
 20
1191.136375226559
 30
0.0
 11
481.161408271912
 21
1212.869706318063
 31
0.0
  0
LINE
  5
1BC
330
20
100
AcDbEntity
  8
_0-0_
  6
Continuous
 62
     4
100
AcDbLine
 10
486.9848367867188
 20
1191.136375226559
 30
0.0
 11
492.8082653015255
 21
1212.869706318063
 31
0.0
  0
LINE
  5
1BD
330
20
100
AcDbEntity
  8
_0-0_
  6
Continuous
 62
     4
100
AcDbLine
 10
596.9848367867188
 20
1191.136375226559
 30
0.0
 11
591.1614082719121
 21
1212.869706318063
 31
0.0
  0
LINE
  5
1BE
330
20
100
AcDbEntity
  8
_0-0_
  6
Continuous
 62
     4
100
AcDbLine
 10
596.9848367867188
 20
1191.136375226559
 30
0.0
 11
602.8082653015257
 21
1212.869706318063
 31
0.0
  0
LINE
  5
1BF
330
20
100
AcDbEntity
  8
_0-0_
  6
Continuous
 62
     4
100
AcDbLine
 10
596.9848367867188
 20
1271.136375226559
 30
0.0
 11
602.8082653015257
 21
1249.403044135055
 31
0.0
  0
LINE
  5
1C0
330
20
100
AcDbEntity
  8
_0-0_
  6
Continuous
 62
     4
100
AcDbLine
 10
596.9848367867188
 20
1271.136375226559
 30
0.0
 11
591.1614082719121
 21
1249.403044135055
 31
0.0
  0
LINE
  5
1C1
330
20
100
AcDbEntity
  8
_0-0_
  6
Continuous
 62
     4
100
AcDbLine
 10
596.9848367867188
 20
1271.136375226559
 30
0.0
 11
591.1614082719121
 21
1292.869706318063
 31
0.0
  0
LINE
  5
1C2
330
20
100
AcDbEntity
  8
_0-0_
  6
Continuous
 62
     4
100
AcDbLine
 10
596.9848367867188
 20
1271.136375226559
 30
0.0
 11
602.8082653015257
 21
1292.869706318063
 31
0.0
  0
LINE
  5
1C3
330
20
100
AcDbEntity
  8
_0-0_
  6
Continuous
 62
     4
100
AcDbLine
 10
596.9848367867188
 20
2171.13637522656
 30
0.0
 11
602.8082653015257
 21
2149.403044135056
 31
0.0
  0
LINE
  5
1C4
330
20
100
AcDbEntity
  8
_0-0_
  6
Continuous
 62
     4
100
AcDbLine
 10
596.9848367867188
 20
2171.13637522656
 30
0.0
 11
591.1614082719121
 21
2149.403044135056
 31
0.0
  0
LINE
  5
1C5
330
20
100
AcDbEntity
  8
_0-0_
  6
Continuous
 62
     4
100
AcDbLine
 10
596.9848367867188
 20
2171.13637522656
 30
0.0
 11
591.1614082719121
 21
2192.869706318063
 31
0.0
  0
LINE
  5
1C6
330
20
100
AcDbEntity
  8
_0-0_
  6
Continuous
 62
     4
100
AcDbLine
 10
596.9848367867188
 20
2171.13637522656
 30
0.0
 11
602.8082653015257
 21
2192.869706318063
 31
0.0
  0
LINE
  5
1C7
330
20
100
AcDbEntity
  8
_0-0_
  6
Continuous
 62
     4
100
AcDbLine
 10
596.9848367867188
 20
2251.13637522656
 30
0.0
 11
602.8082653015257
 21
2229.403044135056
 31
0.0
  0
LINE
  5
1C8
330
20
100
AcDbEntity
  8
_0-0_
  6
Continuous
 62
     4
100
AcDbLine
 10
596.9848367867188
 20
2251.13637522656
 30
0.0
 11
591.1614082719121
 21
2229.403044135056
 31
0.0
  0
LINE
  5
1C9
330
20
100
AcDbEntity
  8
_0-0_
  6
Continuous
 62
     4
100
AcDbLine
 10
596.9848367867188
 20
2251.13637522656
 30
0.0
 11
591.1614082719121
 21
2272.869706318064
 31
0.0
  0
LINE
  5
1CA
330
20
100
AcDbEntity
  8
_0-0_
  6
Continuous
 62
     4
100
AcDbLine
 10
596.9848367867188
 20
2251.13637522656
 30
0.0
 11
602.8082653015257
 21
2272.869706318064
 31
0.0
  0
LINE
  5
1CB
330
20
100
AcDbEntity
  8
_0-0_
  6
Continuous
 62
     4
100
AcDbLine
 10
596.9848367867188
 20
2351.13637522656
 30
0.0
 11
602.8082653015257
 21
2329.403044135056
 31
0.0
  0
LINE
  5
1CC
330
20
100
AcDbEntity
  8
_0-0_
  6
Continuous
 62
     4
100
AcDbLine
 10
596.9848367867188
 20
2351.13637522656
 30
0.0
 11
591.1614082719121
 21
2329.403044135056
 31
0.0
  0
LINE
  5
1CD
330
20
100
AcDbEntity
  8
_0-0_
  6
Continuous
 62
     4
100
AcDbLine
 10
706.984836786719
 20
2171.13637522656
 30
0.0
 11
706.984836786719
 21
1721.136375226559
 31
0.0
  0
LINE
  5
1CE
330
20
100
AcDbEntity
  8
_0-0_
  6
Continuous
 62
     4
100
AcDbLine
 10
706.984836786719
 20
1721.136375226559
 30
0.0
 11
706.984836786719
 21
1271.136375226559
 31
0.0
  0
LINE
  5
1CF
330
20
100
AcDbEntity
  8
_0-0_
  6
Continuous
 62
     4
100
AcDbLine
 10
706.984836786719
 20
2171.13637522656
 30
0.0
 11
712.8082653015257
 21
2149.403044135056
 31
0.0
  0
LINE
  5
1D0
330
20
100
AcDbEntity
  8
_0-0_
  6
Continuous
 62
     4
100
AcDbLine
 10
706.984836786719
 20
2171.13637522656
 30
0.0
 11
701.1614082719122
 21
2149.403044135056
 31
0.0
  0
LINE
  5
1D1
330
20
100
AcDbEntity
  8
_0-0_
  6
Continuous
 62
     4
100
AcDbLine
 10
706.984836786719
 20
1721.136375226559
 30
0.0
 11
701.1614082719122
 21
1742.869706318063
 31
0.0
  0
LINE
  5
1D2
330
20
100
AcDbEntity
  8
_0-0_
  6
Continuous
 62
     4
100
AcDbLine
 10
706.984836786719
 20
1721.136375226559
 30
0.0
 11
712.8082653015257
 21
1742.869706318063
 31
0.0
  0
LINE
  5
1D3
330
20
100
AcDbEntity
  8
_0-0_
  6
Continuous
 62
     4
100
AcDbLine
 10
706.984836786719
 20
1721.136375226559
 30
0.0
 11
712.8082653015257
 21
1699.403044135056
 31
0.0
  0
LINE
  5
1D4
330
20
100
AcDbEntity
  8
_0-0_
  6
Continuous
 62
     4
100
AcDbLine
 10
706.984836786719
 20
1721.136375226559
 30
0.0
 11
701.1614082719122
 21
1699.403044135056
 31
0.0
  0
LINE
  5
1D5
330
20
100
AcDbEntity
  8
_0-0_
  6
Continuous
 62
     4
100
AcDbLine
 10
706.984836786719
 20
1271.136375226559
 30
0.0
 11
701.1614082719122
 21
1292.869706318063
 31
0.0
  0
LINE
  5
1D6
330
20
100
AcDbEntity
  8
_0-0_
  6
Continuous
 62
     4
100
AcDbLine
 10
706.984836786719
 20
1271.136375226559
 30
0.0
 11
712.8082653015257
 21
1292.869706318063
 31
0.0
  0
LINE
  5
1D7
330
20
100
AcDbEntity
  8
_0-0_
  6
Continuous
 62
     4
100
AcDbLine
 10
816.984836786719
 20
1721.136375226559
 30
0.0
 11
822.808265301526
 21
1699.403044135056
 31
0.0
  0
LINE
  5
1D8
330
20
100
AcDbEntity
  8
_0-0_
  6
Continuous
 62
     4
100
AcDbLine
 10
816.984836786719
 20
1721.136375226559
 30
0.0
 11
811.1614082719123
 21
1699.403044135056
 31
0.0
  0
LINE
  5
1D9
330
20
100
AcDbEntity
  8
_0-0_
  6
Continuous
 62
     4
100
AcDbLine
 10
816.984836786719
 20
1521.136375226559
 30
0.0
 11
811.1614082719123
 21
1542.869706318063
 31
0.0
  0
LINE
  5
1DA
330
20
100
AcDbEntity
  8
_0-0_
  6
Continuous
 62
     4
100
AcDbLine
 10
816.984836786719
 20
1521.136375226559
 30
0.0
 11
822.808265301526
 21
1542.869706318063
 31
0.0
  0
LINE
  5
1DB
330
20
100
AcDbEntity
  8
_0-0_
  6
Continuous
 62
     4
100
AcDbLine
 10
816.984836786719
 20
1521.136375226559
 30
0.0
 11
822.808265301526
 21
1499.403044135055
 31
0.0
  0
LINE
  5
1DC
330
20
100
AcDbEntity
  8
_0-0_
  6
Continuous
 62
     4
100
AcDbLine
 10
816.984836786719
 20
1521.136375226559
 30
0.0
 11
811.1614082719123
 21
1499.403044135055
 31
0.0
  0
LINE
  5
1DD
330
20
100
AcDbEntity
  8
_0-0_
  6
Continuous
 62
     4
100
AcDbLine
 10
816.984836786719
 20
1321.136375226559
 30
0.0
 11
811.1614082719123
 21
1342.869706318063
 31
0.0
  0
LINE
  5
1DE
330
20
100
AcDbEntity
  8
_0-0_
  6
Continuous
 62
     4
100
AcDbLine
 10
816.984836786719
 20
1321.136375226559
 30
0.0
 11
822.808265301526
 21
1342.869706318063
 31
0.0
  0
LINE
  5
1DF
330
20
100
AcDbEntity
  8
_0-0_
  6
Continuous
 62
     4
100
AcDbLine
 10
1271.984836786719
 20
1171.136375226559
 30
0.0
 11
1271.984836786719
 21
1061.136375226559
 31
0.0
  0
LINE
  5
1E0
330
20
100
AcDbEntity
  8
_0-0_
  6
Continuous
 62
     4
100
AcDbLine
 10
1281.984836786719
 20
1171.136375226559
 30
0.0
 11
1281.984836786719
 21
1061.136375226559
 31
0.0
  0
LINE
  5
1E1
330
20
100
AcDbEntity
  8
_0-0_
  6
Continuous
 62
     4
100
AcDbLine
 10
1461.984836786719
 20
1171.136375226559
 30
0.0
 11
1461.984836786719
 21
1061.136375226559
 31
0.0
  0
LINE
  5
1E2
330
20
100
AcDbEntity
  8
_0-0_
  6
Continuous
 62
     4
100
AcDbLine
 10
1471.984836786719
 20
1171.136375226559
 30
0.0
 11
1471.984836786719
 21
1061.136375226559
 31
0.0
  0
LINE
  5
1E3
330
20
100
AcDbEntity
  8
_0-0_
  6
Continuous
 62
     4
100
AcDbLine
 10
1231.984836786719
 20
1071.136375226559
 30
0.0
 11
1271.984836786719
 21
1071.136375226559
 31
0.0
  0
LINE
  5
1E4
330
20
100
AcDbEntity
  8
_0-0_
  6
Continuous
 62
     4
100
AcDbLine
 10
1281.984836786719
 20
1071.136375226559
 30
0.0
 11
1461.984836786719
 21
1071.136375226559
 31
0.0
  0
LINE
  5
1E5
330
20
100
AcDbEntity
  8
_0-0_
  6
Continuous
 62
     4
100
AcDbLine
 10
1471.984836786719
 20
1071.136375226559
 30
0.0
 11
1511.984836786719
 21
1071.136375226559
 31
0.0
  0
LINE
  5
1E6
330
20
100
AcDbEntity
  8
_0-0_
  6
Continuous
 62
     4
100
AcDbLine
 10
1471.984836786719
 20
1071.136375226559
 30
0.0
 11
1461.984836786719
 21
1071.136375226559
 31
0.0
  0
LINE
  5
1E7
330
20
100
AcDbEntity
  8
_0-0_
  6
Continuous
 62
     4
100
AcDbLine
 10
1281.984836786719
 20
1071.136375226559
 30
0.0
 11
1271.984836786719
 21
1071.136375226559
 31
0.0
  0
LINE
  5
1E8
330
20
100
AcDbEntity
  8
_0-0_
  6
Continuous
 62
     4
100
AcDbLine
 10
1571.984836786719
 20
1171.136375226559
 30
0.0
 11
1571.984836786719
 21
951.13637522656
 31
0.0
  0
LINE
  5
1E9
330
20
100
AcDbEntity
  8
_0-0_
  6
Continuous
 62
     4
100
AcDbLine
 10
1171.98483678672
 20
1171.136375226559
 30
0.0
 11
1171.98483678672
 21
951.13637522656
 31
0.0
  0
LINE
  5
1EA
330
20
100
AcDbEntity
  8
_0-0_
  6
Continuous
 62
     4
100
AcDbLine
 10
1171.98483678672
 20
961.1363752265596
 30
0.0
 11
1571.984836786719
 21
961.1363752265596
 31
0.0
  0
LINE
  5
1EB
330
20
100
AcDbEntity
  8
_0-0_
  6
Continuous
 62
     4
100
AcDbLine
 10
1011.984836786719
 20
851.1363752265596
 30
0.0
 11
1033.718167878223
 21
856.9598037413664
 31
0.0
  0
LINE
  5
1EC
330
20
100
AcDbEntity
  8
_0-0_
  6
Continuous
 62
     4
100
AcDbLine
 10
1011.984836786719
 20
851.1363752265596
 30
0.0
 11
1033.718167878223
 21
845.3129467117529
 31
0.0
  0
LINE
  5
1ED
330
20
100
AcDbEntity
  8
_0-0_
  6
Continuous
 62
     4
100
AcDbLine
 10
1731.984836786719
 20
851.1363752265596
 30
0.0
 11
1710.251505695215
 21
845.3129467117529
 31
0.0
  0
LINE
  5
1EE
330
20
100
AcDbEntity
  8
_0-0_
  6
Continuous
 62
     4
100
AcDbLine
 10
1731.984836786719
 20
851.1363752265596
 30
0.0
 11
1710.251505695215
 21
856.9598037413664
 31
0.0
  0
LINE
  5
1EF
330
20
100
AcDbEntity
  8
_0-0_
  6
Continuous
 62
     4
100
AcDbLine
 10
1571.984836786719
 20
961.1363752265596
 30
0.0
 11
1550.251505695215
 21
955.3129467117528
 31
0.0
  0
LINE
  5
1F0
330
20
100
AcDbEntity
  8
_0-0_
  6
Continuous
 62
     4
100
AcDbLine
 10
1571.984836786719
 20
961.1363752265596
 30
0.0
 11
1550.251505695215
 21
966.9598037413663
 31
0.0
  0
LINE
  5
1F1
330
20
100
AcDbEntity
  8
_0-0_
  6
Continuous
 62
     4
100
AcDbLine
 10
1171.98483678672
 20
961.1363752265596
 30
0.0
 11
1193.718167878223
 21
966.9598037413663
 31
0.0
  0
LINE
  5
1F2
330
20
100
AcDbEntity
  8
_0-0_
  6
Continuous
 62
     4
100
AcDbLine
 10
1171.98483678672
 20
961.1363752265596
 30
0.0
 11
1193.718167878223
 21
955.3129467117528
 31
0.0
  0
LINE
  5
1F3
330
20
100
AcDbEntity
  8
_0-0_
  6
Continuous
 62
     4
100
AcDbLine
 10
1281.984836786719
 20
1071.136375226559
 30
0.0
 11
1303.718167878223
 21
1076.959803741366
 31
0.0
  0
LINE
  5
1F4
330
20
100
AcDbEntity
  8
_0-0_
  6
Continuous
 62
     4
100
AcDbLine
 10
1281.984836786719
 20
1071.136375226559
 30
0.0
 11
1303.718167878223
 21
1065.312946711753
 31
0.0
  0
LINE
  5
1F5
330
20
100
AcDbEntity
  8
_0-0_
  6
Continuous
 62
     4
100
AcDbLine
 10
1461.984836786719
 20
1071.136375226559
 30
0.0
 11
1440.251505695215
 21
1065.312946711753
 31
0.0
  0
LINE
  5
1F6
330
20
100
AcDbEntity
  8
_0-0_
  6
Continuous
 62
     4
100
AcDbLine
 10
1461.984836786719
 20
1071.136375226559
 30
0.0
 11
1440.251505695215
 21
1076.959803741366
 31
0.0
  0
LINE
  5
1F7
330
20
100
AcDbEntity
  8
_0-0_
  6
Continuous
 62
     4
100
AcDbLine
 10
1471.984836786719
 20
1071.136375226559
 30
0.0
 11
1493.718167878223
 21
1076.959803741366
 31
0.0
  0
LINE
  5
1F8
330
20
100
AcDbEntity
  8
_0-0_
  6
Continuous
 62
     4
100
AcDbLine
 10
1471.984836786719
 20
1071.136375226559
 30
0.0
 11
1493.718167878223
 21
1065.312946711753
 31
0.0
  0
LINE
  5
1F9
330
20
100
AcDbEntity
  8
_0-0_
  6
Continuous
 62
     4
100
AcDbLine
 10
1271.984836786719
 20
1071.136375226559
 30
0.0
 11
1250.251505695215
 21
1065.312946711753
 31
0.0
  0
LINE
  5
1FA
330
20
100
AcDbEntity
  8
_0-0_
  6
Continuous
 62
     4
100
AcDbLine
 10
1271.984836786719
 20
1071.136375226559
 30
0.0
 11
1250.251505695215
 21
1076.959803741366
 31
0.0
  0
LINE
  5
1FB
330
20
100
AcDbEntity
  8
_0-0_
  6
Continuous
 62
     4
100
AcDbLine
 10
1751.984836786719
 20
1671.136375226559
 30
0.0
 11
1861.984836786719
 21
1671.136375226559
 31
0.0
  0
LINE
  5
1FC
330
20
100
AcDbEntity
  8
_0-0_
  6
Continuous
 62
     4
100
AcDbLine
 10
1751.984836786719
 20
1721.136375226559
 30
0.0
 11
1861.984836786719
 21
1721.136375226559
 31
0.0
  0
LINE
  5
1FD
330
20
100
AcDbEntity
  8
_0-0_
  6
Continuous
 62
     4
100
AcDbLine
 10
1751.984836786719
 20
1941.13637522656
 30
0.0
 11
1861.984836786719
 21
1941.13637522656
 31
0.0
  0
LINE
  5
1FE
330
20
100
AcDbEntity
  8
_0-0_
  6
Continuous
 62
     4
100
AcDbLine
 10
1851.984836786719
 20
1941.13637522656
 30
0.0
 11
1851.984836786719
 21
1721.136375226559
 31
0.0
  0
LINE
  5
1FF
330
20
100
AcDbEntity
  8
_0-0_
  6
Continuous
 62
     4
100
AcDbLine
 10
1851.984836786719
 20
1721.136375226559
 30
0.0
 11
1851.984836786719
 21
1671.136375226559
 31
0.0
  0
LINE
  5
200
330
20
100
AcDbEntity
  8
_0-0_
  6
Continuous
 62
     4
100
AcDbLine
 10
1851.984836786719
 20
1941.13637522656
 30
0.0
 11
1857.808265301526
 21
1919.403044135056
 31
0.0
  0
LINE
  5
201
330
20
100
AcDbEntity
  8
_0-0_
  6
Continuous
 62
     4
100
AcDbLine
 10
1851.984836786719
 20
1941.13637522656
 30
0.0
 11
1846.161408271912
 21
1919.403044135056
 31
0.0
  0
LINE
  5
202
330
20
100
AcDbEntity
  8
_0-0_
  6
Continuous
 62
     4
100
AcDbLine
 10
1851.984836786719
 20
1721.136375226559
 30
0.0
 11
1846.161408271912
 21
1742.869706318063
 31
0.0
  0
LINE
  5
203
330
20
100
AcDbEntity
  8
_0-0_
  6
Continuous
 62
     4
100
AcDbLine
 10
1851.984836786719
 20
1721.136375226559
 30
0.0
 11
1857.808265301526
 21
1742.869706318063
 31
0.0
  0
LINE
  5
204
330
20
100
AcDbEntity
  8
_0-0_
  6
Continuous
 62
     4
100
AcDbLine
 10
1851.984836786719
 20
1671.136375226559
 30
0.0
 11
1851.984836786719
 21
1631.136375226559
 31
0.0
  0
LINE
  5
205
330
20
100
AcDbEntity
  8
_0-0_
  6
Continuous
 62
     4
100
AcDbLine
 10
1851.984836786719
 20
1671.136375226559
 30
0.0
 11
1857.808265301526
 21
1649.403044135056
 31
0.0
  0
LINE
  5
206
330
20
100
AcDbEntity
  8
_0-0_
  6
Continuous
 62
     4
100
AcDbLine
 10
1851.984836786719
 20
1671.136375226559
 30
0.0
 11
1846.161408271912
 21
1649.403044135056
 31
0.0
  0
LINE
  5
207
330
20
100
AcDbEntity
  8
_0-0_
  6
DASHED1
 62
   136
100
AcDbLine
 10
1036.984836786719
 20
1521.136375226559
 30
0.0
 11
1036.984836786719
 21
1321.136375226559
 31
0.0
  0
LINE
  5
208
330
20
100
AcDbEntity
  8
_0-0_
  6
DASHED1
 62
   136
100
AcDbLine
 10
1011.984836786719
 20
1531.136375226559
 30
0.0
 11
1036.984836786719
 21
1521.136375226559
 31
0.0
  0
LINE
  5
209
330
20
100
AcDbEntity
  8
_0-0_
  6
DASHED1
 62
   136
100
AcDbLine
 10
1036.984836786719
 20
1321.136375226559
 30
0.0
 11
1011.984836786719
 21
1311.136375226559
 31
0.0
  0
LINE
  5
20A
330
20
100
AcDbEntity
  8
_0-0_
  6
DASHED1
 62
   136
100
AcDbLine
 10
1706.984836786719
 20
1521.136375226559
 30
0.0
 11
1706.984836786719
 21
1321.136375226559
 31
0.0
  0
LINE
  5
20B
330
20
100
AcDbEntity
  8
_0-0_
  6
DASHED1
 62
   136
100
AcDbLine
 10
1731.984836786719
 20
1531.136375226559
 30
0.0
 11
1706.984836786719
 21
1521.136375226559
 31
0.0
  0
LINE
  5
20C
330
20
100
AcDbEntity
  8
_0-0_
  6
DASHED1
 62
   136
100
AcDbLine
 10
1731.984836786719
 20
1311.136375226559
 30
0.0
 11
1706.984836786719
 21
1321.136375226559
 31
0.0
  0
LINE
  5
20D
330
20
100
AcDbEntity
  8
_0-0_
  6
DASHED1
 62
   136
100
AcDbLine
 10
1071.984836786719
 20
1301.136375226559
 30
0.0
 11
1671.984836786719
 21
1301.136375226559
 31
0.0
  0
LINE
  5
20E
330
20
100
AcDbEntity
  8
_0-0_
  6
DASHED1
 62
   136
100
AcDbLine
 10
1101.984836786719
 20
2096.13637522656
 30
0.0
 11
1101.984836786719
 21
1271.136375226559
 31
0.0
  0
LINE
  5
20F
330
20
100
AcDbEntity
  8
_0-0_
  6
DASHED1
 62
   136
100
AcDbLine
 10
1641.984836786719
 20
2096.13637522656
 30
0.0
 11
1641.984836786719
 21
1271.136375226559
 31
0.0
  0
LINE
  5
210
330
20
100
AcDbEntity
  8
_0-0_
  6
DASHED1
 62
   136
100
AcDbLine
 10
1071.984836786719
 20
2096.13637522656
 30
0.0
 11
1071.984836786719
 21
1301.136375226559
 31
0.0
  0
LINE
  5
211
330
20
100
AcDbEntity
  8
_0-0_
  6
DASHED1
 62
   136
100
AcDbLine
 10
1071.984836786719
 20
1301.136375226559
 30
0.0
 11
1101.984836786719
 21
1271.136375226559
 31
0.0
  0
LINE
  5
212
330
20
100
AcDbEntity
  8
_0-0_
  6
DASHED1
 62
   136
100
AcDbLine
 10
1671.984836786719
 20
1301.136375226559
 30
0.0
 11
1641.984836786719
 21
1271.136375226559
 31
0.0
  0
LINE
  5
213
330
20
100
AcDbEntity
  8
_0-0_
  6
DASHED1
 62
   136
100
AcDbLine
 10
1671.984836786719
 20
2096.13637522656
 30
0.0
 11
1671.984836786719
 21
1301.136375226559
 31
0.0
  0
LINE
  5
214
330
20
100
AcDbEntity
  8
_0-0_
  6
DASHED1
 62
   136
100
AcDbLine
 10
1271.984836786719
 20
1261.136375226559
 30
0.0
 11
1101.984836786719
 21
1271.136375226559
 31
0.0
  0
LINE
  5
215
330
20
100
AcDbEntity
  8
_0-0_
  6
DASHED1
 62
   136
100
AcDbLine
 10
1471.984836786719
 20
1261.136375226559
 30
0.0
 11
1641.984836786719
 21
1271.136375226559
 31
0.0
  0
TEXT
  5
216
330
20
100
AcDbEntity
  8
_0-0_
 62
     7
100
AcDbText
 10
1295.153162576918
 20
2592.757971558233
 30
0.0
 40
45.0
  1
φ870
100
AcDbText
  0
TEXT
  5
217
330
20
100
AcDbEntity
  8
_0-0_
 62
     7
100
AcDbText
 10
1296.873847078606
 20
2482.634163450182
 30
0.0
 40
45.0
  1
φ600
100
AcDbText
  0
TEXT
  5
218
330
20
100
AcDbEntity
  8
_0-0_
 62
     7
100
AcDbText
 10
1685.74854446016
 20
2482.634163450182
 30
0.0
 40
45.0
  1
135
100
AcDbText
  0
TEXT
  5
219
330
20
100
AcDbEntity
  8
_0-0_
 62
     7
100
AcDbText
 10
956.178315744324
 20
2482.634163450182
 30
0.0
 40
45.0
  1
135
100
AcDbText
  0
TEXT
  5
21A
330
20
100
AcDbEntity
  8
_0-0_
 62
     7
100
AcDbText
 10
1840.875738083472
 20
1786.889170647527
 30
0.0
 40
45.0
  1
220
 50
90.0
100
AcDbText
  0
TEXT
  5
21B
330
20
100
AcDbEntity
  8
_0-0_
 62
     7
100
AcDbText
 10
1843.549406500576
 20
1667.433693767681
 30
0.0
 40
45.0
  1
50
 50
90.0
100
AcDbText
  0
TEXT
  5
21C
330
20
100
AcDbEntity
  8
_0-0_
 62
     7
100
AcDbText
 10
586.5592125235105
 20
2290.766594580765
 30
0.0
 40
45.0
  1
100
 50
90.0
100
AcDbText
  0
TEXT
  5
21D
330
20
100
AcDbEntity
  8
_0-0_
 62
     7
100
AcDbText
 10
585.492928095261
 20
2179.7716103399
 30
0.0
 40
45.0
  1
80
 50
90.0
100
AcDbText
  0
TEXT
  5
21E
330
20
100
AcDbEntity
  8
_0-0_
 62
     7
100
AcDbText
 10
474.5754755178308
 20
1728.872968882695
 30
0.0
 40
45.0
  1
1160
 50
90.0
100
AcDbText
  0
TEXT
  5
21F
330
20
100
AcDbEntity
  8
_0-0_
 62
     7
100
AcDbText
 10
583.4001459711585
 20
1684.924544276544
 30
0.0
 40
45.0
  1
900
 50
90.0
100
AcDbText
  0
TEXT
  5
220
330
20
100
AcDbEntity
  8
_0-0_
 62
     7
100
AcDbText
 10
585.492928095261
 20
1207.770219981185
 30
0.0
 40
45.0
  1
80
 50
90.0
100
AcDbText
  0
TEXT
  5
221
330
20
100
AcDbEntity
  8
_0-0_
 62
     7
100
AcDbText
 10
696.4103806726903
 20
1910.945013679609
 30
0.0
 40
45.0
  1
450
 50
90.0
100
AcDbText
  0
TEXT
  5
222
330
20
100
AcDbEntity
  8
_0-0_
 62
     7
100
AcDbText
 10
805.2350511260183
 20
1577.01940429118
 30
0.0
 40
45.0
  1
200
 50
90.0
100
AcDbText
  0
TEXT
  5
223
330
20
100
AcDbEntity
  8
_0-0_
 62
     7
100
AcDbText
 10
692.2248164244859
 20
1456.811292749377
 30
0.0
 40
45.0
  1
450
 50
90.0
100
AcDbText
  0
TEXT
  5
224
330
20
100
AcDbEntity
  8
_0-0_
 62
     7
100
AcDbText
 10
803.142269001916
 20
1376.112320377345
 30
0.0
 40
45.0
  1
200
 50
90.0
100
AcDbText
  0
TEXT
  5
225
330
20
100
AcDbEntity
  8
_0-0_
 62
     7
100
AcDbText
 10
1289.525922584585
 20
1079.093693542136
 30
0.0
 40
45.0
  1
φ180
100
AcDbText
  0
TEXT
  5
226
330
20
100
AcDbEntity
  8
_0-0_
 62
     7
100
AcDbText
 10
1486.012033919629
 20
1081.316983482461
 30
0.0
 40
45.0
  1
10
100
AcDbText
  0
TEXT
  5
227
330
20
100
AcDbEntity
  8
_0-0_
 62
     7
100
AcDbText
 10
1203.313204026071
 20
1082.428628452624
 30
0.0
 40
45.0
  1
10
100
AcDbText
  0
TEXT
  5
228
330
20
100
AcDbEntity
  8
_0-0_
 62
     7
100
AcDbText
 10
1339.565880130175
 20
971.2641314363359
 30
0.0
 40
45.0
  1
400
100
AcDbText
  0
LINE
  5
229
330
20
100
AcDbEntity
  8
_0-0_
  6
Continuous
 62
     4
100
AcDbLine
 10
1071.984836786719
 20
1171.136375226559
 30
0.0
 11
1071.984836786719
 21
841.1363752265597
 31
0.0
  0
LINE
  5
22A
330
20
100
AcDbEntity
  8
_0-0_
  6
Continuous
 62
     4
100
AcDbLine
 10
1671.984836786719
 20
1171.136375226559
 30
0.0
 11
1671.984836786719
 21
841.1363752265597
 31
0.0
  0
LINE
  5
22B
330
20
100
AcDbEntity
  8
_0-0_
  6
Continuous
 62
     4
100
AcDbLine
 10
1011.984836786719
 20
851.1363752265596
 30
0.0
 11
1071.984836786719
 21
851.1363752265596
 31
0.0
  0
LINE
  5
22C
330
20
100
AcDbEntity
  8
_0-0_
  6
Continuous
 62
     4
100
AcDbLine
 10
1671.984836786719
 20
851.1363752265596
 30
0.0
 11
1731.984836786719
 21
851.1363752265596
 31
0.0
  0
LINE
  5
22D
330
20
100
AcDbEntity
  8
_0-0_
  6
Continuous
 62
     4
100
AcDbLine
 10
1671.984836786719
 20
851.1363752265596
 30
0.0
 11
1071.984836786719
 21
851.1363752265596
 31
0.0
  0
LINE
  5
22E
330
20
100
AcDbEntity
  8
_0-0_
  6
Continuous
 62
     4
100
AcDbLine
 10
1671.984836786719
 20
851.1363752265596
 30
0.0
 11
1693.718167878223
 21
856.9598037413664
 31
0.0
  0
LINE
  5
22F
330
20
100
AcDbEntity
  8
_0-0_
  6
Continuous
 62
     4
100
AcDbLine
 10
1671.984836786719
 20
851.1363752265596
 30
0.0
 11
1693.718167878223
 21
845.3129467117529
 31
0.0
  0
LINE
  5
230
330
20
100
AcDbEntity
  8
_0-0_
  6
Continuous
 62
     4
100
AcDbLine
 10
1671.984836786719
 20
851.1363752265596
 30
0.0
 11
1650.251505695215
 21
845.3129467117529
 31
0.0
  0
LINE
  5
231
330
20
100
AcDbEntity
  8
_0-0_
  6
Continuous
 62
     4
100
AcDbLine
 10
1671.984836786719
 20
851.1363752265596
 30
0.0
 11
1650.251505695215
 21
856.9598037413664
 31
0.0
  0
LINE
  5
232
330
20
100
AcDbEntity
  8
_0-0_
  6
Continuous
 62
     4
100
AcDbLine
 10
1071.984836786719
 20
851.1363752265596
 30
0.0
 11
1093.718167878223
 21
856.9598037413664
 31
0.0
  0
LINE
  5
233
330
20
100
AcDbEntity
  8
_0-0_
  6
Continuous
 62
     4
100
AcDbLine
 10
1071.984836786719
 20
851.1363752265596
 30
0.0
 11
1093.718167878223
 21
845.3129467117529
 31
0.0
  0
LINE
  5
234
330
20
100
AcDbEntity
  8
_0-0_
  6
Continuous
 62
     4
100
AcDbLine
 10
1071.984836786719
 20
851.1363752265596
 30
0.0
 11
1050.251505695215
 21
845.3129467117529
 31
0.0
  0
LINE
  5
235
330
20
100
AcDbEntity
  8
_0-0_
  6
Continuous
 62
     4
100
AcDbLine
 10
1071.984836786719
 20
851.1363752265596
 30
0.0
 11
1050.251505695215
 21
856.9598037413664
 31
0.0
  0
TEXT
  5
236
330
20
100
AcDbEntity
  8
_0-0_
 62
     7
100
AcDbText
 10
1032.938238339887
 20
864.5462143006993
 30
0.0
 40
45.0
  1
60
100
AcDbText
  0
TEXT
  5
237
330
20
100
AcDbEntity
  8
_0-0_
 62
     7
100
AcDbText
 10
1638.822715173654
 20
863.4345693305363
 30
0.0
 40
45.0
  1
60
100
AcDbText
  0
TEXT
  5
238
330
20
100
AcDbEntity
  8
_0-0_
 62
     7
100
AcDbText
 10
1338.454235160013
 20
861.2112793902106
 30
0.0
 40
45.0
  1
600
100
AcDbText
  0
LINE
  5
239
330
20
100
AcDbEntity
  8
_0-0_
  6
DASHED1
 62
   136
100
AcDbLine
 10
1101.984836786719
 20
2096.13637522656
 30
0.0
 11
1101.984836786719
 21
2171.13637522656
 31
0.0
  0
LINE
  5
23A
330
20
100
AcDbEntity
  8
_0-0_
  6
DASHED1
 62
   136
100
AcDbLine
 10
1641.984836786719
 20
2096.13637522656
 30
0.0
 11
1641.984836786719
 21
2171.13637522656
 31
0.0
  0
TEXT
  5
23B
330
20
100
AcDbEntity
  8
_0-0_
 62
     7
100
AcDbText
 10
1837.577386324422
 20
1962.993356945478
 30
0.0
 40
45.0
  1
B2-450
 41
0.58
100
AcDbText
  0
TEXT
  5
23C
330
20
100
AcDbEntity
  8
_0-0_
 62
     7
100
AcDbText
 10
1838.358269703594
 20
1433.162059012371
 30
0.0
 40
45.0
  1
B1-450
 41
0.58
100
AcDbText
  0
TEXT
  5
23D
330
20
100
AcDbEntity
  8
_0-0_
 62
     7
100
AcDbText
 10
1917.278782882004
 20
2278.1979230331
 30
0.0
 40
45.0
  1
CR-600
 41
0.58
100
AcDbText
  0
LINE
  5
23E
330
20
100
AcDbEntity
  8
_0-0_
  6
Continuous
 62
     4
100
AcDbLine
 10
1179.055904598584
 20
1948.207443038424
 30
0.0
 11
1249.484836786719
 21
2018.63637522656
 31
0.0
  0
LINE
  5
23F
330
20
100
AcDbEntity
  8
_0-0_
  6
Continuous
 62
     4
100
AcDbLine
 10
1179.055904598584
 20
1948.207443038424
 30
0.0
 11
1190.305904598584
 21
1967.693014623575
 31
0.0
  0
LINE
  5
240
330
20
100
AcDbEntity
  8
_0-0_
  6
Continuous
 62
     4
100
AcDbLine
 10
1179.055904598584
 20
1948.207443038424
 30
0.0
 11
1198.541476183734
 21
1959.457443038424
 31
0.0
  0
LINE
  5
241
330
20
100
AcDbEntity
  8
_0-0_
  6
Continuous
 62
     4
100
AcDbLine
 10
1249.484836786719
 20
2018.63637522656
 30
0.0
 11
1683.840972931271
 21
2018.63637522656
 31
0.0
  0
LINE
  5
242
330
20
100
AcDbEntity
  8
_0-0_
  6
Continuous
 62
     4
100
AcDbLine
 10
1171.98483678672
 20
1811.136375226559
 30
0.0
 11
1371.984836786719
 21
1811.136375226559
 31
0.0
  0
LINE
  5
243
330
20
100
AcDbEntity
  8
_0-0_
  6
Continuous
 62
     4
100
AcDbLine
 10
1571.984836786719
 20
1811.136375226559
 30
0.0
 11
1371.984836786719
 21
1811.136375226559
 31
0.0
  0
LINE
  5
244
330
20
100
AcDbEntity
  8
_0-0_
  6
Continuous
 62
     4
100
AcDbLine
 10
1171.98483678672
 20
1911.136375226559
 30
0.0
 11
1171.98483678672
 21
1801.136375226559
 31
0.0
  0
LINE
  5
245
330
20
100
AcDbEntity
  8
_0-0_
  6
Continuous
 62
     4
100
AcDbLine
 10
1371.984836786719
 20
1911.136375226559
 30
0.0
 11
1371.984836786719
 21
1811.136375226559
 31
0.0
  0
LINE
  5
246
330
20
100
AcDbEntity
  8
_0-0_
  6
Continuous
 62
     4
100
AcDbLine
 10
1571.984836786719
 20
1911.136375226559
 30
0.0
 11
1571.984836786719
 21
1801.136375226559
 31
0.0
  0
LINE
  5
247
330
20
100
AcDbEntity
  8
_0-0_
  6
Continuous
 62
     4
100
AcDbLine
 10
1171.98483678672
 20
1811.136375226559
 30
0.0
 11
1193.718167878223
 21
1816.959803741367
 31
0.0
  0
LINE
  5
248
330
20
100
AcDbEntity
  8
_0-0_
  6
Continuous
 62
     4
100
AcDbLine
 10
1171.98483678672
 20
1811.136375226559
 30
0.0
 11
1193.718167878223
 21
1805.312946711752
 31
0.0
  0
LINE
  5
249
330
20
100
AcDbEntity
  8
_0-0_
  6
Continuous
 62
     4
100
AcDbLine
 10
1371.984836786719
 20
1811.136375226559
 30
0.0
 11
1350.251505695215
 21
1805.312946711752
 31
0.0
  0
LINE
  5
24A
330
20
100
AcDbEntity
  8
_0-0_
  6
Continuous
 62
     4
100
AcDbLine
 10
1371.984836786719
 20
1811.136375226559
 30
0.0
 11
1350.251505695215
 21
1816.959803741367
 31
0.0
  0
LINE
  5
24B
330
20
100
AcDbEntity
  8
_0-0_
  6
Continuous
 62
     4
100
AcDbLine
 10
1371.984836786719
 20
1811.136375226559
 30
0.0
 11
1393.718167878223
 21
1816.959803741367
 31
0.0
  0
LINE
  5
24C
330
20
100
AcDbEntity
  8
_0-0_
  6
Continuous
 62
     4
100
AcDbLine
 10
1371.984836786719
 20
1811.136375226559
 30
0.0
 11
1393.718167878223
 21
1805.312946711752
 31
0.0
  0
LINE
  5
24D
330
20
100
AcDbEntity
  8
_0-0_
  6
Continuous
 62
     4
100
AcDbLine
 10
1571.984836786719
 20
1811.136375226559
 30
0.0
 11
1550.251505695215
 21
1805.312946711752
 31
0.0
  0
LINE
  5
24E
330
20
100
AcDbEntity
  8
_0-0_
  6
Continuous
 62
     4
100
AcDbLine
 10
1571.984836786719
 20
1811.136375226559
 30
0.0
 11
1550.251505695215
 21
1816.959803741367
 31
0.0
  0
TEXT
  5
24F
330
20
100
AcDbEntity
  8
_0-0_
 62
     7
100
AcDbText
 10
1216.709126470805
 20
1821.958007999618
 30
0.0
 40
45.0
  1
200
100
AcDbText
  0
TEXT
  5
250
330
20
100
AcDbEntity
  8
_0-0_
 62
     7
100
AcDbText
 10
1417.902674857902
 20
1821.958007999618
 30
0.0
 40
45.0
  1
200
100
AcDbText
  0
LINE
  5
251
330
20
100
AcDbEntity
  8
_0-0_
  6
Continuous
 62
     7
100
AcDbLine
 10
936.9848367867191
 20
2171.13637522656
 30
0.0
 11
1011.984836786719
 21
2071.13637522656
 31
0.0
  0
LINE
  5
252
330
20
100
AcDbEntity
  8
_0-0_
  6
Continuous
 62
     7
100
AcDbLine
 10
1011.984836786719
 20
2071.13637522656
 30
0.0
 11
1011.984836786719
 21
1201.136375226559
 31
0.0
  0
LINE
  5
253
330
20
100
AcDbEntity
  8
_0-0_
  6
Continuous
 62
     7
100
AcDbLine
 10
1806.984836786719
 20
2171.13637522656
 30
0.0
 11
1731.984836786719
 21
2071.13637522656
 31
0.0
  0
LINE
  5
254
330
20
100
AcDbEntity
  8
_0-0_
  6
Continuous
 62
     7
100
AcDbLine
 10
1731.984836786719
 20
2071.13637522656
 30
0.0
 11
1731.984836786719
 21
1201.136375226559
 31
0.0
  0
LINE
  5
255
330
20
100
AcDbEntity
  8
_0-0_
  6
Continuous
 62
     7
100
AcDbLine
 10
1011.984836786719
 20
2071.13637522656
 30
0.0
 11
1731.984836786719
 21
2071.13637522656
 31
0.0
  0
TEXT
  5
256
330
20
100
AcDbEntity
  8
_0-0_
 62
     7
100
AcDbText
 10
1249.972540761408
 20
2025.233649264279
 30
0.0
 40
45.0
  1
インサート　M12
100
AcDbText
  0
LINE
  5
257
330
20
100
AcDbEntity
  8
_0-0_
  6
Continuous
 62
     4
100
AcDbLine
 10
991.9848367867194
 20
1721.136375226559
 30
0.0
 11
696.9848367867192
 21
1721.136375226559
 31
0.0
  0
LINE
  5
258
330
20
100
AcDbEntity
  8
_0-0_
  6
Continuous
 62
     4
100
AcDbLine
 10
991.9848367867194
 20
1521.136375226559
 30
0.0
 11
806.9848367867193
 21
1521.136375226559
 31
0.0
  0
LINE
  5
259
330
20
100
AcDbEntity
  8
_0-0_
  6
Continuous
 62
     4
100
AcDbLine
 10
991.9848367867194
 20
1321.136375226559
 30
0.0
 11
806.9848367867193
 21
1321.136375226559
 31
0.0
  0
LINE
  5
25A
330
20
100
AcDbEntity
  8
_0-0_
  6
Continuous
 62
     4
100
AcDbLine
 10
991.9848367867194
 20
1271.136375226559
 30
0.0
 11
586.984836786719
 21
1271.136375226559
 31
0.0
  0
LINE
  5
25B
330
20
100
AcDbEntity
  8
_0-0_
  6
Continuous
 62
     4
100
AcDbLine
 10
991.9848367867194
 20
1191.136375226559
 30
0.0
 11
476.9848367867189
 21
1191.136375226559
 31
0.0
  0
LINE
  5
25C
330
20
100
AcDbEntity
  8
_0-0_
  6
Continuous
 62
     4
100
AcDbLine
 10
1011.984836786719
 20
1171.136375226559
 30
0.0
 11
1011.984836786719
 21
731.1363752265596
 31
0.0
  0
LINE
  5
25D
330
20
100
AcDbEntity
  8
_0-0_
  6
Continuous
 62
     4
100
AcDbLine
 10
1731.984836786719
 20
741.1363752265596
 30
0.0
 11
1011.984836786719
 21
741.1363752265596
 31
0.0
  0
LINE
  5
25E
330
20
100
AcDbEntity
  8
_0-0_
  6
Continuous
 62
     4
100
AcDbLine
 10
1731.984836786719
 20
1171.136375226559
 30
0.0
 11
1731.984836786719
 21
731.1363752265596
 31
0.0
  0
LINE
  5
25F
330
20
100
AcDbEntity
  8
_0-0_
  6
Continuous
 62
     4
100
AcDbLine
 10
1011.984836786719
 20
741.1363752265596
 30
0.0
 11
1033.718167878223
 21
746.9598037413663
 31
0.0
  0
LINE
  5
260
330
20
100
AcDbEntity
  8
_0-0_
  6
Continuous
 62
     4
100
AcDbLine
 10
1011.984836786719
 20
741.1363752265596
 30
0.0
 11
1033.718167878223
 21
735.3129467117529
 31
0.0
  0
LINE
  5
261
330
20
100
AcDbEntity
  8
_0-0_
  6
Continuous
 62
     4
100
AcDbLine
 10
1731.984836786719
 20
741.1363752265596
 30
0.0
 11
1710.251505695215
 21
735.3129467117529
 31
0.0
  0
LINE
  5
262
330
20
100
AcDbEntity
  8
_0-0_
  6
Continuous
 62
     4
100
AcDbLine
 10
1731.984836786719
 20
741.1363752265596
 30
0.0
 11
1710.251505695215
 21
746.9598037413663
 31
0.0
  0
TEXT
  5
263
330
20
100
AcDbEntity
  8
_0-0_
 62
     7
100
AcDbText
 10
1338.584156259444
 20
751.3447832648627
 30
0.0
 40
45.0
  1
720
100
AcDbText
  0
LINE
  5
264
330
20
100
AcDbEntity
  8
_0-0_
  6
Continuous
 62
   136
100
AcDbLine
 10
1161.984836786719
 20
1531.136375226559
 30
0.0
 11
1581.984836786719
 21
1531.136375226559
 31
0.0
  0
LINE
  5
265
330
20
100
AcDbEntity
  8
_0-0_
  6
Continuous
 62
   136
100
AcDbLine
 10
1171.98483678672
 20
1521.136375226559
 30
0.0
 11
1571.984836786719
 21
1521.136375226559
 31
0.0
  0
LINE
  5
266
330
20
100
AcDbEntity
  8
_0-0_
  6
Continuous
 62
   136
100
AcDbLine
 10
1171.98483678672
 20
1521.136375226559
 30
0.0
 11
1171.98483678672
 21
1321.136375226559
 31
0.0
  0
LINE
  5
267
330
20
100
AcDbEntity
  8
_0-0_
  6
Continuous
 62
   136
100
AcDbLine
 10
1161.984836786719
 20
1531.136375226559
 30
0.0
 11
1161.984836786719
 21
1311.136375226559
 31
0.0
  0
LINE
  5
268
330
20
100
AcDbEntity
  8
_0-0_
  6
Continuous
 62
   136
100
AcDbLine
 10
1161.984836786719
 20
1531.136375226559
 30
0.0
 11
1171.98483678672
 21
1521.136375226559
 31
0.0
  0
LINE
  5
269
330
20
100
AcDbEntity
  8
_0-0_
  6
Continuous
 62
   136
100
AcDbLine
 10
1171.98483678672
 20
1321.136375226559
 30
0.0
 11
1571.984836786719
 21
1321.136375226559
 31
0.0
  0
LINE
  5
26A
330
20
100
AcDbEntity
  8
_0-0_
  6
Continuous
 62
   136
100
AcDbLine
 10
1161.984836786719
 20
1311.136375226559
 30
0.0
 11
1581.984836786719
 21
1311.136375226559
 31
0.0
  0
LINE
  5
26B
330
20
100
AcDbEntity
  8
_0-0_
  6
Continuous
 62
   136
100
AcDbLine
 10
1171.98483678672
 20
1321.136375226559
 30
0.0
 11
1161.984836786719
 21
1311.136375226559
 31
0.0
  0
LINE
  5
26C
330
20
100
AcDbEntity
  8
_0-0_
  6
Continuous
 62
   136
100
AcDbLine
 10
1571.984836786719
 20
1521.136375226559
 30
0.0
 11
1571.984836786719
 21
1321.136375226559
 31
0.0
  0
LINE
  5
26D
330
20
100
AcDbEntity
  8
_0-0_
  6
Continuous
 62
   136
100
AcDbLine
 10
1581.984836786719
 20
1531.136375226559
 30
0.0
 11
1581.984836786719
 21
1311.136375226559
 31
0.0
  0
LINE
  5
26E
330
20
100
AcDbEntity
  8
_0-0_
  6
Continuous
 62
   136
100
AcDbLine
 10
1571.984836786719
 20
1321.136375226559
 30
0.0
 11
1581.984836786719
 21
1311.136375226559
 31
0.0
  0
LINE
  5
26F
330
20
100
AcDbEntity
  8
_0-0_
  6
Continuous
 62
   136
100
AcDbLine
 10
1581.984836786719
 20
1531.136375226559
 30
0.0
 11
1571.984836786719
 21
1521.136375226559
 31
0.0
  0
LINE
  5
270
330
20
100
AcDbEntity
  8
_0-0_
  6
DASHED1
 62
     6
100
AcDbLine
 10
1041.984836786719
 20
1951.13637522656
 30
0.0
 11
1071.984836786719
 21
1951.13637522656
 31
0.0
  0
LINE
  5
271
330
20
100
AcDbEntity
  8
_0-0_
  6
DASHED1
 62
     6
100
AcDbLine
 10
1041.984836786719
 20
1931.13637522656
 30
0.0
 11
1071.984836786719
 21
1931.13637522656
 31
0.0
  0
LINE
  5
272
330
20
100
AcDbEntity
  8
_0-0_
  6
DASHED1
 62
     6
100
AcDbLine
 10
1041.984836786719
 20
1951.13637522656
 30
0.0
 11
1041.984836786719
 21
1931.13637522656
 31
0.0
  0
CIRCLE
  5
273
330
20
100
AcDbEntity
  8
_0-0_
  6
DASHED1
 62
     6
100
AcDbCircle
 10
1171.98483678672
 20
1941.13637522656
 30
0.0
 40
10.0
  0
CIRCLE
  5
274
330
20
100
AcDbEntity
  8
_0-0_
  6
DASHED1
 62
     6
100
AcDbCircle
 10
1371.984836786719
 20
1941.13637522656
 30
0.0
 40
10.0
  0
CIRCLE
  5
275
330
20
100
AcDbEntity
  8
_0-0_
  6
DASHED1
 62
     6
100
AcDbCircle
 10
1571.984836786719
 20
1941.13637522656
 30
0.0
 40
10.0
  0
LINE
  5
276
330
20
100
AcDbEntity
  8
_0-0_
  6
DASHED1
 62
     6
100
AcDbLine
 10
1671.984836786719
 20
1931.13637522656
 30
0.0
 11
1701.984836786719
 21
1931.13637522656
 31
0.0
  0
LINE
  5
277
330
20
100
AcDbEntity
  8
_0-0_
  6
DASHED1
 62
     6
100
AcDbLine
 10
1671.984836786719
 20
1951.13637522656
 30
0.0
 11
1701.984836786719
 21
1951.13637522656
 31
0.0
  0
LINE
  5
278
330
20
100
AcDbEntity
  8
_0-0_
  6
DASHED1
 62
     6
100
AcDbLine
 10
1701.984836786719
 20
1951.13637522656
 30
0.0
 11
1701.984836786719
 21
1931.13637522656
 31
0.0
  0
LINE
  5
279
330
20
100
AcDbEntity
  8
_0-0_
  6
DASHED1
 62
     6
100
AcDbLine
 10
1671.984836786719
 20
1681.136375226559
 30
0.0
 11
1701.984836786719
 21
1681.136375226559
 31
0.0
  0
LINE
  5
27A
330
20
100
AcDbEntity
  8
_0-0_
  6
DASHED1
 62
     6
100
AcDbLine
 10
1671.984836786719
 20
1661.136375226559
 30
0.0
 11
1701.984836786719
 21
1661.136375226559
 31
0.0
  0
LINE
  5
27B
330
20
100
AcDbEntity
  8
_0-0_
  6
DASHED1
 62
     6
100
AcDbLine
 10
1701.984836786719
 20
1681.136375226559
 30
0.0
 11
1701.984836786719
 21
1661.136375226559
 31
0.0
  0
CIRCLE
  5
27C
330
20
100
AcDbEntity
  8
_0-0_
  6
DASHED1
 62
     6
100
AcDbCircle
 10
1571.984836786719
 20
1671.136375226559
 30
0.0
 40
10.0
  0
CIRCLE
  5
27D
330
20
100
AcDbEntity
  8
_0-0_
  6
DASHED1
 62
     6
100
AcDbCircle
 10
1371.984836786719
 20
1671.136375226559
 30
0.0
 40
10.0
  0
CIRCLE
  5
27E
330
20
100
AcDbEntity
  8
_0-0_
  6
DASHED1
 62
     6
100
AcDbCircle
 10
1171.98483678672
 20
1671.136375226559
 30
0.0
 40
10.0
  0
LINE
  5
27F
330
20
100
AcDbEntity
  8
_0-0_
  6
DASHED1
 62
     6
100
AcDbLine
 10
1041.984836786719
 20
1661.136375226559
 30
0.0
 11
1071.984836786719
 21
1661.136375226559
 31
0.0
  0
LINE
  5
280
330
20
100
AcDbEntity
  8
_0-0_
  6
DASHED1
 62
     6
100
AcDbLine
 10
1041.984836786719
 20
1681.136375226559
 30
0.0
 11
1071.984836786719
 21
1681.136375226559
 31
0.0
  0
LINE
  5
281
330
20
100
AcDbEntity
  8
_0-0_
  6
DASHED1
 62
     6
100
AcDbLine
 10
1041.984836786719
 20
1681.136375226559
 30
0.0
 11
1041.984836786719
 21
1661.136375226559
 31
0.0
  0
LINE
  5
282
330
20
100
AcDbEntity
  8
_0-0_
  6
Continuous
 62
     6
100
AcDbLine
 10
1856.984836786719
 20
2301.13637522656
 30
0.0
 11
1906.984836786719
 21
2276.13637522656
 31
0.0
  0
LINE
  5
283
330
20
100
AcDbEntity
  8
_0-0_
  6
Continuous
 62
     6
100
AcDbLine
 10
1906.984836786719
 20
2326.13637522656
 30
0.0
 11
1856.984836786719
 21
2301.13637522656
 31
0.0
  0
LINE
  5
284
330
20
100
AcDbEntity
  8
_0-0_
  6
Continuous
 62
     6
100
AcDbLine
 10
1906.984836786719
 20
2326.13637522656
 30
0.0
 11
2076.984836786719
 21
2326.13637522656
 31
0.0
  0
LINE
  5
285
330
20
100
AcDbEntity
  8
_0-0_
  6
Continuous
 62
     6
100
AcDbLine
 10
2076.984836786719
 20
2276.13637522656
 30
0.0
 11
2076.984836786719
 21
2326.13637522656
 31
0.0
  0
LINE
  5
286
330
20
100
AcDbEntity
  8
_0-0_
  6
Continuous
 62
     6
100
AcDbLine
 10
2076.984836786719
 20
2276.13637522656
 30
0.0
 11
1906.984836786719
 21
2276.13637522656
 31
0.0
  0
LINE
  5
287
330
20
100
AcDbEntity
  8
_0-0_
  6
Continuous
 62
     6
100
AcDbLine
 10
1831.984836786719
 20
2011.13637522656
 30
0.0
 11
1781.984836786719
 21
1986.136375226559
 31
0.0
  0
LINE
  5
288
330
20
100
AcDbEntity
  8
_0-0_
  6
Continuous
 62
     6
100
AcDbLine
 10
1781.984836786719
 20
1986.136375226559
 30
0.0
 11
1831.984836786719
 21
1961.13637522656
 31
0.0
  0
LINE
  5
289
330
20
100
AcDbEntity
  8
_0-0_
  6
Continuous
 62
     6
100
AcDbLine
 10
1831.984836786719
 20
1961.13637522656
 30
0.0
 11
1991.984836786719
 21
1961.13637522656
 31
0.0
  0
LINE
  5
28A
330
20
100
AcDbEntity
  8
_0-0_
  6
Continuous
 62
     6
100
AcDbLine
 10
1991.984836786719
 20
2011.13637522656
 30
0.0
 11
1991.984836786719
 21
1961.13637522656
 31
0.0
  0
LINE
  5
28B
330
20
100
AcDbEntity
  8
_0-0_
  6
Continuous
 62
     6
100
AcDbLine
 10
1831.984836786719
 20
2011.13637522656
 30
0.0
 11
1991.984836786719
 21
2011.13637522656
 31
0.0
  0
LINE
  5
28C
330
20
100
AcDbEntity
  8
_0-0_
  6
Continuous
 62
     6
100
AcDbLine
 10
1831.984836786719
 20
1481.136375226559
 30
0.0
 11
1781.984836786719
 21
1456.136375226559
 31
0.0
  0
LINE
  5
28D
330
20
100
AcDbEntity
  8
_0-0_
  6
Continuous
 62
     6
100
AcDbLine
 10
1781.984836786719
 20
1456.136375226559
 30
0.0
 11
1831.984836786719
 21
1431.136375226559
 31
0.0
  0
LINE
  5
28E
330
20
100
AcDbEntity
  8
_0-0_
  6
Continuous
 62
     6
100
AcDbLine
 10
1831.984836786719
 20
1431.136375226559
 30
0.0
 11
1991.984836786719
 21
1431.136375226559
 31
0.0
  0
LINE
  5
28F
330
20
100
AcDbEntity
  8
_0-0_
  6
Continuous
 62
     6
100
AcDbLine
 10
1991.984836786719
 20
1481.136375226559
 30
0.0
 11
1991.984836786719
 21
1431.136375226559
 31
0.0
  0
LINE
  5
290
330
20
100
AcDbEntity
  8
_0-0_
  6
Continuous
 62
     6
100
AcDbLine
 10
1831.984836786719
 20
1481.136375226559
 30
0.0
 11
1991.984836786719
 21
1481.136375226559
 31
0.0
  0
ENDSEC
  0
SECTION
  2
OBJECTS
  0
DICTIONARY
  5
C
330
0
100
AcDbDictionary
281
     1
  3
ACAD_COLOR
350
1B
  3
ACAD_GROUP
350
D
  3
ACAD_LAYOUT
350
19
  3
ACAD_MATERIAL
350
1A
  3
ACAD_MLINESTYLE
350
16
  3
ACAD_PLOTSETTINGS
350
18
  3
ACAD_PLOTSTYLENAME
350
E
  0
DICTIONARY
  5
1B
102
{ACAD_REACTORS
330
C
102
}
330
C
100
AcDbDictionary
281
     1
  0
DICTIONARY
  5
D
102
{ACAD_REACTORS
330
C
102
}
330
C
100
AcDbDictionary
281
     1
  0
DICTIONARY
  5
19
102
{ACAD_REACTORS
330
C
102
}
330
C
100
AcDbDictionary
281
     1
  3
Model
350
23
  3
レイアウト1
350
1F
  0
DICTIONARY
  5
1A
102
{ACAD_REACTORS
330
C
102
}
330
C
100
AcDbDictionary
281
     1
  0
DICTIONARY
  5
16
102
{ACAD_REACTORS
330
C
102
}
330
C
100
AcDbDictionary
281
     1
  3
Standard
350
17
  0
DICTIONARY
  5
18
102
{ACAD_REACTORS
330
C
102
}
330
C
100
AcDbDictionary
281
     1
  0
ACDBDICTIONARYWDFLT
  5
E
102
{ACAD_REACTORS
330
C
102
}
330
C
100
AcDbDictionary
281
     1
  3
Normal
350
F
100
AcDbDictionaryWithDefault
340
F
  0
LAYOUT
  5
23
102
{ACAD_REACTORS
330
19
102
}
330
19
100
AcDbPlotSettings
  1

  2
RICOH imagio MP C3300 RPCS
  4

  6

 40
0.0
 41
0.0
 42
0.0
 43
0.0
 44
0.0
 45
0.0
 46
0.0
 47
0.0
 48
0.0
 49
0.0
140
0.0
141
0.0
142
1.0
143
1.0
 70
  1712
 72
     0
 73
     0
 74
     0
  7

 75
     0
147
1.0
 76
     0
 77
     2
 78
   300
148
0.0
149
0.0
100
AcDbLayout
  1
Model
 70
     1
 71
     0
 10
0.0
 20
0.0
 11
12.0
 21
9.0
 12
0.0
 22
0.0
 32
0.0
 14
0.0
 24
0.0
 34
0.0
 15
0.0
 25
0.0
 35
0.0
146
0.0
 13
0.0
 23
0.0
 33
0.0
 16
1.0
 26
0.0
 36
0.0
 17
0.0
 27
1.0
 37
0.0
 76
     0
330
20
  0
LAYOUT
  5
1F
102
{ACAD_REACTORS
330
19
102
}
330
19
100
AcDbPlotSettings
  1

  2
RICOH imagio MP C3300 RPCS
  4

  6

 40
0.0
 41
0.0
 42
0.0
 43
0.0
 44
0.0
 45
0.0
 46
0.0
 47
0.0
 48
0.0
 49
0.0
140
0.0
141
0.0
142
1.0
143
1.0
 70
   688
 72
     0
 73
     0
 74
     5
  7

 75
    16
147
1.0
 76
     0
 77
     2
 78
   300
148
0.0
149
0.0
100
AcDbLayout
  1
レイアウト1
 70
     1
 71
     1
 10
0.0
 20
0.0
 11
12.0
 21
9.0
 12
0.0
 22
0.0
 32
0.0
 14
1.000000000000000E+20
 24
1.000000000000000E+20
 34
1.000000000000000E+20
 15
-1.000000000000000E+20
 25
-1.000000000000000E+20
 35
-1.000000000000000E+20
146
0.0
 13
0.0
 23
0.0
 33
0.0
 16
1.0
 26
0.0
 36
0.0
 17
0.0
 27
1.0
 37
0.0
 76
     0
330
1C
  0
MLINESTYLE
  5
17
102
{ACAD_REACTORS
330
16
102
}
330
16
100
AcDbMlineStyle
  2
STANDARD
 70
     0
  3

 62
   256
 51
90.0
 52
90.0
 71
     2
 49
0.5
 62
   256
  6
BYLAYER
 49
-0.5
 62
   256
  6
BYLAYER
  0
ACDBPLACEHOLDER
  5
F
102
{ACAD_REACTORS
330
E
102
}
330
E
  0
ENDSEC
  0
EOF
