  0
SECTION
  2
HEADER
  9
$ACADVER
  1
AC1015
  9
$ACADMAINTVER
 70
    20
  9
$DWGCODEPAGE
  3
ANSI_932
  9
$INSBASE
 10
0.0
 20
0.0
 30
0.0
  9
$EXTMIN
 10
146.0618662159677
 20
107.6019337256457
 30
-0.0015258207003583
  9
$EXTMAX
 10
2903.245703858842
 20
1986.470036495558
 30
0.0000000349246037
  9
$LIMMIN
 10
0.0
 20
0.0
  9
$LIMMAX
 10
2970.0
 20
2100.0
  9
$ORTHOMODE
 70
     1
  9
$REGENMODE
 70
     1
  9
$FILLMODE
 70
     1
  9
$QTEXTMODE
 70
     0
  9
$MIRRTEXT
 70
     0
  9
$LTSCALE
 40
10.0
  9
$ATTMODE
 70
     1
  9
$TEXTSIZE
 40
0.2
  9
$TRACEWID
 40
0.05
  9
$TEXTSTYLE
  7
STANDARD
  9
$CLAYER
  8
0
  9
$CELTYPE
  6
CONTINUOUS
  9
$CECOLOR
 62
   256
  9
$CELTSCALE
 40
1.0
  9
$DISPSILH
 70
     0
  9
$DIMSCALE
 40
1.0
  9
$DIMASZ
 40
0.18
  9
$DIMEXO
 40
0.0625
  9
$DIMDLI
 40
0.38
  9
$DIMRND
 40
0.0
  9
$DIMDLE
 40
0.0
  9
$DIMEXE
 40
0.18
  9
$DIMTP
 40
0.0
  9
$DIMTM
 40
0.0
  9
$DIMTXT
 40
0.18
  9
$DIMCEN
 40
0.09
  9
$DIMTSZ
 40
0.0
  9
$DIMTOL
 70
     0
  9
$DIMLIM
 70
     0
  9
$DIMTIH
 70
     1
  9
$DIMTOH
 70
     1
  9
$DIMSE1
 70
     0
  9
$DIMSE2
 70
     0
  9
$DIMTAD
 70
     0
  9
$DIMZIN
 70
     0
  9
$DIMBLK
  1

  9
$DIMASO
 70
     1
  9
$DIMSHO
 70
     1
  9
$DIMPOST
  1

  9
$DIMAPOST
  1

  9
$DIMALT
 70
     0
  9
$DIMALTD
 70
     2
  9
$DIMALTF
 40
25.4
  9
$DIMLFAC
 40
1.0
  9
$DIMTOFL
 70
     0
  9
$DIMTVP
 40
0.0
  9
$DIMTIX
 70
     0
  9
$DIMSOXD
 70
     0
  9
$DIMSAH
 70
     0
  9
$DIMBLK1
  1

  9
$DIMBLK2
  1

  9
$DIMSTYLE
  2
Standard
  9
$DIMCLRD
 70
     0
  9
$DIMCLRE
 70
     0
  9
$DIMCLRT
 70
     0
  9
$DIMTFAC
 40
1.0
  9
$DIMGAP
 40
0.09
  9
$DIMJUST
 70
     0
  9
$DIMSD1
 70
     0
  9
$DIMSD2
 70
     0
  9
$DIMTOLJ
 70
     1
  9
$DIMTZIN
 70
     0
  9
$DIMALTZ
 70
     0
  9
$DIMALTTZ
 70
     0
  9
$DIMUPT
 70
     0
  9
$DIMDEC
 70
     4
  9
$DIMTDEC
 70
     4
  9
$DIMALTU
 70
     2
  9
$DIMALTTD
 70
     2
  9
$DIMTXSTY
  7
STANDARD
  9
$DIMAUNIT
 70
     0
  9
$DIMADEC
 70
     0
  9
$DIMALTRND
 40
0.0
  9
$DIMAZIN
 70
     0
  9
$DIMDSEP
 70
    46
  9
$DIMATFIT
 70
     3
  9
$DIMFRAC
 70
     0
  9
$DIMLDRBLK
  1

  9
$DIMLUNIT
 70
     2
  9
$DIMLWD
 70
    -2
  9
$DIMLWE
 70
    -2
  9
$DIMTMOVE
 70
     0
  9
$LUNITS
 70
     2
  9
$LUPREC
 70
     4
  9
$SKETCHINC
 40
0.1
  9
$FILLETRAD
 40
0.0
  9
$AUNITS
 70
     0
  9
$AUPREC
 70
     0
  9
$MENU
  1
.
  9
$ELEVATION
 40
0.0
  9
$PELEVATION
 40
0.0
  9
$THICKNESS
 40
0.0
  9
$LIMCHECK
 70
     0
  9
$CHAMFERA
 40
0.0
  9
$CHAMFERB
 40
0.0
  9
$CHAMFERC
 40
0.0
  9
$CHAMFERD
 40
0.0
  9
$SKPOLY
 70
     0
  9
$TDCREATE
 40
2457254.375739688
  9
$TDUCREATE
 40
2457254.000739688
  9
$TDUPDATE
 40
2457254.379256551
  9
$TDUUPDATE
 40
2457254.004256551
  9
$TDINDWG
 40
0.0035172222
  9
$TDUSRTIMER
 40
0.0035172222
  9
$USRTIMER
 70
     1
  9
$ANGBASE
 50
0.0
  9
$ANGDIR
 70
     0
  9
$PDMODE
 70
     0
  9
$PDSIZE
 40
0.0
  9
$PLINEWID
 40
0.0
  9
$SPLFRAME
 70
     0
  9
$SPLINETYPE
 70
     6
  9
$SPLINESEGS
 70
     8
  9
$HANDSEED
  5
20C
  9
$SURFTAB1
 70
     6
  9
$SURFTAB2
 70
     6
  9
$SURFTYPE
 70
     6
  9
$SURFU
 70
     6
  9
$SURFV
 70
     6
  9
$UCSBASE
  2

  9
$UCSNAME
  2

  9
$UCSORG
 10
0.0
 20
0.0
 30
0.0
  9
$UCSXDIR
 10
1.0
 20
0.0
 30
0.0
  9
$UCSYDIR
 10
0.0
 20
1.0
 30
0.0
  9
$UCSORTHOREF
  2

  9
$UCSORTHOVIEW
 70
     0
  9
$UCSORGTOP
 10
0.0
 20
0.0
 30
0.0
  9
$UCSORGBOTTOM
 10
0.0
 20
0.0
 30
0.0
  9
$UCSORGLEFT
 10
0.0
 20
0.0
 30
0.0
  9
$UCSORGRIGHT
 10
0.0
 20
0.0
 30
0.0
  9
$UCSORGFRONT
 10
0.0
 20
0.0
 30
0.0
  9
$UCSORGBACK
 10
0.0
 20
0.0
 30
0.0
  9
$PUCSBASE
  2

  9
$PUCSNAME
  2

  9
$PUCSORG
 10
0.0
 20
0.0
 30
0.0
  9
$PUCSXDIR
 10
1.0
 20
0.0
 30
0.0
  9
$PUCSYDIR
 10
0.0
 20
1.0
 30
0.0
  9
$PUCSORTHOREF
  2

  9
$PUCSORTHOVIEW
 70
     0
  9
$PUCSORGTOP
 10
0.0
 20
0.0
 30
0.0
  9
$PUCSORGBOTTOM
 10
0.0
 20
0.0
 30
0.0
  9
$PUCSORGLEFT
 10
0.0
 20
0.0
 30
0.0
  9
$PUCSORGRIGHT
 10
0.0
 20
0.0
 30
0.0
  9
$PUCSORGFRONT
 10
0.0
 20
0.0
 30
0.0
  9
$PUCSORGBACK
 10
0.0
 20
0.0
 30
0.0
  9
$USERI1
 70
     0
  9
$USERI2
 70
     0
  9
$USERI3
 70
     0
  9
$USERI4
 70
     0
  9
$USERI5
 70
     0
  9
$USERR1
 40
0.0
  9
$USERR2
 40
0.0
  9
$USERR3
 40
0.0
  9
$USERR4
 40
0.0
  9
$USERR5
 40
0.0
  9
$WORLDVIEW
 70
     1
  9
$SHADEDGE
 70
     3
  9
$SHADEDIF
 70
    70
  9
$TILEMODE
 70
     1
  9
$MAXACTVP
 70
    64
  9
$PINSBASE
 10
0.0
 20
0.0
 30
0.0
  9
$PLIMCHECK
 70
     0
  9
$PEXTMIN
 10
1.000000000000000E+20
 20
1.000000000000000E+20
 30
1.000000000000000E+20
  9
$PEXTMAX
 10
-1.000000000000000E+20
 20
-1.000000000000000E+20
 30
-1.000000000000000E+20
  9
$PLIMMIN
 10
0.0
 20
0.0
  9
$PLIMMAX
 10
12.0
 20
9.0
  9
$UNITMODE
 70
     0
  9
$VISRETAIN
 70
     1
  9
$PLINEGEN
 70
     0
  9
$PSLTSCALE
 70
     1
  9
$TREEDEPTH
 70
  3020
  9
$CMLSTYLE
  2
Standard
  9
$CMLJUST
 70
     0
  9
$CMLSCALE
 40
1.0
  9
$PROXYGRAPHICS
 70
     1
  9
$MEASUREMENT
 70
     0
  9
$CELWEIGHT
370
    -1
  9
$ENDCAPS
280
     0
  9
$JOINSTYLE
280
     0
  9
$LWDISPLAY
290
     0
  9
$INSUNITS
 70
     0
  9
$HYPERLINKBASE
  1

  9
$STYLESHEET
  1

  9
$XEDIT
290
     1
  9
$CEPSNTYPE
380
     0
  9
$PSTYLEMODE
290
     1
  9
$FINGERPRINTGUID
  2
{6A928BF0-6A5E-4520-9FB9-6E9D5DCB6B6C}
  9
$VERSIONGUID
  2
{A1C53EFB-B248-4CB5-93E6-1EC7DD120E8E}
  9
$EXTNAMES
290
     1
  9
$PSVPSCALE
 40
0.0
  9
$OLESTARTUP
290
     0
  0
ENDSEC
  0
SECTION
  2
CLASSES
  0
CLASS
  1
ACDBDICTIONARYWDFLT
  2
AcDbDictionaryWithDefault
  3
ObjectDBX Classes
 90
        0
280
     0
281
     0
  0
CLASS
  1
DICTIONARYVAR
  2
AcDbDictionaryVar
  3
ObjectDBX Classes
 90
        0
280
     0
281
     0
  0
CLASS
  1
ACDBPLACEHOLDER
  2
AcDbPlaceHolder
  3
ObjectDBX Classes
 90
        0
280
     0
281
     0
  0
CLASS
  1
LAYOUT
  2
AcDbLayout
  3
ObjectDBX Classes
 90
        0
280
     0
281
     0
  0
ENDSEC
  0
SECTION
  2
TABLES
  0
TABLE
  2
VPORT
  5
8
330
0
100
AcDbSymbolTable
 70
     2
  0
VPORT
  5
204
330
8
100
AcDbSymbolTableRecord
100
AcDbViewportTableRecord
  2
*Active
 70
     0
 10
0.0
 20
0.0
 11
1.0
 21
1.0
 12
713.2919943335391
 22
1431.303697946764
 13
0.0
 23
0.0
 14
1.0
 24
1.0
 15
0.0
 25
0.0
 16
0.0
 26
0.0
 36
1.0
 17
0.0
 27
0.0
 37
0.0
 40
1213.775843813806
 41
1.609333333333333
 42
50.0
 43
0.0
 44
0.0
 50
0.0
 51
0.0
 71
     0
 72
   100
 73
     1
 74
     1
 75
     0
 76
     0
 77
     0
 78
     0
281
     0
 65
     1
110
0.0
120
0.0
130
0.0
111
1.0
121
0.0
131
0.0
112
0.0
122
1.0
132
0.0
 79
     0
146
0.0
  0
ENDTAB
  0
TABLE
  2
LTYPE
  5
5
330
0
100
AcDbSymbolTable
 70
    35
  0
LTYPE
  5
13
330
5
100
AcDbSymbolTableRecord
100
AcDbLinetypeTableRecord
  2
ByBlock
 70
     0
  3

 72
    65
 73
     0
 40
0.0
  0
LTYPE
  5
14
330
5
100
AcDbSymbolTableRecord
100
AcDbLinetypeTableRecord
  2
ByLayer
 70
     0
  3

 72
    65
 73
     0
 40
0.0
  0
LTYPE
  5
15
330
5
100
AcDbSymbolTableRecord
100
AcDbLinetypeTableRecord
  2
CONTINUOUS
 70
     0
  3
実線
 72
    65
 73
     0
 40
0.0
  0
LTYPE
  5
24
330
5
100
AcDbSymbolTableRecord
100
AcDbLinetypeTableRecord
  2
DASHED1
 70
     0
  3
--  --  --  --  --  --  --  --  
 72
    65
 73
     2
 40
2.5
 49
1.25
 74
     0
 49
-1.25
 74
     0
  0
LTYPE
  5
25
330
5
100
AcDbSymbolTableRecord
100
AcDbLinetypeTableRecord
  2
DASHED2
 70
     0
  3
----    ----    ----    ----    
 72
    65
 73
     2
 40
5.0
 49
2.5
 74
     0
 49
-2.5
 74
     0
  0
LTYPE
  5
26
330
5
100
AcDbSymbolTableRecord
100
AcDbLinetypeTableRecord
  2
DASHED3
 70
     0
  3
------  ------  ------  ------  
 72
    65
 73
     2
 40
5.0
 49
3.75
 74
     0
 49
-1.25
 74
     0
  0
LTYPE
  5
27
330
5
100
AcDbSymbolTableRecord
100
AcDbLinetypeTableRecord
  2
CENTER1
 70
     0
  3
----- - ----- - ----- - ----- - 
 72
    65
 73
     4
 40
10.0
 49
6.25
 74
     0
 49
-1.25
 74
     0
 49
1.25
 74
     0
 49
-1.25
 74
     0
  0
LTYPE
  5
28
330
5
100
AcDbSymbolTableRecord
100
AcDbLinetypeTableRecord
  2
CENTER2
 70
     0
  3
----------  --  ----------  --  
 72
    65
 73
     4
 40
20.0
 49
12.5
 74
     0
 49
-2.5
 74
     0
 49
2.5
 74
     0
 49
-2.5
 74
     0
  0
LTYPE
  5
29
330
5
100
AcDbSymbolTableRecord
100
AcDbLinetypeTableRecord
  2
PHANTOM1
 70
     0
  3
--- - - --- - - --- - - --- - - 
 72
    65
 73
     6
 40
10.0
 49
3.25
 74
     0
 49
-1.25
 74
     0
 49
1.25
 74
     0
 49
-1.25
 74
     0
 49
1.25
 74
     0
 49
-1.25
 74
     0
  0
LTYPE
  5
2A
330
5
100
AcDbSymbolTableRecord
100
AcDbLinetypeTableRecord
  2
PHANTOM2
 70
     0
  3
--------  -  -  --------  -  -  
 72
    65
 73
     6
 40
20.0
 49
10.0
 74
     0
 49
-2.5
 74
     0
 49
1.25
 74
     0
 49
-2.5
 74
     0
 49
1.25
 74
     0
 49
-2.5
 74
     0
  0
LTYPE
  5
2B
330
5
100
AcDbSymbolTableRecord
100
AcDbLinetypeTableRecord
  2
DOT
 70
     0
  3
-   -   -   -   -   -   -   -   
 72
    65
 73
     2
 40
2.5
 49
0.625
 74
     0
 49
-1.875
 74
     0
  0
LTYPE
  5
2C
330
5
100
AcDbSymbolTableRecord
100
AcDbLinetypeTableRecord
  2
DUMMY
 70
     0
  3
ダミー
 72
    65
 73
     0
 40
0.0
  0
LTYPE
  5
2D
330
5
100
AcDbSymbolTableRecord
100
AcDbLinetypeTableRecord
  2
RAND1
 70
     0
  3
ランダム線1
 72
    65
 73
     4
 40
10.0
 49
1.0
 74
     0
 49
-2.0
 74
     0
 49
3.0
 74
     0
 49
-4.0
 74
     0
  0
LTYPE
  5
2E
330
5
100
AcDbSymbolTableRecord
100
AcDbLinetypeTableRecord
  2
RAND2
 70
     0
  3
ランダム線2
 72
    65
 73
     4
 40
14.0
 49
2.0
 74
     0
 49
-3.0
 74
     0
 49
4.0
 74
     0
 49
-5.0
 74
     0
  0
LTYPE
  5
2F
330
5
100
AcDbSymbolTableRecord
100
AcDbLinetypeTableRecord
  2
RAND3
 70
     0
  3
ランダム線3
 72
    65
 73
     4
 40
18.0
 49
3.0
 74
     0
 49
-4.0
 74
     0
 49
5.0
 74
     0
 49
-6.0
 74
     0
  0
LTYPE
  5
30
330
5
100
AcDbSymbolTableRecord
100
AcDbLinetypeTableRecord
  2
RAND4
 70
     0
  3
ランダム線4
 72
    65
 73
     4
 40
22.0
 49
4.0
 74
     0
 49
-5.0
 74
     0
 49
6.0
 74
     0
 49
-7.0
 74
     0
  0
LTYPE
  5
31
330
5
100
AcDbSymbolTableRecord
100
AcDbLinetypeTableRecord
  2
RAND5
 70
     0
  3
ランダム線5
 72
    65
 73
     4
 40
26.0
 49
5.0
 74
     0
 49
-6.0
 74
     0
 49
7.0
 74
     0
 49
-8.0
 74
     0
  0
LTYPE
  5
32
330
5
100
AcDbSymbolTableRecord
100
AcDbLinetypeTableRecord
  2
LONG1
 70
     0
  3
----------  --  ----------  --  
 72
    65
 73
     4
 40
40.0
 49
32.5
 74
     0
 49
-2.5
 74
     0
 49
2.5
 74
     0
 49
-2.5
 74
     0
  0
LTYPE
  5
33
330
5
100
AcDbSymbolTableRecord
100
AcDbLinetypeTableRecord
  2
LONG2
 70
     0
  3
--------  -  -  --------  -  -  
 72
    65
 73
     6
 40
40.0
 49
30.0
 74
     0
 49
-2.5
 74
     0
 49
1.25
 74
     0
 49
-2.5
 74
     0
 49
1.25
 74
     0
 49
-2.5
 74
     0
  0
LTYPE
  5
34
330
5
100
AcDbSymbolTableRecord
100
AcDbLinetypeTableRecord
  2
LONG3
 70
     0
  3
+++++++++++++++..+++++++++++++++
 72
    65
 73
     2
 40
40.0
 49
37.5
 74
     0
 49
-2.5
 74
     0
  0
LTYPE
  5
35
330
5
100
AcDbSymbolTableRecord
100
AcDbLinetypeTableRecord
  2
LONG4
 70
     0
  3
+++++++++++++++..+++++++++++++++
 72
    65
 73
     2
 40
80.0
 49
75.0
 74
     0
 49
-5.0
 74
     0
  0
LTYPE
  5
36
330
5
100
AcDbSymbolTableRecord
100
AcDbLinetypeTableRecord
  2
LONG5
 70
     0
  3
----------  --  ----------  --  
 72
    65
 73
     4
 40
60.0
 49
37.5
 74
     0
 49
-7.5
 74
     0
 49
7.5
 74
     0
 49
-7.5
 74
     0
  0
LTYPE
  5
37
330
5
100
AcDbSymbolTableRecord
100
AcDbLinetypeTableRecord
  2
DASHED
 70
     0
  3
-------   -------------   ------
 72
    65
 73
     2
 40
7.5
 49
6.0
 74
     0
 49
-1.5
 74
     0
  0
LTYPE
  5
38
330
5
100
AcDbSymbolTableRecord
100
AcDbLinetypeTableRecord
  2
DASHED_SPACED
 70
     0
  3
----        --------        ----
 72
    65
 73
     2
 40
12.0
 49
6.0
 74
     0
 49
-6.0
 74
     0
  0
LTYPE
  5
39
330
5
100
AcDbSymbolTableRecord
100
AcDbLinetypeTableRecord
  2
LONG_DASHED_DOTTED
 70
     0
  3
------------- --- --------------
 72
    65
 73
     4
 40
15.25
 49
12.0
 74
     0
 49
-1.5
 74
     0
 49
0.25
 74
     0
 49
-1.5
 74
     0
  0
LTYPE
  5
3A
330
5
100
AcDbSymbolTableRecord
100
AcDbLinetypeTableRecord
  2
LONG_DASHED_DOUBLE-DOTTED
 70
     0
  3
----------- --- --- ------------
 72
    65
 73
     6
 40
17.0
 49
12.0
 74
     0
 49
-1.5
 74
     0
 49
0.25
 74
     0
 49
-1.5
 74
     0
 49
0.25
 74
     0
 49
-1.5
 74
     0
  0
LTYPE
  5
3B
330
5
100
AcDbSymbolTableRecord
100
AcDbLinetypeTableRecord
  2
LONG_DASHED_TRIPLICATE-DOTTED
 70
     0
  3
--------- --- --- --- ----------
 72
    65
 73
     8
 40
18.75
 49
12.0
 74
     0
 49
-1.5
 74
     0
 49
0.25
 74
     0
 49
-1.5
 74
     0
 49
0.25
 74
     0
 49
-1.5
 74
     0
 49
0.25
 74
     0
 49
-1.5
 74
     0
  0
LTYPE
  5
3C
330
5
100
AcDbSymbolTableRecord
100
AcDbLinetypeTableRecord
  2
DOTTED
 70
     0
  3
   -       -       -       -    
 72
    65
 73
     2
 40
1.75
 49
0.25
 74
     0
 49
-1.5
 74
     0
  0
LTYPE
  5
3D
330
5
100
AcDbSymbolTableRecord
100
AcDbLinetypeTableRecord
  2
CHAIN
 70
     0
  3
-------------- -- --------------
 72
    65
 73
     4
 40
18.5
 49
12.0
 74
     0
 49
-1.5
 74
     0
 49
3.5
 74
     0
 49
-1.5
 74
     0
  0
LTYPE
  5
3E
330
5
100
AcDbSymbolTableRecord
100
AcDbLinetypeTableRecord
  2
CHAIN_DOUBLE_DASH
 70
     0
  3
------------ -- -- -------------
 72
    65
 73
     6
 40
23.5
 49
12.0
 74
     0
 49
-1.5
 74
     0
 49
3.5
 74
     0
 49
-1.5
 74
     0
 49
3.5
 74
     0
 49
-1.5
 74
     0
  0
LTYPE
  5
3F
330
5
100
AcDbSymbolTableRecord
100
AcDbLinetypeTableRecord
  2
DASHED_DOTTED
 70
     0
  3
-----------     -     ----------
 72
    65
 73
     4
 40
9.25
 49
6.0
 74
     0
 49
-1.5
 74
     0
 49
0.25
 74
     0
 49
-1.5
 74
     0
  0
LTYPE
  5
40
330
5
100
AcDbSymbolTableRecord
100
AcDbLinetypeTableRecord
  2
DOUBLE-DASHED_DOTTED
 70
     0
  3
------   -----------   -   -----
 72
    65
 73
     6
 40
16.75
 49
6.0
 74
     0
 49
-1.5
 74
     0
 49
6.0
 74
     0
 49
-1.5
 74
     0
 49
0.25
 74
     0
 49
-1.5
 74
     0
  0
LTYPE
  5
41
330
5
100
AcDbSymbolTableRecord
100
AcDbLinetypeTableRecord
  2
DASHED_DOUBLE-DOTTED
 70
     0
  3
---------    -    -    ---------
 72
    65
 73
     6
 40
11.0
 49
6.0
 74
     0
 49
-1.5
 74
     0
 49
0.25
 74
     0
 49
-1.5
 74
     0
 49
0.25
 74
     0
 49
-1.5
 74
     0
  0
LTYPE
  5
42
330
5
100
AcDbSymbolTableRecord
100
AcDbLinetypeTableRecord
  2
DOUBLE-DASHED_DOUBLE-DOTTED
 70
     0
  3
-----   ---------   -   -   ----
 72
    65
 73
     8
 40
18.5
 49
6.0
 74
     0
 49
-1.5
 74
     0
 49
6.0
 74
     0
 49
-1.5
 74
     0
 49
0.25
 74
     0
 49
-1.5
 74
     0
 49
0.25
 74
     0
 49
-1.5
 74
     0
  0
LTYPE
  5
43
330
5
100
AcDbSymbolTableRecord
100
AcDbLinetypeTableRecord
  2
DASHED_TRIPLICATE-DOTTED
 70
     0
  3
-------    -    -    -    ------
 72
    65
 73
     8
 40
12.75
 49
6.0
 74
     0
 49
-1.5
 74
     0
 49
0.25
 74
     0
 49
-1.5
 74
     0
 49
0.25
 74
     0
 49
-1.5
 74
     0
 49
0.25
 74
     0
 49
-1.5
 74
     0
  0
LTYPE
  5
44
330
5
100
AcDbSymbolTableRecord
100
AcDbLinetypeTableRecord
  2
DOUBLE-DASHED_TRIPLICATE-DOTTED
 70
     0
  3
-----  ---------  -  -  -  -----
 72
    65
 73
    10
 40
20.25
 49
6.0
 74
     0
 49
-1.5
 74
     0
 49
6.0
 74
     0
 49
-1.5
 74
     0
 49
0.25
 74
     0
 49
-1.5
 74
     0
 49
0.25
 74
     0
 49
-1.5
 74
     0
 49
0.25
 74
     0
 49
-1.5
 74
     0
  0
LTYPE
  5
45
330
5
100
AcDbSymbolTableRecord
100
AcDbLinetypeTableRecord
  2
UNDEFINED
 70
     0
  3
--------------------------------
 72
    65
 73
     0
 40
0.0
  0
ENDTAB
  0
TABLE
  2
LAYER
  5
2
330
0
100
AcDbSymbolTable
 70
     3
  0
LAYER
  5
10
330
2
100
AcDbSymbolTableRecord
100
AcDbLayerTableRecord
  2
0
 70
     0
 62
     7
  6
CONTINUOUS
370
    -3
390
F
  0
LAYER
  5
47
330
2
100
AcDbSymbolTableRecord
100
AcDbLayerTableRecord
  2
_0-0_
 70
     0
 62
     7
  6
CONTINUOUS
370
    -3
390
F
  0
LAYER
  5
48
330
2
100
AcDbSymbolTableRecord
100
AcDbLayerTableRecord
  2
ADD_LINE
 70
     0
 62
     7
  6
CONTINUOUS
370
    -3
390
F
  0
ENDTAB
  0
TABLE
  2
STYLE
  5
3
330
0
100
AcDbSymbolTable
 70
     2
  0
STYLE
  5
11
330
3
100
AcDbSymbolTableRecord
100
AcDbTextStyleTableRecord
  2
STANDARD
 70
     0
 40
0.0
 41
1.0
 50
0.0
 71
     0
 42
0.2
  3
txt
  4
bigfont.shx
  0
STYLE
  5
46
330
3
100
AcDbSymbolTableRecord
100
AcDbTextStyleTableRecord
  2
TATEGAKI
 70
     4
 40
0.0
 41
1.0
 50
0.0
 71
     0
 42
1.0
  3
txt
  4
bigfont.shx
  0
ENDTAB
  0
TABLE
  2
VIEW
  5
6
330
0
100
AcDbSymbolTable
 70
     0
  0
ENDTAB
  0
TABLE
  2
UCS
  5
7
330
0
100
AcDbSymbolTable
 70
     0
  0
ENDTAB
  0
TABLE
  2
APPID
  5
9
330
0
100
AcDbSymbolTable
 70
     1
  0
APPID
  5
12
330
9
100
AcDbSymbolTableRecord
100
AcDbRegAppTableRecord
  2
ACAD
 70
     0
  0
ENDTAB
  0
TABLE
  2
DIMSTYLE
  5
A
330
0
100
AcDbSymbolTable
 70
     1
100
AcDbDimStyleTable
 71
     0
  0
DIMSTYLE
105
1FF
330
A
100
AcDbSymbolTableRecord
100
AcDbDimStyleTableRecord
  2
Standard
 70
     0
340
11
  0
ENDTAB
  0
TABLE
  2
BLOCK_RECORD
  5
1
330
0
100
AcDbSymbolTable
 70
     0
  0
BLOCK_RECORD
  5
20
330
1
100
AcDbSymbolTableRecord
100
AcDbBlockTableRecord
  2
*Model_Space
340
23
  0
BLOCK_RECORD
  5
1C
330
1
100
AcDbSymbolTableRecord
100
AcDbBlockTableRecord
  2
*Paper_Space
340
1F
  0
ENDTAB
  0
ENDSEC
  0
SECTION
  2
BLOCKS
  0
BLOCK
  5
21
330
20
100
AcDbEntity
  8
0
100
AcDbBlockBegin
  2
*Model_Space
 70
     0
 10
0.0
 20
0.0
 30
0.0
  3
*Model_Space
  1

  0
ENDBLK
  5
22
330
20
100
AcDbEntity
  8
0
100
AcDbBlockEnd
  0
BLOCK
  5
1D
330
1C
100
AcDbEntity
 67
     1
  8
0
100
AcDbBlockBegin
  2
*Paper_Space
 70
     0
 10
0.0
 20
0.0
 30
0.0
  3
*Paper_Space
  1

  0
ENDBLK
  5
1E
330
1C
100
AcDbEntity
 67
     1
  8
0
100
AcDbBlockEnd
  0
ENDSEC
  0
SECTION
  2
ENTITIES
  0
LINE
  5
4C
330
20
100
AcDbEntity
  8
_0-0_
  6
Continuous
 62
     7
100
AcDbLine
 10
146.1144578313252
 20
1986.32530120482
 30
0.0
 11
2829.849397590361
 21
1986.32530120482
 31
0.0
  0
LINE
  5
4D
330
20
100
AcDbEntity
  8
_0-0_
  6
Continuous
 62
     7
100
AcDbLine
 10
2829.849397590361
 20
1986.32530120482
 30
0.0
 11
2829.849397590361
 21
107.7108433734941
 31
0.0
  0
LINE
  5
4E
330
20
100
AcDbEntity
  8
_0-0_
  6
Continuous
 62
     7
100
AcDbLine
 10
2829.849397590361
 20
107.7108433734941
 30
0.0
 11
146.1144578313252
 21
107.7108433734941
 31
0.0
  0
LINE
  5
4F
330
20
100
AcDbEntity
  8
_0-0_
  6
Continuous
 62
     7
100
AcDbLine
 10
146.1144578313252
 20
107.7108433734941
 30
0.0
 11
146.1144578313252
 21
1986.32530120482
 31
0.0
  0
LINE
  5
50
330
20
100
AcDbEntity
  8
_0-0_
  6
Continuous
 62
     7
100
AcDbLine
 10
2279.849397590361
 20
407.710843373494
 30
0.0
 11
2279.849397590361
 21
107.7108433734941
 31
0.0
  0
LINE
  5
51
330
20
100
AcDbEntity
  8
_0-0_
  6
Continuous
 62
     7
100
AcDbLine
 10
2429.849397590361
 20
407.710843373494
 30
0.0
 11
2429.849397590361
 21
157.7108433734941
 31
0.0
  0
LINE
  5
52
330
20
100
AcDbEntity
  8
_0-0_
  6
Continuous
 62
     7
100
AcDbLine
 10
1829.849397590361
 20
407.710843373494
 30
0.0
 11
1829.849397590361
 21
107.7108433734941
 31
0.0
  0
LINE
  5
53
330
20
100
AcDbEntity
  8
_0-0_
  6
Continuous
 62
     7
100
AcDbLine
 10
1679.849397590362
 20
407.710843373494
 30
0.0
 11
1679.849397590362
 21
107.7108433734941
 31
0.0
  0
LINE
  5
54
330
20
100
AcDbEntity
  8
_0-0_
  6
Continuous
 62
     7
100
AcDbLine
 10
2829.849397590361
 20
157.7108433734941
 30
0.0
 11
1679.849397590362
 21
157.7108433734941
 31
0.0
  0
LINE
  5
55
330
20
100
AcDbEntity
  8
_0-0_
  6
Continuous
 62
     7
100
AcDbLine
 10
2829.849397590361
 20
207.7108433734941
 30
0.0
 11
1679.849397590362
 21
207.7108433734941
 31
0.0
  0
LINE
  5
56
330
20
100
AcDbEntity
  8
_0-0_
  6
Continuous
 62
     7
100
AcDbLine
 10
2829.849397590361
 20
257.7108433734941
 30
0.0
 11
1679.849397590362
 21
257.7108433734941
 31
0.0
  0
LINE
  5
57
330
20
100
AcDbEntity
  8
_0-0_
  6
Continuous
 62
     7
100
AcDbLine
 10
2829.849397590361
 20
307.7108433734941
 30
0.0
 11
1679.849397590362
 21
307.7108433734941
 31
0.0
  0
LINE
  5
58
330
20
100
AcDbEntity
  8
_0-0_
  6
Continuous
 62
     7
100
AcDbLine
 10
2829.849397590361
 20
357.710843373494
 30
0.0
 11
1679.849397590362
 21
357.710843373494
 31
0.0
  0
LINE
  5
59
330
20
100
AcDbEntity
  8
_0-0_
  6
Continuous
 62
     7
100
AcDbLine
 10
2829.849397590361
 20
407.710843373494
 30
0.0
 11
1679.849397590362
 21
407.710843373494
 31
0.0
  0
LINE
  5
5A
330
20
100
AcDbEntity
  8
_0-0_
  6
Continuous
 62
     7
100
AcDbLine
 10
1979.849397590361
 20
157.7108433734941
 30
0.0
 11
1979.849397590361
 21
107.7108433734941
 31
0.0
  0
LINE
  5
5B
330
20
100
AcDbEntity
  8
_0-0_
  6
Continuous
 62
     7
100
AcDbLine
 10
2129.849397590361
 20
157.7108433734941
 30
0.0
 11
2129.849397590361
 21
107.7108433734941
 31
0.0
  0
TEXT
  5
5C
330
20
100
AcDbEntity
  8
_0-0_
 62
     7
100
AcDbText
 10
1689.21301403372
 20
366.8586878039457
 30
0.0
 40
30.0
  1
製 品 名
100
AcDbText
  0
TEXT
  5
5D
330
20
100
AcDbEntity
  8
_0-0_
 62
     7
100
AcDbText
 10
1690.037785792858
 20
267.7110248221802
 30
0.0
 40
30.0
  1
呼 び 名
100
AcDbText
  0
TEXT
  5
5E
330
20
100
AcDbEntity
  8
_0-0_
 62
     7
100
AcDbText
 10
1688.391138964581
 20
117.8661634489766
 30
0.0
 40
30.0
  1
検　　図
100
AcDbText
  0
TEXT
  5
5F
330
20
100
AcDbEntity
  8
_0-0_
 62
     7
100
AcDbText
 10
1988.276636072661
 20
117.8661634489766
 30
0.0
 40
30.0
  1
製　　図
100
AcDbText
  0
TEXT
  5
60
330
20
100
AcDbEntity
  8
_0-0_
 62
     7
100
AcDbText
 10
2178.531717230367
 20
117.8661634489766
 30
0.0
 40
30.0
  1
H.O
100
AcDbText
  0
TEXT
  5
61
330
20
100
AcDbEntity
  8
_0-0_
 62
     7
100
AcDbText
 10
2289.781776367871
 20
367.6780880598892
 30
0.0
 40
30.0
  1
縮　　尺
100
AcDbText
  0
TEXT
  5
62
330
20
100
AcDbEntity
  8
_0-0_
 62
     7
100
AcDbText
 10
2593.082467796783
 20
367.5757778928272
 30
0.0
 40
30.0
  1
1/10
100
AcDbText
  0
TEXT
  5
63
330
20
100
AcDbEntity
  8
_0-0_
 62
     7
100
AcDbText
 10
2289.978868991523
 20
315.5835389751778
 30
0.0
 40
30.0
  1
参考重量
100
AcDbText
  0
TEXT
  5
64
330
20
100
AcDbEntity
  8
_0-0_
 62
     7
100
AcDbText
 10
2290.474927749718
 20
268.7377621253314
 30
0.0
 40
30.0
  1
設計Ｎｏ
100
AcDbText
  0
TEXT
  5
65
330
20
100
AcDbEntity
  8
_0-0_
 62
     7
100
AcDbText
 10
2290.474927749718
 20
217.6146505214544
 30
0.0
 40
30.0
  1
図面Ｎｏ
100
AcDbText
  0
TEXT
  5
66
330
20
100
AcDbEntity
  8
_0-0_
 62
     7
100
AcDbText
 10
2288.430003285563
 20
167.8548218936807
 30
0.0
 40
30.0
  1
製 図 日
100
AcDbText
  0
TEXT
  5
67
330
20
100
AcDbEntity
  8
_0-0_
 62
     7
100
AcDbText
 10
2438.35646400819
 20
167.8548218936807
 30
0.0
 40
30.0
  1
平成　　年　　月　　日
100
AcDbText
  0
TEXT
  5
68
330
20
100
AcDbEntity
  8
_0-0_
 62
     7
100
AcDbText
 10
2292.091971521982
 20
118.345187980839
 30
0.0
 40
30.0
  1
株式会社　丸治コンクリート工業所
 41
0.9399999999999998
100
AcDbText
  0
TEXT
  5
69
330
20
100
AcDbEntity
  8
_0-0_
 62
     7
100
AcDbText
 10
1689.214462378719
 20
317.1104296704891
 30
0.0
 40
30.0
  1
型　　式
100
AcDbText
  0
TEXT
  5
6A
330
20
100
AcDbEntity
  8
_0-0_
 62
     7
100
AcDbText
 10
1690.037785792858
 20
217.4882965597328
 30
0.0
 40
30.0
  1
寸　　法
100
AcDbText
  0
TEXT
  5
6B
330
20
100
AcDbEntity
  8
_0-0_
 62
     7
100
AcDbText
 10
1689.214462378719
 20
166.442244883147
 30
0.0
 40
30.0
  1
特記事項
100
AcDbText
  0
TEXT
  5
6C
330
20
100
AcDbEntity
  8
_0-0_
 62
     7
100
AcDbText
 10
1899.979024502511
 20
217.3266713032768
 30
0.0
 40
30.0
  1
500×500×550
100
AcDbText
  0
TEXT
  5
6D
330
20
100
AcDbEntity
  8
_0-0_
 62
     7
100
AcDbText
 10
2447.688520447719
 20
218.0441159294104
 30
0.0
 40
30.0
  1
FKHH-05055-BS
100
AcDbText
  0
TEXT
  5
6E
330
20
100
AcDbEntity
  8
_0-0_
 62
     7
100
AcDbText
 10
2584.247369343159
 20
318.9357519802928
 30
0.0
 40
30.0
  1
270kg
100
AcDbText
  0
LINE
  5
6F
330
20
100
AcDbEntity
  8
_0-0_
  6
Continuous
 62
     4
100
AcDbLine
 10
1967.453917050691
 20
1737.442396313364
 30
0.0
 11
2567.453917050691
 21
1737.442396313364
 31
0.0
  0
LINE
  5
70
330
20
100
AcDbEntity
  8
_0-0_
  6
Continuous
 62
     4
100
AcDbLine
 10
2567.453917050691
 20
1747.442396313364
 30
0.0
 11
2567.453917050691
 21
1477.442396313364
 31
0.0
  0
LINE
  5
71
330
20
100
AcDbEntity
  8
_0-0_
  6
Continuous
 62
     4
100
AcDbLine
 10
1967.453917050691
 20
1477.442396313364
 30
0.0
 11
1967.453917050691
 21
1747.442396313364
 31
0.0
  0
LINE
  5
72
330
20
100
AcDbEntity
  8
_0-0_
  6
Continuous
 62
     4
100
AcDbLine
 10
1697.453917050691
 20
1467.442396313364
 30
0.0
 11
1697.453917050691
 21
867.4423963133639
 31
0.0
  0
LINE
  5
73
330
20
100
AcDbEntity
  8
_0-0_
  6
Continuous
 62
     4
100
AcDbLine
 10
1957.453917050691
 20
1467.442396313364
 30
0.0
 11
1687.453917050691
 21
1467.442396313364
 31
0.0
  0
LINE
  5
74
330
20
100
AcDbEntity
  8
_0-0_
  6
Continuous
 62
     4
100
AcDbLine
 10
1957.453917050691
 20
867.4423963133639
 30
0.0
 11
1687.453917050691
 21
867.4423963133639
 31
0.0
  0
LINE
  5
75
330
20
100
AcDbEntity
  8
_0-0_
  6
Continuous
 62
     7
100
AcDbLine
 10
1977.453917050691
 20
1467.442396313364
 30
0.0
 11
1967.453917050691
 21
1457.442396313364
 31
0.0
  0
LINE
  5
76
330
20
100
AcDbEntity
  8
_0-0_
  6
Continuous
 62
     7
100
AcDbLine
 10
1977.453917050691
 20
1467.442396313364
 30
0.0
 11
2557.453917050692
 21
1467.442396313364
 31
0.0
  0
LINE
  5
77
330
20
100
AcDbEntity
  8
_0-0_
  6
Continuous
 62
     7
100
AcDbLine
 10
2557.453917050692
 20
1467.442396313364
 30
0.0
 11
2567.453917050691
 21
1457.442396313364
 31
0.0
  0
LINE
  5
78
330
20
100
AcDbEntity
  8
_0-0_
  6
Continuous
 62
     7
100
AcDbLine
 10
2567.453917050691
 20
1457.442396313364
 30
0.0
 11
2567.453917050691
 21
877.4423963133639
 31
0.0
  0
LINE
  5
79
330
20
100
AcDbEntity
  8
_0-0_
  6
Continuous
 62
     7
100
AcDbLine
 10
2567.453917050691
 20
877.4423963133639
 30
0.0
 11
2557.453917050692
 21
867.4423963133639
 31
0.0
  0
LINE
  5
7A
330
20
100
AcDbEntity
  8
_0-0_
  6
Continuous
 62
     7
100
AcDbLine
 10
1967.453917050691
 20
1457.442396313364
 30
0.0
 11
1967.453917050691
 21
877.4423963133639
 31
0.0
  0
LINE
  5
7B
330
20
100
AcDbEntity
  8
_0-0_
  6
Continuous
 62
     7
100
AcDbLine
 10
1967.453917050691
 20
877.4423963133639
 30
0.0
 11
1977.453917050691
 21
867.4423963133639
 31
0.0
  0
LINE
  5
7C
330
20
100
AcDbEntity
  8
_0-0_
  6
Continuous
 62
     7
100
AcDbLine
 10
1977.453917050691
 20
867.4423963133639
 30
0.0
 11
2557.453917050692
 21
867.4423963133639
 31
0.0
  0
LINE
  5
7D
330
20
100
AcDbEntity
  8
_0-0_
  6
DASHED1
 62
   136
100
AcDbLine
 10
2047.453917050691
 20
1417.442396313364
 30
0.0
 11
2047.453917050691
 21
917.4423963133639
 31
0.0
  0
LINE
  5
7E
330
20
100
AcDbEntity
  8
_0-0_
  6
DASHED1
 62
   136
100
AcDbLine
 10
2017.453917050691
 20
1387.442396313364
 30
0.0
 11
2517.453917050691
 21
1387.442396313364
 31
0.0
  0
LINE
  5
7F
330
20
100
AcDbEntity
  8
_0-0_
  6
DASHED1
 62
   136
100
AcDbLine
 10
2487.453917050692
 20
1417.442396313364
 30
0.0
 11
2487.453917050692
 21
917.4423963133639
 31
0.0
  0
LINE
  5
80
330
20
100
AcDbEntity
  8
_0-0_
  6
DASHED1
 62
   136
100
AcDbLine
 10
2017.453917050691
 20
947.442396313364
 30
0.0
 11
2517.453917050691
 21
947.442396313364
 31
0.0
  0
LINE
  5
81
330
20
100
AcDbEntity
  8
_0-0_
  6
DASHED1
 62
   136
100
AcDbLine
 10
2047.453917050691
 20
1417.442396313364
 30
0.0
 11
2017.453917050691
 21
1387.442396313364
 31
0.0
  0
LINE
  5
82
330
20
100
AcDbEntity
  8
_0-0_
  6
DASHED1
 62
   136
100
AcDbLine
 10
2047.453917050691
 20
1417.442396313364
 30
0.0
 11
2487.453917050692
 21
1417.442396313364
 31
0.0
  0
LINE
  5
83
330
20
100
AcDbEntity
  8
_0-0_
  6
DASHED1
 62
   136
100
AcDbLine
 10
2487.453917050692
 20
1417.442396313364
 30
0.0
 11
2517.453917050691
 21
1387.442396313364
 31
0.0
  0
LINE
  5
84
330
20
100
AcDbEntity
  8
_0-0_
  6
DASHED1
 62
   136
100
AcDbLine
 10
2517.453917050691
 20
1387.442396313364
 30
0.0
 11
2517.453917050691
 21
947.442396313364
 31
0.0
  0
LINE
  5
85
330
20
100
AcDbEntity
  8
_0-0_
  6
DASHED1
 62
   136
100
AcDbLine
 10
2517.453917050691
 20
947.442396313364
 30
0.0
 11
2487.453917050692
 21
917.4423963133639
 31
0.0
  0
LINE
  5
86
330
20
100
AcDbEntity
  8
_0-0_
  6
DASHED1
 62
   136
100
AcDbLine
 10
2047.453917050691
 20
917.4423963133639
 30
0.0
 11
2487.453917050692
 21
917.4423963133639
 31
0.0
  0
LINE
  5
87
330
20
100
AcDbEntity
  8
_0-0_
  6
DASHED1
 62
   136
100
AcDbLine
 10
2017.453917050691
 20
947.442396313364
 30
0.0
 11
2047.453917050691
 21
917.4423963133639
 31
0.0
  0
LINE
  5
88
330
20
100
AcDbEntity
  8
_0-0_
  6
DASHED1
 62
   136
100
AcDbLine
 10
2017.453917050691
 20
1387.442396313364
 30
0.0
 11
2017.453917050691
 21
947.442396313364
 31
0.0
  0
CIRCLE
  5
89
330
20
100
AcDbEntity
  8
_0-0_
  6
Continuous
 62
   136
100
AcDbCircle
 10
2267.453917050691
 20
1167.442396313364
 30
0.0
 40
100.0
  0
CIRCLE
  5
8A
330
20
100
AcDbEntity
  8
_0-0_
  6
Continuous
 62
   136
100
AcDbCircle
 10
2267.453917050691
 20
1167.442396313364
 30
0.0
 40
90.0
  0
LINE
  5
8B
330
20
100
AcDbEntity
  8
_0-0_
  6
Continuous
 62
   136
100
AcDbLine
 10
2196.743238932036
 20
1238.153074432019
 30
0.0
 11
2108.354891283719
 21
1326.541422080337
 31
0.0
  0
LINE
  5
8C
330
20
100
AcDbEntity
  8
_0-0_
  6
DASHED1
 62
   136
100
AcDbLine
 10
2108.354891283719
 20
1326.541422080337
 30
0.0
 11
2047.453917050691
 21
1387.442396313364
 31
0.0
  0
LINE
  5
8D
330
20
100
AcDbEntity
  8
_0-0_
  6
Continuous
 62
   136
100
AcDbLine
 10
2338.164595169345
 20
1238.153074432019
 30
0.0
 11
2426.552942817664
 21
1326.541422080337
 31
0.0
  0
LINE
  5
8E
330
20
100
AcDbEntity
  8
_0-0_
  6
DASHED1
 62
   136
100
AcDbLine
 10
2487.453917050692
 20
1387.442396313364
 30
0.0
 11
2426.552942817664
 21
1326.541422080337
 31
0.0
  0
LINE
  5
8F
330
20
100
AcDbEntity
  8
_0-0_
  6
Continuous
 62
   136
100
AcDbLine
 10
2338.164595169345
 20
1096.731718194709
 30
0.0
 11
2426.552942817664
 21
1008.34337054639
 31
0.0
  0
LINE
  5
90
330
20
100
AcDbEntity
  8
_0-0_
  6
DASHED1
 62
   136
100
AcDbLine
 10
2426.552942817664
 20
1008.34337054639
 30
0.0
 11
2487.453917050692
 21
947.442396313364
 31
0.0
  0
LINE
  5
91
330
20
100
AcDbEntity
  8
_0-0_
  6
Continuous
 62
   136
100
AcDbLine
 10
2196.743238932036
 20
1096.731718194709
 30
0.0
 11
2108.354891283719
 21
1008.34337054639
 31
0.0
  0
LINE
  5
92
330
20
100
AcDbEntity
  8
_0-0_
  6
DASHED1
 62
   136
100
AcDbLine
 10
2108.354891283719
 20
1008.34337054639
 30
0.0
 11
2047.453917050691
 21
947.442396313364
 31
0.0
  0
CIRCLE
  5
93
330
20
100
AcDbEntity
  8
_0-0_
  6
Continuous
 62
     5
100
AcDbCircle
 10
2267.453917050691
 20
1167.442396313364
 30
0.0
 40
225.0
  0
CIRCLE
  5
94
330
20
100
AcDbEntity
  8
_0-0_
  6
Continuous
 62
     5
100
AcDbCircle
 10
2267.453917050691
 20
1167.442396313364
 30
0.0
 40
231.0
  0
CIRCLE
  5
95
330
20
100
AcDbEntity
  8
_0-0_
  6
Continuous
 62
     5
100
AcDbCircle
 10
2267.453917050691
 20
1167.442396313364
 30
0.0
 40
245.0
  0
CIRCLE
  5
96
330
20
100
AcDbEntity
  8
_0-0_
  6
Continuous
 62
     5
100
AcDbCircle
 10
2267.453917050691
 20
1167.442396313364
 30
0.0
 40
251.0
  0
LINE
  5
97
330
20
100
AcDbEntity
  8
_0-0_
  6
DASHED1
 62
   136
100
AcDbLine
 10
2057.453917050692
 20
1467.442396313364
 30
0.0
 11
2067.453917050691
 21
1447.442396313364
 31
0.0
  0
LINE
  5
98
330
20
100
AcDbEntity
  8
_0-0_
  6
DASHED1
 62
   136
100
AcDbLine
 10
2067.453917050691
 20
1447.442396313364
 30
0.0
 11
2467.453917050692
 21
1447.442396313364
 31
0.0
  0
LINE
  5
99
330
20
100
AcDbEntity
  8
_0-0_
  6
DASHED1
 62
   136
100
AcDbLine
 10
2477.453917050692
 20
1467.442396313364
 30
0.0
 11
2467.453917050692
 21
1447.442396313364
 31
0.0
  0
LINE
  5
9A
330
20
100
AcDbEntity
  8
_0-0_
  6
DASHED1
 62
   136
100
AcDbLine
 10
2057.453917050692
 20
867.4423963133639
 30
0.0
 11
2067.453917050691
 21
887.4423963133638
 31
0.0
  0
LINE
  5
9B
330
20
100
AcDbEntity
  8
_0-0_
  6
DASHED1
 62
   136
100
AcDbLine
 10
2067.453917050691
 20
887.4423963133638
 30
0.0
 11
2467.453917050692
 21
887.4423963133638
 31
0.0
  0
LINE
  5
9C
330
20
100
AcDbEntity
  8
_0-0_
  6
DASHED1
 62
   136
100
AcDbLine
 10
2467.453917050692
 20
887.4423963133638
 30
0.0
 11
2477.453917050692
 21
867.4423963133639
 31
0.0
  0
LINE
  5
9D
330
20
100
AcDbEntity
  8
_0-0_
  6
DASHED1
 62
   136
100
AcDbLine
 10
1967.453917050691
 20
1377.442396313364
 30
0.0
 11
1987.453917050691
 21
1367.442396313364
 31
0.0
  0
LINE
  5
9E
330
20
100
AcDbEntity
  8
_0-0_
  6
DASHED1
 62
   136
100
AcDbLine
 10
1987.453917050691
 20
1367.442396313364
 30
0.0
 11
1987.453917050691
 21
967.4423963133639
 31
0.0
  0
LINE
  5
9F
330
20
100
AcDbEntity
  8
_0-0_
  6
DASHED1
 62
   136
100
AcDbLine
 10
1987.453917050691
 20
967.4423963133639
 30
0.0
 11
1967.453917050691
 21
957.4423963133639
 31
0.0
  0
LINE
  5
A0
330
20
100
AcDbEntity
  8
_0-0_
  6
DASHED1
 62
   136
100
AcDbLine
 10
2567.453917050691
 20
1377.442396313364
 30
0.0
 11
2547.453917050692
 21
1367.442396313364
 31
0.0
  0
LINE
  5
A1
330
20
100
AcDbEntity
  8
_0-0_
  6
DASHED1
 62
   136
100
AcDbLine
 10
2547.453917050692
 20
1367.442396313364
 30
0.0
 11
2547.453917050692
 21
967.4423963133639
 31
0.0
  0
LINE
  5
A2
330
20
100
AcDbEntity
  8
_0-0_
  6
DASHED1
 62
   136
100
AcDbLine
 10
2547.453917050692
 20
967.4423963133639
 30
0.0
 11
2567.453917050691
 21
957.4423963133639
 31
0.0
  0
LINE
  5
A3
330
20
100
AcDbEntity
  8
_0-0_
  6
Continuous
 62
     4
100
AcDbLine
 10
2047.453917050691
 20
1477.442396313364
 30
0.0
 11
2047.453917050691
 21
1567.442396313364
 31
0.0
  0
LINE
  5
A4
330
20
100
AcDbEntity
  8
_0-0_
  6
Continuous
 62
     4
100
AcDbLine
 10
2487.453917050692
 20
1567.442396313364
 30
0.0
 11
2487.453917050692
 21
1477.442396313364
 31
0.0
  0
LINE
  5
A5
330
20
100
AcDbEntity
  8
_0-0_
  6
Continuous
 62
     4
100
AcDbLine
 10
2017.453917050691
 20
1477.442396313364
 30
0.0
 11
2017.453917050691
 21
1657.442396313364
 31
0.0
  0
LINE
  5
A6
330
20
100
AcDbEntity
  8
_0-0_
  6
Continuous
 62
     4
100
AcDbLine
 10
2517.453917050691
 20
1657.442396313364
 30
0.0
 11
2517.453917050691
 21
1477.442396313364
 31
0.0
  0
LINE
  5
A7
330
20
100
AcDbEntity
  8
_0-0_
  6
Continuous
 62
     4
100
AcDbLine
 10
1967.453917050691
 20
1647.442396313364
 30
0.0
 11
2017.453917050691
 21
1647.442396313364
 31
0.0
  0
LINE
  5
A8
330
20
100
AcDbEntity
  8
_0-0_
  6
Continuous
 62
     4
100
AcDbLine
 10
2517.453917050691
 20
1647.442396313364
 30
0.0
 11
2567.453917050691
 21
1647.442396313364
 31
0.0
  0
LINE
  5
A9
330
20
100
AcDbEntity
  8
_0-0_
  6
Continuous
 62
     4
100
AcDbLine
 10
2017.453917050691
 20
1647.442396313364
 30
0.0
 11
2517.453917050691
 21
1647.442396313364
 31
0.0
  0
LINE
  5
AA
330
20
100
AcDbEntity
  8
_0-0_
  6
Continuous
 62
     4
100
AcDbLine
 10
1967.453917050691
 20
1647.442396313364
 30
0.0
 11
1917.453917050691
 21
1647.442396313364
 31
0.0
  0
LINE
  5
AB
330
20
100
AcDbEntity
  8
_0-0_
  6
Continuous
 62
     4
100
AcDbLine
 10
2567.453917050691
 20
1647.442396313364
 30
0.0
 11
2617.453917050691
 21
1647.442396313364
 31
0.0
  0
LINE
  5
AC
330
20
100
AcDbEntity
  8
_0-0_
  6
Continuous
 62
     4
100
AcDbLine
 10
2517.453917050691
 20
1557.442396313364
 30
0.0
 11
2487.453917050692
 21
1557.442396313364
 31
0.0
  0
LINE
  5
AD
330
20
100
AcDbEntity
  8
_0-0_
  6
Continuous
 62
     4
100
AcDbLine
 10
2047.453917050691
 20
1557.442396313364
 30
0.0
 11
2017.453917050691
 21
1557.442396313364
 31
0.0
  0
LINE
  5
AE
330
20
100
AcDbEntity
  8
_0-0_
  6
Continuous
 62
     4
100
AcDbLine
 10
1977.453917050691
 20
1557.442396313364
 30
0.0
 11
2017.453917050691
 21
1557.442396313364
 31
0.0
  0
LINE
  5
AF
330
20
100
AcDbEntity
  8
_0-0_
  6
Continuous
 62
     4
100
AcDbLine
 10
2087.453917050691
 20
1557.442396313364
 30
0.0
 11
2047.453917050691
 21
1557.442396313364
 31
0.0
  0
LINE
  5
B0
330
20
100
AcDbEntity
  8
_0-0_
  6
Continuous
 62
     4
100
AcDbLine
 10
2487.453917050692
 20
1557.442396313364
 30
0.0
 11
2447.453917050692
 21
1557.442396313364
 31
0.0
  0
LINE
  5
B1
330
20
100
AcDbEntity
  8
_0-0_
  6
Continuous
 62
     4
100
AcDbLine
 10
2517.453917050691
 20
1557.442396313364
 30
0.0
 11
2557.453917050692
 21
1557.442396313364
 31
0.0
  0
LINE
  5
B2
330
20
100
AcDbEntity
  8
_0-0_
  6
Continuous
 62
     4
100
AcDbLine
 10
2567.453917050691
 20
1737.442396313364
 30
0.0
 11
2548.135400524911
 21
1732.266015411313
 31
0.0
  0
LINE
  5
B3
330
20
100
AcDbEntity
  8
_0-0_
  6
Continuous
 62
     4
100
AcDbLine
 10
2567.453917050691
 20
1737.442396313364
 30
0.0
 11
2548.135400524911
 21
1742.618777215414
 31
0.0
  0
LINE
  5
B4
330
20
100
AcDbEntity
  8
_0-0_
  6
Continuous
 62
     4
100
AcDbLine
 10
1967.453917050691
 20
1737.442396313364
 30
0.0
 11
1986.772433576473
 21
1742.618777215414
 31
0.0
  0
LINE
  5
B5
330
20
100
AcDbEntity
  8
_0-0_
  6
Continuous
 62
     4
100
AcDbLine
 10
1967.453917050691
 20
1737.442396313364
 30
0.0
 11
1986.772433576473
 21
1732.266015411313
 31
0.0
  0
LINE
  5
B6
330
20
100
AcDbEntity
  8
_0-0_
  6
Continuous
 62
     4
100
AcDbLine
 10
1967.453917050691
 20
1647.442396313364
 30
0.0
 11
1948.13540052491
 21
1642.266015411313
 31
0.0
  0
LINE
  5
B7
330
20
100
AcDbEntity
  8
_0-0_
  6
Continuous
 62
     4
100
AcDbLine
 10
1967.453917050691
 20
1647.442396313364
 30
0.0
 11
1948.13540052491
 21
1652.618777215414
 31
0.0
  0
LINE
  5
B8
330
20
100
AcDbEntity
  8
_0-0_
  6
Continuous
 62
     4
100
AcDbLine
 10
2017.453917050691
 20
1647.442396313364
 30
0.0
 11
2036.772433576473
 21
1652.618777215414
 31
0.0
  0
LINE
  5
B9
330
20
100
AcDbEntity
  8
_0-0_
  6
Continuous
 62
     4
100
AcDbLine
 10
2017.453917050691
 20
1647.442396313364
 30
0.0
 11
2036.772433576473
 21
1642.266015411313
 31
0.0
  0
LINE
  5
BA
330
20
100
AcDbEntity
  8
_0-0_
  6
Continuous
 62
     4
100
AcDbLine
 10
2517.453917050691
 20
1647.442396313364
 30
0.0
 11
2498.135400524911
 21
1642.266015411313
 31
0.0
  0
LINE
  5
BB
330
20
100
AcDbEntity
  8
_0-0_
  6
Continuous
 62
     4
100
AcDbLine
 10
2517.453917050691
 20
1647.442396313364
 30
0.0
 11
2498.135400524911
 21
1652.618777215414
 31
0.0
  0
LINE
  5
BC
330
20
100
AcDbEntity
  8
_0-0_
  6
Continuous
 62
     4
100
AcDbLine
 10
2567.453917050691
 20
1647.442396313364
 30
0.0
 11
2586.772433576474
 21
1652.618777215414
 31
0.0
  0
LINE
  5
BD
330
20
100
AcDbEntity
  8
_0-0_
  6
Continuous
 62
     4
100
AcDbLine
 10
2567.453917050691
 20
1647.442396313364
 30
0.0
 11
2586.772433576474
 21
1642.266015411313
 31
0.0
  0
LINE
  5
BE
330
20
100
AcDbEntity
  8
_0-0_
  6
Continuous
 62
     4
100
AcDbLine
 10
2517.453917050691
 20
1557.442396313364
 30
0.0
 11
2536.772433576472
 21
1562.618777215414
 31
0.0
  0
LINE
  5
BF
330
20
100
AcDbEntity
  8
_0-0_
  6
Continuous
 62
     4
100
AcDbLine
 10
2517.453917050691
 20
1557.442396313364
 30
0.0
 11
2536.772433576472
 21
1552.266015411313
 31
0.0
  0
LINE
  5
C0
330
20
100
AcDbEntity
  8
_0-0_
  6
Continuous
 62
     4
100
AcDbLine
 10
2487.453917050692
 20
1557.442396313364
 30
0.0
 11
2468.135400524911
 21
1552.266015411313
 31
0.0
  0
LINE
  5
C1
330
20
100
AcDbEntity
  8
_0-0_
  6
Continuous
 62
     4
100
AcDbLine
 10
2487.453917050692
 20
1557.442396313364
 30
0.0
 11
2468.135400524911
 21
1562.618777215414
 31
0.0
  0
LINE
  5
C2
330
20
100
AcDbEntity
  8
_0-0_
  6
Continuous
 62
     4
100
AcDbLine
 10
2047.453917050691
 20
1557.442396313364
 30
0.0
 11
2066.772433576472
 21
1562.618777215414
 31
0.0
  0
LINE
  5
C3
330
20
100
AcDbEntity
  8
_0-0_
  6
Continuous
 62
     4
100
AcDbLine
 10
2047.453917050691
 20
1557.442396313364
 30
0.0
 11
2066.772433576472
 21
1552.266015411313
 31
0.0
  0
LINE
  5
C4
330
20
100
AcDbEntity
  8
_0-0_
  6
Continuous
 62
     4
100
AcDbLine
 10
2017.453917050691
 20
1557.442396313364
 30
0.0
 11
1998.13540052491
 21
1552.266015411313
 31
0.0
  0
LINE
  5
C5
330
20
100
AcDbEntity
  8
_0-0_
  6
Continuous
 62
     4
100
AcDbLine
 10
2017.453917050691
 20
1557.442396313364
 30
0.0
 11
1998.13540052491
 21
1562.618777215414
 31
0.0
  0
TEXT
  5
C6
330
20
100
AcDbEntity
  8
_0-0_
 62
     7
100
AcDbText
 10
2462.901154217075
 20
1569.035708976619
 30
0.0
 40
30.0
  1
30
100
AcDbText
  0
TEXT
  5
C7
330
20
100
AcDbEntity
  8
_0-0_
 62
     7
100
AcDbText
 10
2023.256917751492
 20
1570.092165898618
 30
0.0
 40
30.0
  1
30
100
AcDbText
  0
TEXT
  5
C8
330
20
100
AcDbEntity
  8
_0-0_
 62
     7
100
AcDbText
 10
1977.829270105545
 20
1655.665176580517
 30
0.0
 40
30.0
  1
50
100
AcDbText
  0
TEXT
  5
C9
330
20
100
AcDbEntity
  8
_0-0_
 62
     7
100
AcDbText
 10
2514.614827046565
 20
1655.665176580517
 30
0.0
 40
30.0
  1
50
100
AcDbText
  0
TEXT
  5
CA
330
20
100
AcDbEntity
  8
_0-0_
 62
     7
100
AcDbText
 10
2245.112871371233
 20
1656.721633502516
 30
0.0
 40
30.0
  1
500
100
AcDbText
  0
TEXT
  5
CB
330
20
100
AcDbEntity
  8
_0-0_
 62
     7
100
AcDbText
 10
2245.112871371233
 20
1745.464014950413
 30
0.0
 40
30.0
  1
600
100
AcDbText
  0
LINE
  5
CC
330
20
100
AcDbEntity
  8
_0-0_
  6
Continuous
 62
     4
100
AcDbLine
 10
1957.453917050691
 20
917.4423963133639
 30
0.0
 11
1777.453917050691
 21
917.4423963133639
 31
0.0
  0
LINE
  5
CD
330
20
100
AcDbEntity
  8
_0-0_
  6
Continuous
 62
     4
100
AcDbLine
 10
1957.453917050691
 20
1417.442396313364
 30
0.0
 11
1777.453917050691
 21
1417.442396313364
 31
0.0
  0
LINE
  5
CE
330
20
100
AcDbEntity
  8
_0-0_
  6
Continuous
 62
     4
100
AcDbLine
 10
1957.453917050691
 20
947.442396313364
 30
0.0
 11
1867.453917050691
 21
947.442396313364
 31
0.0
  0
LINE
  5
CF
330
20
100
AcDbEntity
  8
_0-0_
  6
Continuous
 62
     4
100
AcDbLine
 10
1957.453917050691
 20
1387.442396313364
 30
0.0
 11
1867.453917050691
 21
1387.442396313364
 31
0.0
  0
LINE
  5
D0
330
20
100
AcDbEntity
  8
_0-0_
  6
Continuous
 62
     4
100
AcDbLine
 10
1877.453917050691
 20
987.4423963133638
 30
0.0
 11
1877.453917050691
 21
947.442396313364
 31
0.0
  0
LINE
  5
D1
330
20
100
AcDbEntity
  8
_0-0_
  6
Continuous
 62
     4
100
AcDbLine
 10
1877.453917050691
 20
917.4423963133639
 30
0.0
 11
1877.453917050691
 21
877.4423963133639
 31
0.0
  0
LINE
  5
D2
330
20
100
AcDbEntity
  8
_0-0_
  6
Continuous
 62
     4
100
AcDbLine
 10
1877.453917050691
 20
1457.442396313364
 30
0.0
 11
1877.453917050691
 21
1417.442396313364
 31
0.0
  0
LINE
  5
D3
330
20
100
AcDbEntity
  8
_0-0_
  6
Continuous
 62
     4
100
AcDbLine
 10
1877.453917050691
 20
1387.442396313364
 30
0.0
 11
1877.453917050691
 21
1347.442396313364
 31
0.0
  0
LINE
  5
D4
330
20
100
AcDbEntity
  8
_0-0_
  6
Continuous
 62
     4
100
AcDbLine
 10
1877.453917050691
 20
1417.442396313364
 30
0.0
 11
1877.453917050691
 21
1387.442396313364
 31
0.0
  0
LINE
  5
D5
330
20
100
AcDbEntity
  8
_0-0_
  6
Continuous
 62
     4
100
AcDbLine
 10
1877.453917050691
 20
947.442396313364
 30
0.0
 11
1877.453917050691
 21
917.4423963133639
 31
0.0
  0
LINE
  5
D6
330
20
100
AcDbEntity
  8
_0-0_
  6
Continuous
 62
     4
100
AcDbLine
 10
1787.453917050691
 20
1467.442396313364
 30
0.0
 11
1787.453917050691
 21
1417.442396313364
 31
0.0
  0
LINE
  5
D7
330
20
100
AcDbEntity
  8
_0-0_
  6
Continuous
 62
     4
100
AcDbLine
 10
1787.453917050691
 20
917.4423963133639
 30
0.0
 11
1787.453917050691
 21
867.4423963133639
 31
0.0
  0
LINE
  5
D8
330
20
100
AcDbEntity
  8
_0-0_
  6
Continuous
 62
     4
100
AcDbLine
 10
1787.453917050691
 20
1417.442396313364
 30
0.0
 11
1787.453917050691
 21
917.4423963133639
 31
0.0
  0
LINE
  5
D9
330
20
100
AcDbEntity
  8
_0-0_
  6
Continuous
 62
     4
100
AcDbLine
 10
1787.453917050691
 20
867.4423963133639
 30
0.0
 11
1787.453917050691
 21
817.4423963133639
 31
0.0
  0
LINE
  5
DA
330
20
100
AcDbEntity
  8
_0-0_
  6
Continuous
 62
     4
100
AcDbLine
 10
1787.453917050691
 20
1467.442396313364
 30
0.0
 11
1787.453917050691
 21
1517.442396313364
 31
0.0
  0
LINE
  5
DB
330
20
100
AcDbEntity
  8
_0-0_
  6
Continuous
 62
     4
100
AcDbLine
 10
1877.453917050691
 20
1417.442396313364
 30
0.0
 11
1872.277536148641
 21
1436.760912839145
 31
0.0
  0
LINE
  5
DC
330
20
100
AcDbEntity
  8
_0-0_
  6
Continuous
 62
     4
100
AcDbLine
 10
1877.453917050691
 20
1417.442396313364
 30
0.0
 11
1882.630297952741
 21
1436.760912839145
 31
0.0
  0
LINE
  5
DD
330
20
100
AcDbEntity
  8
_0-0_
  6
Continuous
 62
     4
100
AcDbLine
 10
1877.453917050691
 20
1387.442396313364
 30
0.0
 11
1882.630297952741
 21
1368.123879787582
 31
0.0
  0
LINE
  5
DE
330
20
100
AcDbEntity
  8
_0-0_
  6
Continuous
 62
     4
100
AcDbLine
 10
1877.453917050691
 20
1387.442396313364
 30
0.0
 11
1872.277536148641
 21
1368.123879787582
 31
0.0
  0
LINE
  5
DF
330
20
100
AcDbEntity
  8
_0-0_
  6
Continuous
 62
     4
100
AcDbLine
 10
1877.453917050691
 20
947.442396313364
 30
0.0
 11
1872.277536148641
 21
966.7609128391458
 31
0.0
  0
LINE
  5
E0
330
20
100
AcDbEntity
  8
_0-0_
  6
Continuous
 62
     4
100
AcDbLine
 10
1877.453917050691
 20
947.442396313364
 30
0.0
 11
1882.630297952741
 21
966.7609128391458
 31
0.0
  0
LINE
  5
E1
330
20
100
AcDbEntity
  8
_0-0_
  6
Continuous
 62
     4
100
AcDbLine
 10
1877.453917050691
 20
917.4423963133639
 30
0.0
 11
1882.630297952741
 21
898.1238797875825
 31
0.0
  0
LINE
  5
E2
330
20
100
AcDbEntity
  8
_0-0_
  6
Continuous
 62
     4
100
AcDbLine
 10
1877.453917050691
 20
917.4423963133639
 30
0.0
 11
1872.277536148641
 21
898.1238797875825
 31
0.0
  0
LINE
  5
E3
330
20
100
AcDbEntity
  8
_0-0_
  6
Continuous
 62
     4
100
AcDbLine
 10
1787.453917050691
 20
867.4423963133639
 30
0.0
 11
1792.630297952741
 21
848.1238797875825
 31
0.0
  0
LINE
  5
E4
330
20
100
AcDbEntity
  8
_0-0_
  6
Continuous
 62
     4
100
AcDbLine
 10
1787.453917050691
 20
867.4423963133639
 30
0.0
 11
1782.27753614864
 21
848.1238797875825
 31
0.0
  0
LINE
  5
E5
330
20
100
AcDbEntity
  8
_0-0_
  6
Continuous
 62
     4
100
AcDbLine
 10
1787.453917050691
 20
917.4423963133639
 30
0.0
 11
1782.27753614864
 21
936.7609128391457
 31
0.0
  0
LINE
  5
E6
330
20
100
AcDbEntity
  8
_0-0_
  6
Continuous
 62
     4
100
AcDbLine
 10
1787.453917050691
 20
917.4423963133639
 30
0.0
 11
1792.630297952741
 21
936.7609128391457
 31
0.0
  0
LINE
  5
E7
330
20
100
AcDbEntity
  8
_0-0_
  6
Continuous
 62
     4
100
AcDbLine
 10
1787.453917050691
 20
1417.442396313364
 30
0.0
 11
1792.630297952741
 21
1398.123879787582
 31
0.0
  0
LINE
  5
E8
330
20
100
AcDbEntity
  8
_0-0_
  6
Continuous
 62
     4
100
AcDbLine
 10
1787.453917050691
 20
1417.442396313364
 30
0.0
 11
1782.27753614864
 21
1398.123879787582
 31
0.0
  0
LINE
  5
E9
330
20
100
AcDbEntity
  8
_0-0_
  6
Continuous
 62
     4
100
AcDbLine
 10
1787.453917050691
 20
1467.442396313364
 30
0.0
 11
1782.27753614864
 21
1486.760912839145
 31
0.0
  0
LINE
  5
EA
330
20
100
AcDbEntity
  8
_0-0_
  6
Continuous
 62
     4
100
AcDbLine
 10
1787.453917050691
 20
1467.442396313364
 30
0.0
 11
1792.630297952741
 21
1486.760912839145
 31
0.0
  0
LINE
  5
EB
330
20
100
AcDbEntity
  8
_0-0_
  6
Continuous
 62
     4
100
AcDbLine
 10
1697.453917050691
 20
1467.442396313364
 30
0.0
 11
1702.630297952742
 21
1448.123879787582
 31
0.0
  0
LINE
  5
EC
330
20
100
AcDbEntity
  8
_0-0_
  6
Continuous
 62
     4
100
AcDbLine
 10
1697.453917050691
 20
1467.442396313364
 30
0.0
 11
1692.27753614864
 21
1448.123879787582
 31
0.0
  0
LINE
  5
ED
330
20
100
AcDbEntity
  8
_0-0_
  6
Continuous
 62
     4
100
AcDbLine
 10
1697.453917050691
 20
867.4423963133639
 30
0.0
 11
1692.27753614864
 21
886.7609128391457
 31
0.0
  0
LINE
  5
EE
330
20
100
AcDbEntity
  8
_0-0_
  6
Continuous
 62
     4
100
AcDbLine
 10
1697.453917050691
 20
867.4423963133639
 30
0.0
 11
1702.630297952742
 21
886.7609128391457
 31
0.0
  0
TEXT
  5
EF
330
20
100
AcDbEntity
  8
_0-0_
 62
     7
100
AcDbText
 10
1864.268352802486
 20
1362.91348591129
 30
0.0
 40
30.0
  1
30
 50
90.0
100
AcDbText
  0
TEXT
  5
F0
330
20
100
AcDbEntity
  8
_0-0_
 62
     7
100
AcDbText
 10
1864.268352802486
 20
925.3894663440057
 30
0.0
 40
30.0
  1
30
 50
90.0
100
AcDbText
  0
TEXT
  5
F1
330
20
100
AcDbEntity
  8
_0-0_
 62
     7
100
AcDbText
 10
1779.135355267388
 20
879.2156371724269
 30
0.0
 40
30.0
  1
50
 50
90.0
100
AcDbText
  0
TEXT
  5
F2
330
20
100
AcDbEntity
  8
_0-0_
 62
     7
100
AcDbText
 10
1776.249490944164
 20
1406.201450759645
 30
0.0
 40
30.0
  1
50
 50
90.0
100
AcDbText
  0
TEXT
  5
F3
330
20
100
AcDbEntity
  8
_0-0_
 62
     7
100
AcDbText
 10
1779.135355267388
 20
1143.663272961097
 30
0.0
 40
30.0
  1
500
 50
90.0
100
AcDbText
  0
TEXT
  5
F4
330
20
100
AcDbEntity
  8
_0-0_
 62
     7
100
AcDbText
 10
1688.230629085843
 20
1143.663272961097
 30
0.0
 40
30.0
  1
600
 50
90.0
100
AcDbText
  0
LINE
  5
F5
330
20
100
AcDbEntity
  8
_0-0_
  6
Continuous
 62
     4
100
AcDbLine
 10
2067.453917050691
 20
857.4423963133639
 30
0.0
 11
2067.453917050691
 21
767.4423963133639
 31
0.0
  0
LINE
  5
F6
330
20
100
AcDbEntity
  8
_0-0_
  6
Continuous
 62
     4
100
AcDbLine
 10
2467.453917050692
 20
857.4423963133639
 30
0.0
 11
2467.453917050692
 21
767.4423963133639
 31
0.0
  0
LINE
  5
F7
330
20
100
AcDbEntity
  8
_0-0_
  6
Continuous
 62
     4
100
AcDbLine
 10
2577.453917050691
 20
1367.442396313364
 30
0.0
 11
2667.453917050691
 21
1367.442396313364
 31
0.0
  0
LINE
  5
F8
330
20
100
AcDbEntity
  8
_0-0_
  6
Continuous
 62
     4
100
AcDbLine
 10
2577.453917050691
 20
967.4423963133639
 30
0.0
 11
2667.453917050691
 21
967.4423963133639
 31
0.0
  0
LINE
  5
F9
330
20
100
AcDbEntity
  8
_0-0_
  6
Continuous
 62
     4
100
AcDbLine
 10
2657.453917050691
 20
1367.442396313364
 30
0.0
 11
2657.453917050691
 21
967.4423963133639
 31
0.0
  0
LINE
  5
FA
330
20
100
AcDbEntity
  8
_0-0_
  6
Continuous
 62
     4
100
AcDbLine
 10
2067.453917050691
 20
777.4423963133639
 30
0.0
 11
2467.453917050692
 21
777.4423963133639
 31
0.0
  0
LINE
  5
FB
330
20
100
AcDbEntity
  8
_0-0_
  6
Continuous
 62
     4
100
AcDbLine
 10
2657.453917050691
 20
1367.442396313364
 30
0.0
 11
2662.630297952742
 21
1348.123879787582
 31
0.0
  0
LINE
  5
FC
330
20
100
AcDbEntity
  8
_0-0_
  6
Continuous
 62
     4
100
AcDbLine
 10
2657.453917050691
 20
1367.442396313364
 30
0.0
 11
2652.277536148641
 21
1348.123879787582
 31
0.0
  0
LINE
  5
FD
330
20
100
AcDbEntity
  8
_0-0_
  6
Continuous
 62
     4
100
AcDbLine
 10
2657.453917050691
 20
967.4423963133639
 30
0.0
 11
2652.277536148641
 21
986.7609128391457
 31
0.0
  0
LINE
  5
FE
330
20
100
AcDbEntity
  8
_0-0_
  6
Continuous
 62
     4
100
AcDbLine
 10
2657.453917050691
 20
967.4423963133639
 30
0.0
 11
2662.630297952742
 21
986.7609128391457
 31
0.0
  0
LINE
  5
FF
330
20
100
AcDbEntity
  8
_0-0_
  6
Continuous
 62
     4
100
AcDbLine
 10
2467.453917050692
 20
777.4423963133639
 30
0.0
 11
2448.135400524911
 21
772.2660154113136
 31
0.0
  0
LINE
  5
100
330
20
100
AcDbEntity
  8
_0-0_
  6
Continuous
 62
     4
100
AcDbLine
 10
2467.453917050692
 20
777.4423963133639
 30
0.0
 11
2448.135400524911
 21
782.6187772154144
 31
0.0
  0
LINE
  5
101
330
20
100
AcDbEntity
  8
_0-0_
  6
Continuous
 62
     4
100
AcDbLine
 10
2067.453917050691
 20
777.4423963133639
 30
0.0
 11
2086.772433576472
 21
782.6187772154144
 31
0.0
  0
LINE
  5
102
330
20
100
AcDbEntity
  8
_0-0_
  6
Continuous
 62
     4
100
AcDbLine
 10
2067.453917050691
 20
777.4423963133639
 30
0.0
 11
2086.772433576472
 21
772.2660154113136
 31
0.0
  0
TEXT
  5
103
330
20
100
AcDbEntity
  8
_0-0_
 62
     7
100
AcDbText
 10
2244.353659843532
 20
784.7338977601542
 30
0.0
 40
30.0
  1
400
100
AcDbText
  0
TEXT
  5
104
330
20
100
AcDbEntity
  8
_0-0_
 62
     7
100
AcDbText
 10
2648.029846747402
 20
1145.917854463616
 30
0.0
 40
30.0
  1
400
 50
90.0
100
AcDbText
  0
LINE
  5
105
330
20
100
AcDbEntity
  8
_0-0_
  6
Continuous
 62
     4
100
AcDbLine
 10
2257.453917050691
 20
882.4423963133639
 30
0.0
 11
1987.117862336615
 21
637.442396313364
 31
0.0
  0
TEXT
  5
106
330
20
100
AcDbEntity
  8
_0-0_
 62
     7
100
AcDbText
 10
1699.347375830905
 20
642.7910446176388
 30
0.0
 40
30.0
  1
インサート　M12
100
AcDbText
  0
LINE
  5
107
330
20
100
AcDbEntity
  8
_0-0_
  6
Continuous
 62
     4
100
AcDbLine
 10
1702.033501968284
 20
637.442396313364
 30
0.0
 11
1987.117862336615
 21
637.442396313364
 31
0.0
  0
LINE
  5
108
330
20
100
AcDbEntity
  8
_0-0_
  6
Continuous
 62
     4
100
AcDbLine
 10
2257.453917050691
 20
882.4423963133639
 30
0.0
 11
2246.615460121523
 21
865.633831490793
 31
0.0
  0
LINE
  5
109
330
20
100
AcDbEntity
  8
_0-0_
  6
Continuous
 62
     4
100
AcDbLine
 10
2257.453917050691
 20
882.4423963133639
 30
0.0
 11
2239.663255600923
 21
873.3049806404439
 31
0.0
  0
LINE
  5
10A
330
20
100
AcDbEntity
  8
_0-0_
  6
Continuous
 62
     4
100
AcDbLine
 10
655.5014671944364
 20
1721.128898554949
 30
0.0
 11
1255.501467194436
 21
1721.128898554949
 31
0.0
  0
LINE
  5
10B
330
20
100
AcDbEntity
  8
_0-0_
  6
Continuous
 62
     4
100
AcDbLine
 10
295.5014671944363
 20
1541.12889855495
 30
0.0
 11
295.5014671944363
 21
801.1288985549494
 31
0.0
  0
LINE
  5
10C
330
20
100
AcDbEntity
  8
_0-0_
  6
Continuous
 62
     4
100
AcDbLine
 10
645.5014671944363
 20
801.1288985549494
 30
0.0
 11
285.5014671944363
 21
801.1288985549494
 31
0.0
  0
LINE
  5
10D
330
20
100
AcDbEntity
  8
_0-0_
  6
Continuous
 62
     7
100
AcDbLine
 10
655.5014671944364
 20
1421.12889855495
 30
0.0
 11
1255.501467194436
 21
1421.12889855495
 31
0.0
  0
LINE
  5
10E
330
20
100
AcDbEntity
  8
_0-0_
  6
Continuous
 62
     7
100
AcDbLine
 10
655.5014671944364
 20
811.1288985549494
 30
0.0
 11
665.5014671944363
 21
801.1288985549494
 31
0.0
  0
LINE
  5
10F
330
20
100
AcDbEntity
  8
_0-0_
  6
Continuous
 62
     7
100
AcDbLine
 10
665.5014671944363
 20
801.1288985549494
 30
0.0
 11
1245.501467194437
 21
801.1288985549494
 31
0.0
  0
LINE
  5
110
330
20
100
AcDbEntity
  8
_0-0_
  6
Continuous
 62
     7
100
AcDbLine
 10
1255.501467194436
 20
811.1288985549494
 30
0.0
 11
1245.501467194437
 21
801.1288985549494
 31
0.0
  0
LINE
  5
111
330
20
100
AcDbEntity
  8
_0-0_
  6
DASHED1
 62
   136
100
AcDbLine
 10
1175.501467194436
 20
1421.12889855495
 30
0.0
 11
1175.501467194436
 21
871.1288985549495
 31
0.0
  0
LINE
  5
112
330
20
100
AcDbEntity
  8
_0-0_
  6
DASHED1
 62
   136
100
AcDbLine
 10
705.5014671944364
 20
901.1288985549496
 30
0.0
 11
1205.501467194437
 21
901.1288985549496
 31
0.0
  0
LINE
  5
113
330
20
100
AcDbEntity
  8
_0-0_
  6
DASHED1
 62
   136
100
AcDbLine
 10
705.5014671944364
 20
1421.12889855495
 30
0.0
 11
705.5014671944364
 21
901.1288985549496
 31
0.0
  0
LINE
  5
114
330
20
100
AcDbEntity
  8
_0-0_
  6
DASHED1
 62
   136
100
AcDbLine
 10
705.5014671944364
 20
901.1288985549496
 30
0.0
 11
735.5014671944363
 21
871.1288985549495
 31
0.0
  0
LINE
  5
115
330
20
100
AcDbEntity
  8
_0-0_
  6
DASHED1
 62
   136
100
AcDbLine
 10
1205.501467194437
 20
1421.12889855495
 30
0.0
 11
1205.501467194437
 21
901.1288985549496
 31
0.0
  0
LINE
  5
116
330
20
100
AcDbEntity
  8
_0-0_
  6
DASHED1
 62
   136
100
AcDbLine
 10
1205.501467194437
 20
901.1288985549496
 30
0.0
 11
1175.501467194436
 21
871.1288985549495
 31
0.0
  0
LINE
  5
117
330
20
100
AcDbEntity
  8
_0-0_
  6
DASHED1
 62
   136
100
AcDbLine
 10
735.5014671944363
 20
1421.12889855495
 30
0.0
 11
735.5014671944363
 21
871.1288985549495
 31
0.0
  0
LINE
  5
118
330
20
100
AcDbEntity
  8
_0-0_
  6
DASHED1
 62
   136
100
AcDbLine
 10
735.5014671944363
 20
871.1288985549495
 30
0.0
 11
855.5014671944363
 21
861.1288985549494
 31
0.0
  0
LINE
  5
119
330
20
100
AcDbEntity
  8
_0-0_
  6
DASHED1
 62
   136
100
AcDbLine
 10
1175.501467194436
 20
871.1288985549495
 30
0.0
 11
1055.501467194436
 21
861.1288985549494
 31
0.0
  0
LINE
  5
11A
330
20
100
AcDbEntity
  8
_0-0_
  6
DASHED1
 62
   136
100
AcDbLine
 10
855.5014671944363
 20
861.1288985549494
 30
0.0
 11
865.5014671944364
 21
831.1288985549495
 31
0.0
  0
LINE
  5
11B
330
20
100
AcDbEntity
  8
_0-0_
  6
DASHED1
 62
   136
100
AcDbLine
 10
865.5014671944364
 20
831.1288985549495
 30
0.0
 11
1045.501467194436
 21
831.1288985549495
 31
0.0
  0
LINE
  5
11C
330
20
100
AcDbEntity
  8
_0-0_
  6
DASHED1
 62
   136
100
AcDbLine
 10
1055.501467194436
 20
861.1288985549494
 30
0.0
 11
1045.501467194436
 21
831.1288985549495
 31
0.0
  0
LINE
  5
11D
330
20
100
AcDbEntity
  8
_0-0_
  6
DASHED1
 62
   136
100
AcDbLine
 10
655.5014671944364
 20
1041.12889855495
 30
0.0
 11
675.5014671944364
 21
1031.12889855495
 31
0.0
  0
LINE
  5
11E
330
20
100
AcDbEntity
  8
_0-0_
  6
DASHED1
 62
   136
100
AcDbLine
 10
675.5014671944364
 20
1031.12889855495
 30
0.0
 11
675.5014671944364
 21
921.1288985549495
 31
0.0
  0
LINE
  5
11F
330
20
100
AcDbEntity
  8
_0-0_
  6
DASHED1
 62
   136
100
AcDbLine
 10
675.5014671944364
 20
921.1288985549495
 30
0.0
 11
655.5014671944364
 21
911.1288985549496
 31
0.0
  0
LINE
  5
120
330
20
100
AcDbEntity
  8
_0-0_
  6
DASHED1
 62
   136
100
AcDbLine
 10
1255.501467194436
 20
1041.12889855495
 30
0.0
 11
1235.501467194436
 21
1031.12889855495
 31
0.0
  0
LINE
  5
121
330
20
100
AcDbEntity
  8
_0-0_
  6
DASHED1
 62
   136
100
AcDbLine
 10
1235.501467194436
 20
1031.12889855495
 30
0.0
 11
1235.501467194436
 21
921.1288985549495
 31
0.0
  0
LINE
  5
122
330
20
100
AcDbEntity
  8
_0-0_
  6
DASHED1
 62
   136
100
AcDbLine
 10
1235.501467194436
 20
921.1288985549495
 30
0.0
 11
1255.501467194436
 21
911.1288985549496
 31
0.0
  0
LINE
  5
123
330
20
100
AcDbEntity
  8
_0-0_
  6
Continuous
 62
     4
100
AcDbLine
 10
1045.501467194436
 20
791.1288985549495
 30
0.0
 11
1045.501467194436
 21
701.1288985549494
 31
0.0
  0
LINE
  5
124
330
20
100
AcDbEntity
  8
_0-0_
  6
Continuous
 62
     4
100
AcDbLine
 10
1055.501467194436
 20
801.1288985549494
 30
0.0
 11
1055.501467194436
 21
701.1288985549494
 31
0.0
  0
LINE
  5
125
330
20
100
AcDbEntity
  8
_0-0_
  6
Continuous
 62
     4
100
AcDbLine
 10
865.5014671944364
 20
791.1288985549495
 30
0.0
 11
865.5014671944364
 21
701.1288985549494
 31
0.0
  0
LINE
  5
126
330
20
100
AcDbEntity
  8
_0-0_
  6
Continuous
 62
     4
100
AcDbLine
 10
855.5014671944363
 20
791.1288985549495
 30
0.0
 11
855.5014671944363
 21
701.1288985549494
 31
0.0
  0
LINE
  5
127
330
20
100
AcDbEntity
  8
_0-0_
  6
Continuous
 62
     4
100
AcDbLine
 10
805.5014671944363
 20
711.1288985549495
 30
0.0
 11
855.5014671944363
 21
711.1288985549495
 31
0.0
  0
LINE
  5
128
330
20
100
AcDbEntity
  8
_0-0_
  6
Continuous
 62
     4
100
AcDbLine
 10
865.5014671944364
 20
711.1288985549495
 30
0.0
 11
1045.501467194436
 21
711.1288985549495
 31
0.0
  0
LINE
  5
129
330
20
100
AcDbEntity
  8
_0-0_
  6
Continuous
 62
     4
100
AcDbLine
 10
1055.501467194436
 20
711.1288985549495
 30
0.0
 11
1105.501467194436
 21
711.1288985549495
 31
0.0
  0
LINE
  5
12A
330
20
100
AcDbEntity
  8
_0-0_
  6
Continuous
 62
     4
100
AcDbLine
 10
865.5014671944364
 20
711.1288985549495
 30
0.0
 11
855.5014671944363
 21
711.1288985549495
 31
0.0
  0
LINE
  5
12B
330
20
100
AcDbEntity
  8
_0-0_
  6
Continuous
 62
     4
100
AcDbLine
 10
1055.501467194436
 20
711.1288985549495
 30
0.0
 11
1045.501467194436
 21
711.1288985549495
 31
0.0
  0
LINE
  5
12C
330
20
100
AcDbEntity
  8
_0-0_
  6
Continuous
 62
     4
100
AcDbLine
 10
1055.501467194436
 20
711.1288985549495
 30
0.0
 11
1074.819983720217
 21
716.3052794569999
 31
0.0
  0
LINE
  5
12D
330
20
100
AcDbEntity
  8
_0-0_
  6
Continuous
 62
     4
100
AcDbLine
 10
1055.501467194436
 20
711.1288985549495
 30
0.0
 11
1074.819983720217
 21
705.9525176528991
 31
0.0
  0
LINE
  5
12E
330
20
100
AcDbEntity
  8
_0-0_
  6
Continuous
 62
     4
100
AcDbLine
 10
855.5014671944363
 20
711.1288985549495
 30
0.0
 11
836.1829506686548
 21
705.9525176528991
 31
0.0
  0
LINE
  5
12F
330
20
100
AcDbEntity
  8
_0-0_
  6
Continuous
 62
     4
100
AcDbLine
 10
855.5014671944363
 20
711.1288985549495
 30
0.0
 11
836.1829506686548
 21
716.3052794569999
 31
0.0
  0
LINE
  5
130
330
20
100
AcDbEntity
  8
_0-0_
  6
Continuous
 62
     4
100
AcDbLine
 10
865.5014671944364
 20
711.1288985549495
 30
0.0
 11
884.8199837202177
 21
716.3052794569999
 31
0.0
  0
LINE
  5
131
330
20
100
AcDbEntity
  8
_0-0_
  6
Continuous
 62
     4
100
AcDbLine
 10
865.5014671944364
 20
711.1288985549495
 30
0.0
 11
884.8199837202177
 21
705.9525176528991
 31
0.0
  0
LINE
  5
132
330
20
100
AcDbEntity
  8
_0-0_
  6
Continuous
 62
     4
100
AcDbLine
 10
1045.501467194436
 20
711.1288985549495
 30
0.0
 11
1026.182950668655
 21
705.9525176528991
 31
0.0
  0
LINE
  5
133
330
20
100
AcDbEntity
  8
_0-0_
  6
Continuous
 62
     4
100
AcDbLine
 10
1045.501467194436
 20
711.1288985549495
 30
0.0
 11
1026.182950668655
 21
716.3052794569999
 31
0.0
  0
LINE
  5
134
330
20
100
AcDbEntity
  8
_0-0_
  6
Continuous
 62
     4
100
AcDbLine
 10
755.5014671944364
 20
791.1288985549495
 30
0.0
 11
755.5014671944364
 21
611.1288985549495
 31
0.0
  0
LINE
  5
135
330
20
100
AcDbEntity
  8
_0-0_
  6
Continuous
 62
     4
100
AcDbLine
 10
1155.501467194437
 20
791.1288985549495
 30
0.0
 11
1155.501467194437
 21
611.1288985549495
 31
0.0
  0
LINE
  5
136
330
20
100
AcDbEntity
  8
_0-0_
  6
Continuous
 62
     4
100
AcDbLine
 10
755.5014671944364
 20
621.1288985549495
 30
0.0
 11
1155.501467194437
 21
621.1288985549495
 31
0.0
  0
LINE
  5
137
330
20
100
AcDbEntity
  8
_0-0_
  6
Continuous
 62
     4
100
AcDbLine
 10
705.5014671944364
 20
521.1288985549495
 30
0.0
 11
705.5014671944364
 21
791.1288985549495
 31
0.0
  0
LINE
  5
138
330
20
100
AcDbEntity
  8
_0-0_
  6
Continuous
 62
     4
100
AcDbLine
 10
1205.501467194437
 20
791.1288985549495
 30
0.0
 11
1205.501467194437
 21
521.1288985549495
 31
0.0
  0
LINE
  5
139
330
20
100
AcDbEntity
  8
_0-0_
  6
Continuous
 62
     4
100
AcDbLine
 10
655.5014671944364
 20
531.1288985549494
 30
0.0
 11
705.5014671944364
 21
531.1288985549494
 31
0.0
  0
LINE
  5
13A
330
20
100
AcDbEntity
  8
_0-0_
  6
Continuous
 62
     4
100
AcDbLine
 10
1205.501467194437
 20
531.1288985549494
 30
0.0
 11
1255.501467194436
 21
531.1288985549494
 31
0.0
  0
LINE
  5
13B
330
20
100
AcDbEntity
  8
_0-0_
  6
Continuous
 62
     4
100
AcDbLine
 10
1205.501467194437
 20
531.1288985549494
 30
0.0
 11
705.5014671944364
 21
531.1288985549494
 31
0.0
  0
LINE
  5
13C
330
20
100
AcDbEntity
  8
_0-0_
  6
Continuous
 62
     4
100
AcDbLine
 10
655.5014671944364
 20
531.1288985549494
 30
0.0
 11
605.5014671944364
 21
531.1288985549494
 31
0.0
  0
LINE
  5
13D
330
20
100
AcDbEntity
  8
_0-0_
  6
Continuous
 62
     4
100
AcDbLine
 10
1255.501467194436
 20
531.1288985549494
 30
0.0
 11
1305.501467194436
 21
531.1288985549494
 31
0.0
  0
LINE
  5
13E
330
20
100
AcDbEntity
  8
_0-0_
  6
Continuous
 62
     4
100
AcDbLine
 10
1155.501467194437
 20
621.1288985549495
 30
0.0
 11
1136.182950668654
 21
615.9525176528991
 31
0.0
  0
LINE
  5
13F
330
20
100
AcDbEntity
  8
_0-0_
  6
Continuous
 62
     4
100
AcDbLine
 10
1155.501467194437
 20
621.1288985549495
 30
0.0
 11
1136.182950668654
 21
626.305279457
 31
0.0
  0
LINE
  5
140
330
20
100
AcDbEntity
  8
_0-0_
  6
Continuous
 62
     4
100
AcDbLine
 10
755.5014671944364
 20
621.1288985549495
 30
0.0
 11
774.8199837202175
 21
626.305279457
 31
0.0
  0
LINE
  5
141
330
20
100
AcDbEntity
  8
_0-0_
  6
Continuous
 62
     4
100
AcDbLine
 10
755.5014671944364
 20
621.1288985549495
 30
0.0
 11
774.8199837202175
 21
615.9525176528991
 31
0.0
  0
LINE
  5
142
330
20
100
AcDbEntity
  8
_0-0_
  6
Continuous
 62
     4
100
AcDbLine
 10
705.5014671944364
 20
531.1288985549494
 30
0.0
 11
724.8199837202175
 21
536.3052794569999
 31
0.0
  0
LINE
  5
143
330
20
100
AcDbEntity
  8
_0-0_
  6
Continuous
 62
     4
100
AcDbLine
 10
705.5014671944364
 20
531.1288985549494
 30
0.0
 11
724.8199837202175
 21
525.9525176528991
 31
0.0
  0
LINE
  5
144
330
20
100
AcDbEntity
  8
_0-0_
  6
Continuous
 62
     4
100
AcDbLine
 10
1205.501467194437
 20
531.1288985549494
 30
0.0
 11
1186.182950668655
 21
525.9525176528991
 31
0.0
  0
LINE
  5
145
330
20
100
AcDbEntity
  8
_0-0_
  6
Continuous
 62
     4
100
AcDbLine
 10
1205.501467194437
 20
531.1288985549494
 30
0.0
 11
1186.182950668655
 21
536.3052794569999
 31
0.0
  0
LINE
  5
146
330
20
100
AcDbEntity
  8
_0-0_
  6
Continuous
 62
     4
100
AcDbLine
 10
1255.501467194436
 20
531.1288985549494
 30
0.0
 11
1274.819983720218
 21
536.3052794569999
 31
0.0
  0
LINE
  5
147
330
20
100
AcDbEntity
  8
_0-0_
  6
Continuous
 62
     4
100
AcDbLine
 10
1255.501467194436
 20
531.1288985549494
 30
0.0
 11
1274.819983720218
 21
525.9525176528991
 31
0.0
  0
LINE
  5
148
330
20
100
AcDbEntity
  8
_0-0_
  6
Continuous
 62
     4
100
AcDbLine
 10
655.5014671944364
 20
531.1288985549494
 30
0.0
 11
636.1829506686548
 21
525.9525176528991
 31
0.0
  0
LINE
  5
149
330
20
100
AcDbEntity
  8
_0-0_
  6
Continuous
 62
     4
100
AcDbLine
 10
655.5014671944364
 20
531.1288985549494
 30
0.0
 11
636.1829506686548
 21
536.3052794569999
 31
0.0
  0
TEXT
  5
14A
330
20
100
AcDbEntity
  8
_0-0_
 62
     7
100
AcDbText
 10
897.4077390937869
 20
717.2422955266417
 30
0.0
 40
30.0
  1
φ180
100
AcDbText
  0
TEXT
  5
14B
330
20
100
AcDbEntity
  8
_0-0_
 62
     7
100
AcDbText
 10
1064.415497687888
 20
720.5890564474508
 30
0.0
 40
30.0
  1
10
100
AcDbText
  0
TEXT
  5
14C
330
20
100
AcDbEntity
  8
_0-0_
 62
     7
100
AcDbText
 10
810.7453474152992
 20
720.5890564474508
 30
0.0
 40
30.0
  1
10
100
AcDbText
  0
TEXT
  5
14D
330
20
100
AcDbEntity
  8
_0-0_
 62
     7
100
AcDbText
 10
932.6584426276891
 20
629.1109246119904
 30
0.0
 40
30.0
  1
400
100
AcDbText
  0
TEXT
  5
14E
330
20
100
AcDbEntity
  8
_0-0_
 62
     7
100
AcDbText
 10
932.6584426276891
 20
538.7483797501331
 30
0.0
 40
30.0
  1
500
100
AcDbText
  0
TEXT
  5
14F
330
20
100
AcDbEntity
  8
_0-0_
 62
     7
100
AcDbText
 10
1217.133120896499
 20
538.7483797501331
 30
0.0
 40
30.0
  1
50
100
AcDbText
  0
TEXT
  5
150
330
20
100
AcDbEntity
  8
_0-0_
 62
     7
100
AcDbText
 10
668.2643298837363
 20
537.6327927765299
 30
0.0
 40
30.0
  1
50
100
AcDbText
  0
LINE
  5
151
330
20
100
AcDbEntity
  8
_0-0_
  6
Continuous
 62
     4
100
AcDbLine
 10
645.5014671944363
 20
1371.128898554949
 30
0.0
 11
555.5014671944364
 21
1371.128898554949
 31
0.0
  0
LINE
  5
152
330
20
100
AcDbEntity
  8
_0-0_
  6
Continuous
 62
     4
100
AcDbLine
 10
645.5014671944363
 20
1071.12889855495
 30
0.0
 11
555.5014671944364
 21
1071.12889855495
 31
0.0
  0
LINE
  5
153
330
20
100
AcDbEntity
  8
_0-0_
  6
Continuous
 62
     4
100
AcDbLine
 10
645.5014671944363
 20
871.1288985549495
 30
0.0
 11
465.5014671944363
 21
871.1288985549495
 31
0.0
  0
LINE
  5
154
330
20
100
AcDbEntity
  8
_0-0_
  6
Continuous
 62
     4
100
AcDbLine
 10
645.5014671944363
 20
921.1288985549495
 30
0.0
 11
555.5014671944364
 21
921.1288985549495
 31
0.0
  0
LINE
  5
155
330
20
100
AcDbEntity
  8
_0-0_
  6
Continuous
 62
     4
100
AcDbLine
 10
645.5014671944363
 20
1031.12889855495
 30
0.0
 11
555.5014671944364
 21
1031.12889855495
 31
0.0
  0
LINE
  5
156
330
20
100
AcDbEntity
  8
_0-0_
  6
Continuous
 62
     4
100
AcDbLine
 10
565.5014671944363
 20
1031.12889855495
 30
0.0
 11
565.5014671944363
 21
921.1288985549495
 31
0.0
  0
LINE
  5
157
330
20
100
AcDbEntity
  8
_0-0_
  6
Continuous
 62
     4
100
AcDbLine
 10
565.5014671944363
 20
921.1288985549495
 30
0.0
 11
565.5014671944363
 21
871.1288985549495
 31
0.0
  0
LINE
  5
158
330
20
100
AcDbEntity
  8
_0-0_
  6
Continuous
 62
     4
100
AcDbLine
 10
565.5014671944363
 20
871.1288985549495
 30
0.0
 11
565.5014671944363
 21
821.1288985549495
 31
0.0
  0
LINE
  5
159
330
20
100
AcDbEntity
  8
_0-0_
  6
Continuous
 62
     4
100
AcDbLine
 10
565.5014671944363
 20
1371.128898554949
 30
0.0
 11
565.5014671944363
 21
1071.12889855495
 31
0.0
  0
LINE
  5
15A
330
20
100
AcDbEntity
  8
_0-0_
  6
Continuous
 62
     4
100
AcDbLine
 10
565.5014671944363
 20
1421.12889855495
 30
0.0
 11
565.5014671944363
 21
1371.128898554949
 31
0.0
  0
LINE
  5
15B
330
20
100
AcDbEntity
  8
_0-0_
  6
Continuous
 62
     4
100
AcDbLine
 10
565.5014671944363
 20
1371.128898554949
 30
0.0
 11
570.6778480964868
 21
1351.810382029168
 31
0.0
  0
LINE
  5
15C
330
20
100
AcDbEntity
  8
_0-0_
  6
Continuous
 62
     4
100
AcDbLine
 10
565.5014671944363
 20
1371.128898554949
 30
0.0
 11
560.325086292386
 21
1351.810382029168
 31
0.0
  0
LINE
  5
15D
330
20
100
AcDbEntity
  8
_0-0_
  6
Continuous
 62
     4
100
AcDbLine
 10
565.5014671944363
 20
1071.12889855495
 30
0.0
 11
560.325086292386
 21
1090.44741508073
 31
0.0
  0
LINE
  5
15E
330
20
100
AcDbEntity
  8
_0-0_
  6
Continuous
 62
     4
100
AcDbLine
 10
565.5014671944363
 20
1071.12889855495
 30
0.0
 11
570.6778480964868
 21
1090.44741508073
 31
0.0
  0
LINE
  5
15F
330
20
100
AcDbEntity
  8
_0-0_
  6
Continuous
 62
     4
100
AcDbLine
 10
565.5014671944363
 20
1031.12889855495
 30
0.0
 11
570.6778480964868
 21
1011.810382029168
 31
0.0
  0
LINE
  5
160
330
20
100
AcDbEntity
  8
_0-0_
  6
Continuous
 62
     4
100
AcDbLine
 10
565.5014671944363
 20
1031.12889855495
 30
0.0
 11
560.325086292386
 21
1011.810382029168
 31
0.0
  0
LINE
  5
161
330
20
100
AcDbEntity
  8
_0-0_
  6
Continuous
 62
     4
100
AcDbLine
 10
565.5014671944363
 20
921.1288985549495
 30
0.0
 11
560.325086292386
 21
940.447415080731
 31
0.0
  0
LINE
  5
162
330
20
100
AcDbEntity
  8
_0-0_
  6
Continuous
 62
     4
100
AcDbLine
 10
565.5014671944363
 20
921.1288985549495
 30
0.0
 11
570.6778480964868
 21
940.447415080731
 31
0.0
  0
LINE
  5
163
330
20
100
AcDbEntity
  8
_0-0_
  6
Continuous
 62
     4
100
AcDbLine
 10
565.5014671944363
 20
871.1288985549495
 30
0.0
 11
570.6778480964868
 21
851.8103820291683
 31
0.0
  0
LINE
  5
164
330
20
100
AcDbEntity
  8
_0-0_
  6
Continuous
 62
     4
100
AcDbLine
 10
565.5014671944363
 20
871.1288985549495
 30
0.0
 11
560.325086292386
 21
851.8103820291683
 31
0.0
  0
LINE
  5
165
330
20
100
AcDbEntity
  8
_0-0_
  6
Continuous
 62
     4
100
AcDbLine
 10
565.5014671944363
 20
1471.128898554949
 30
0.0
 11
565.5014671944363
 21
1421.12889855495
 31
0.0
  0
LINE
  5
166
330
20
100
AcDbEntity
  8
_0-0_
  6
Continuous
 62
     4
100
AcDbLine
 10
565.5014671944363
 20
1421.12889855495
 30
0.0
 11
560.325086292386
 21
1440.447415080731
 31
0.0
  0
LINE
  5
167
330
20
100
AcDbEntity
  8
_0-0_
  6
Continuous
 62
     4
100
AcDbLine
 10
565.5014671944363
 20
1421.12889855495
 30
0.0
 11
570.6778480964868
 21
1440.447415080731
 31
0.0
  0
LINE
  5
168
330
20
100
AcDbEntity
  8
_0-0_
  6
Continuous
 62
     4
100
AcDbLine
 10
475.5014671944363
 20
1421.12889855495
 30
0.0
 11
475.5014671944363
 21
871.1288985549495
 31
0.0
  0
LINE
  5
169
330
20
100
AcDbEntity
  8
_0-0_
  6
Continuous
 62
     4
100
AcDbLine
 10
385.5014671944363
 20
1421.12889855495
 30
0.0
 11
385.5014671944363
 21
801.1288985549494
 31
0.0
  0
LINE
  5
16A
330
20
100
AcDbEntity
  8
_0-0_
  6
Continuous
 62
     4
100
AcDbLine
 10
645.5014671944363
 20
1421.12889855495
 30
0.0
 11
375.5014671944363
 21
1421.12889855495
 31
0.0
  0
LINE
  5
16B
330
20
100
AcDbEntity
  8
_0-0_
  6
Continuous
 62
     4
100
AcDbLine
 10
295.5014671944363
 20
1541.12889855495
 30
0.0
 11
300.6778480964868
 21
1521.810382029168
 31
0.0
  0
LINE
  5
16C
330
20
100
AcDbEntity
  8
_0-0_
  6
Continuous
 62
     4
100
AcDbLine
 10
295.5014671944363
 20
1541.12889855495
 30
0.0
 11
290.3250862923861
 21
1521.810382029168
 31
0.0
  0
LINE
  5
16D
330
20
100
AcDbEntity
  8
_0-0_
  6
Continuous
 62
     4
100
AcDbLine
 10
295.5014671944363
 20
801.1288985549494
 30
0.0
 11
290.3250862923861
 21
820.4474150807309
 31
0.0
  0
LINE
  5
16E
330
20
100
AcDbEntity
  8
_0-0_
  6
Continuous
 62
     4
100
AcDbLine
 10
295.5014671944363
 20
801.1288985549494
 30
0.0
 11
300.6778480964868
 21
820.4474150807309
 31
0.0
  0
LINE
  5
16F
330
20
100
AcDbEntity
  8
_0-0_
  6
Continuous
 62
     4
100
AcDbLine
 10
385.5014671944363
 20
801.1288985549494
 30
0.0
 11
380.3250862923861
 21
820.4474150807309
 31
0.0
  0
LINE
  5
170
330
20
100
AcDbEntity
  8
_0-0_
  6
Continuous
 62
     4
100
AcDbLine
 10
385.5014671944363
 20
801.1288985549494
 30
0.0
 11
390.6778480964869
 21
820.4474150807309
 31
0.0
  0
LINE
  5
171
330
20
100
AcDbEntity
  8
_0-0_
  6
Continuous
 62
     4
100
AcDbLine
 10
385.5014671944363
 20
1421.12889855495
 30
0.0
 11
390.6778480964869
 21
1401.810382029168
 31
0.0
  0
LINE
  5
172
330
20
100
AcDbEntity
  8
_0-0_
  6
Continuous
 62
     4
100
AcDbLine
 10
385.5014671944363
 20
1421.12889855495
 30
0.0
 11
380.3250862923861
 21
1401.810382029168
 31
0.0
  0
LINE
  5
173
330
20
100
AcDbEntity
  8
_0-0_
  6
Continuous
 62
     4
100
AcDbLine
 10
475.5014671944363
 20
1421.12889855495
 30
0.0
 11
480.6778480964869
 21
1401.810382029168
 31
0.0
  0
LINE
  5
174
330
20
100
AcDbEntity
  8
_0-0_
  6
Continuous
 62
     4
100
AcDbLine
 10
475.5014671944363
 20
1421.12889855495
 30
0.0
 11
470.325086292386
 21
1401.810382029168
 31
0.0
  0
LINE
  5
175
330
20
100
AcDbEntity
  8
_0-0_
  6
Continuous
 62
     4
100
AcDbLine
 10
475.5014671944363
 20
871.1288985549495
 30
0.0
 11
470.325086292386
 21
890.447415080731
 31
0.0
  0
LINE
  5
176
330
20
100
AcDbEntity
  8
_0-0_
  6
Continuous
 62
     4
100
AcDbLine
 10
475.5014671944363
 20
871.1288985549495
 30
0.0
 11
480.6778480964869
 21
890.447415080731
 31
0.0
  0
LINE
  5
177
330
20
100
AcDbEntity
  8
_0-0_
  6
Continuous
 62
     4
100
AcDbLine
 10
655.5014671944364
 20
431.1288985549494
 30
0.0
 11
655.5014671944364
 21
791.1288985549495
 31
0.0
  0
LINE
  5
178
330
20
100
AcDbEntity
  8
_0-0_
  6
Continuous
 62
     4
100
AcDbLine
 10
1255.501467194436
 20
441.1288985549495
 30
0.0
 11
655.5014671944364
 21
441.1288985549495
 31
0.0
  0
LINE
  5
179
330
20
100
AcDbEntity
  8
_0-0_
  6
Continuous
 62
     4
100
AcDbLine
 10
1255.501467194436
 20
791.1288985549495
 30
0.0
 11
1255.501467194436
 21
431.1288985549494
 31
0.0
  0
LINE
  5
17A
330
20
100
AcDbEntity
  8
_0-0_
  6
Continuous
 62
     4
100
AcDbLine
 10
1255.501467194436
 20
441.1288985549495
 30
0.0
 11
1236.182950668655
 21
435.9525176528991
 31
0.0
  0
LINE
  5
17B
330
20
100
AcDbEntity
  8
_0-0_
  6
Continuous
 62
     4
100
AcDbLine
 10
1255.501467194436
 20
441.1288985549495
 30
0.0
 11
1236.182950668655
 21
446.305279457
 31
0.0
  0
LINE
  5
17C
330
20
100
AcDbEntity
  8
_0-0_
  6
Continuous
 62
     4
100
AcDbLine
 10
655.5014671944364
 20
441.1288985549495
 30
0.0
 11
674.8199837202175
 21
446.305279457
 31
0.0
  0
LINE
  5
17D
330
20
100
AcDbEntity
  8
_0-0_
  6
Continuous
 62
     4
100
AcDbLine
 10
655.5014671944364
 20
441.1288985549495
 30
0.0
 11
674.8199837202175
 21
435.9525176528991
 31
0.0
  0
TEXT
  5
17E
330
20
100
AcDbEntity
  8
_0-0_
 62
     7
100
AcDbText
 10
933.3719452503824
 20
449.958694260953
 30
0.0
 40
30.0
  1
600
100
AcDbText
  0
TEXT
  5
17F
330
20
100
AcDbEntity
  8
_0-0_
 62
     7
100
AcDbText
 10
556.8487914204502
 20
1369.663519220374
 30
0.0
 40
30.0
  1
50
 50
90.0
100
AcDbText
  0
TEXT
  5
180
330
20
100
AcDbEntity
  8
_0-0_
 62
     7
100
AcDbText
 10
556.8487914204502
 20
880.732799530193
 30
0.0
 40
30.0
  1
50
 50
90.0
100
AcDbText
  0
TEXT
  5
181
330
20
100
AcDbEntity
  8
_0-0_
 62
     7
100
AcDbText
 10
553.9204879160027
 20
953.9403871413822
 30
0.0
 40
30.0
  1
110
 50
90.0
100
AcDbText
  0
TEXT
  5
182
330
20
100
AcDbEntity
  8
_0-0_
 62
     7
100
AcDbText
 10
555.3846396682265
 20
1198.453729762751
 30
0.0
 40
30.0
  1
300
 50
90.0
100
AcDbText
  0
LINE
  5
183
330
20
100
AcDbEntity
  8
_0-0_
  6
Continuous
 62
     4
100
AcDbLine
 10
475.5014671944363
 20
871.1288985549495
 30
0.0
 11
475.5014671944363
 21
801.1288985549494
 31
0.0
  0
LINE
  5
184
330
20
100
AcDbEntity
  8
_0-0_
  6
Continuous
 62
     4
100
AcDbLine
 10
475.5014671944363
 20
871.1288985549495
 30
0.0
 11
480.6778480964869
 21
851.8103820291683
 31
0.0
  0
LINE
  5
185
330
20
100
AcDbEntity
  8
_0-0_
  6
Continuous
 62
     4
100
AcDbLine
 10
475.5014671944363
 20
871.1288985549495
 30
0.0
 11
470.325086292386
 21
851.8103820291683
 31
0.0
  0
LINE
  5
186
330
20
100
AcDbEntity
  8
_0-0_
  6
Continuous
 62
     4
100
AcDbLine
 10
475.5014671944363
 20
801.1288985549494
 30
0.0
 11
470.325086292386
 21
820.4474150807309
 31
0.0
  0
LINE
  5
187
330
20
100
AcDbEntity
  8
_0-0_
  6
Continuous
 62
     4
100
AcDbLine
 10
475.5014671944363
 20
801.1288985549494
 30
0.0
 11
480.6778480964869
 21
820.4474150807309
 31
0.0
  0
TEXT
  5
188
330
20
100
AcDbEntity
  8
_0-0_
 62
     7
100
AcDbText
 10
468.9996862870239
 20
1125.246142151563
 30
0.0
 40
30.0
  1
550
 50
90.0
100
AcDbText
  0
TEXT
  5
189
330
20
100
AcDbEntity
  8
_0-0_
 62
     7
100
AcDbText
 10
466.0713827825765
 20
820.7025776890189
 30
0.0
 40
30.0
  1
70
 50
90.0
100
AcDbText
  0
TEXT
  5
18A
330
20
100
AcDbEntity
  8
_0-0_
 62
     7
100
AcDbText
 10
376.7581258969266
 20
1088.642348345969
 30
0.0
 40
30.0
  1
620
 50
90.0
100
AcDbText
  0
TEXT
  5
18B
330
20
100
AcDbEntity
  8
_0-0_
 62
     7
100
AcDbText
 10
285.9807172590527
 20
1150.136721939367
 30
0.0
 40
30.0
  1
740
 50
90.0
100
AcDbText
  0
LINE
  5
18C
330
20
100
AcDbEntity
  8
_0-0_
  6
Continuous
 62
     4
100
AcDbLine
 10
385.5014671944363
 20
1421.12889855495
 30
0.0
 11
385.5014671944363
 21
1541.12889855495
 31
0.0
  0
LINE
  5
18D
330
20
100
AcDbEntity
  8
_0-0_
  6
Continuous
 62
     4
100
AcDbLine
 10
385.5014671944363
 20
1541.12889855495
 30
0.0
 11
390.6778480964869
 21
1521.810382029168
 31
0.0
  0
LINE
  5
18E
330
20
100
AcDbEntity
  8
_0-0_
  6
Continuous
 62
     4
100
AcDbLine
 10
385.5014671944363
 20
1541.12889855495
 30
0.0
 11
380.3250862923861
 21
1521.810382029168
 31
0.0
  0
LINE
  5
18F
330
20
100
AcDbEntity
  8
_0-0_
  6
Continuous
 62
     4
100
AcDbLine
 10
385.5014671944363
 20
1421.12889855495
 30
0.0
 11
380.3250862923861
 21
1440.447415080731
 31
0.0
  0
LINE
  5
190
330
20
100
AcDbEntity
  8
_0-0_
  6
Continuous
 62
     4
100
AcDbLine
 10
385.5014671944363
 20
1421.12889855495
 30
0.0
 11
390.6778480964869
 21
1440.447415080731
 31
0.0
  0
TEXT
  5
191
330
20
100
AcDbEntity
  8
_0-0_
 62
     7
100
AcDbText
 10
376.7581258969266
 20
1459.072741658583
 30
0.0
 40
30.0
  1
120
 50
90.0
100
AcDbText
  0
LINE
  5
192
330
20
100
AcDbEntity
  8
_0-0_
  6
Continuous
 62
     4
100
AcDbLine
 10
730.5014671944364
 20
1551.12889855495
 30
0.0
 11
730.5014671944364
 21
1641.128898554949
 31
0.0
  0
LINE
  5
193
330
20
100
AcDbEntity
  8
_0-0_
  6
Continuous
 62
     4
100
AcDbLine
 10
1180.501467194436
 20
1641.128898554949
 30
0.0
 11
1180.501467194436
 21
1551.12889855495
 31
0.0
  0
LINE
  5
194
330
20
100
AcDbEntity
  8
_0-0_
  6
Continuous
 62
     4
100
AcDbLine
 10
655.5014671944364
 20
1631.12889855495
 30
0.0
 11
730.5014671944364
 21
1631.12889855495
 31
0.0
  0
LINE
  5
195
330
20
100
AcDbEntity
  8
_0-0_
  6
Continuous
 62
     4
100
AcDbLine
 10
1180.501467194436
 20
1631.12889855495
 30
0.0
 11
1255.501467194436
 21
1631.12889855495
 31
0.0
  0
LINE
  5
196
330
20
100
AcDbEntity
  8
_0-0_
  6
Continuous
 62
     4
100
AcDbLine
 10
1180.501467194436
 20
1631.12889855495
 30
0.0
 11
730.5014671944364
 21
1631.12889855495
 31
0.0
  0
LINE
  5
197
330
20
100
AcDbEntity
  8
_0-0_
  6
Continuous
 62
     7
100
AcDbLine
 10
655.5014671944364
 20
1481.12889855495
 30
0.0
 11
655.5014671944364
 21
811.1288985549494
 31
0.0
  0
LINE
  5
198
330
20
100
AcDbEntity
  8
_0-0_
  6
Continuous
 62
     7
100
AcDbLine
 10
1255.501467194436
 20
1481.12889855495
 30
0.0
 11
1255.501467194436
 21
811.1288985549494
 31
0.0
  0
LINE
  5
199
330
20
100
AcDbEntity
  8
_0-0_
  6
Continuous
 62
     4
100
AcDbLine
 10
665.5014671944363
 20
1541.12889855495
 30
0.0
 11
285.5014671944363
 21
1541.12889855495
 31
0.0
  0
LINE
  5
19A
330
20
100
AcDbEntity
  8
_0-0_
  6
Continuous
 62
     4
100
AcDbLine
 10
655.5014671944364
 20
1501.12889855495
 30
0.0
 11
655.5014671944364
 21
1731.12889855495
 31
0.0
  0
LINE
  5
19B
330
20
100
AcDbEntity
  8
_0-0_
  6
Continuous
 62
     4
100
AcDbLine
 10
1255.501467194436
 20
1731.12889855495
 30
0.0
 11
1255.501467194436
 21
1501.12889855495
 31
0.0
  0
LINE
  5
19C
330
20
100
AcDbEntity
  8
_0-0_
  6
DASHED1
 62
   136
100
AcDbLine
 10
695.5014671944363
 20
1481.12889855495
 30
0.0
 11
695.5014671944363
 21
1421.12889855495
 31
0.0
  0
LINE
  5
19D
330
20
100
AcDbEntity
  8
_0-0_
  6
DASHED1
 62
   136
100
AcDbLine
 10
655.5014671944364
 20
1481.12889855495
 30
0.0
 11
695.5014671944363
 21
1481.12889855495
 31
0.0
  0
LINE
  5
19E
330
20
100
AcDbEntity
  8
_0-0_
  6
DASHED1
 62
   136
100
AcDbLine
 10
1215.501467194436
 20
1481.12889855495
 30
0.0
 11
1215.501467194436
 21
1421.12889855495
 31
0.0
  0
LINE
  5
19F
330
20
100
AcDbEntity
  8
_0-0_
  6
DASHED1
 62
   136
100
AcDbLine
 10
730.5014671944364
 20
1481.12889855495
 30
0.0
 11
1180.501467194436
 21
1481.12889855495
 31
0.0
  0
LINE
  5
1A0
330
20
100
AcDbEntity
  8
_0-0_
  6
DASHED1
 62
   136
100
AcDbLine
 10
1215.501467194436
 20
1481.12889855495
 30
0.0
 11
1255.501467194436
 21
1481.12889855495
 31
0.0
  0
LINE
  5
1A1
330
20
100
AcDbEntity
  8
_0-0_
  6
DASHED1
 62
   136
100
AcDbLine
 10
730.5014671944364
 20
1481.12889855495
 30
0.0
 11
720.5014671944363
 21
1421.12889855495
 31
0.0
  0
LINE
  5
1A2
330
20
100
AcDbEntity
  8
_0-0_
  6
DASHED1
 62
   136
100
AcDbLine
 10
1180.501467194436
 20
1481.12889855495
 30
0.0
 11
1190.501467194436
 21
1421.12889855495
 31
0.0
  0
LINE
  5
1A3
330
20
100
AcDbEntity
  8
_0-0_
  6
DASHED1
 62
     5
100
AcDbLine
 10
724.5014671944363
 20
1526.12889855495
 30
0.0
 11
723.5014671944363
 21
1496.12889855495
 31
0.0
  0
LINE
  5
1A4
330
20
100
AcDbEntity
  8
_0-0_
  6
DASHED1
 62
     5
100
AcDbLine
 10
693.5014671944363
 20
1488.12889855495
 30
0.0
 11
693.5014671944363
 21
1496.12889855495
 31
0.0
  0
LINE
  5
1A5
330
20
100
AcDbEntity
  8
_0-0_
  6
DASHED1
 62
     5
100
AcDbLine
 10
704.5014671944364
 20
1541.12889855495
 30
0.0
 11
703.5014671944363
 21
1496.12889855495
 31
0.0
  0
LINE
  5
1A6
330
20
100
AcDbEntity
  8
_0-0_
  6
DASHED1
 62
     5
100
AcDbLine
 10
710.5014671944366
 20
1541.12889855495
 30
0.0
 11
711.5014671944366
 21
1496.12889855495
 31
0.0
  0
LINE
  5
1A7
330
20
100
AcDbEntity
  8
_0-0_
  6
DASHED1
 62
     5
100
AcDbLine
 10
693.5014671944363
 20
1496.12889855495
 30
0.0
 11
703.5014671944363
 21
1496.12889855495
 31
0.0
  0
LINE
  5
1A8
330
20
100
AcDbEntity
  8
_0-0_
  6
DASHED1
 62
     5
100
AcDbLine
 10
711.5014671944366
 20
1496.12889855495
 30
0.0
 11
723.5014671944363
 21
1496.12889855495
 31
0.0
  0
LINE
  5
1A9
330
20
100
AcDbEntity
  8
_0-0_
  6
DASHED1
 62
     5
100
AcDbLine
 10
693.5014671944363
 20
1488.12889855495
 30
0.0
 11
730.5014671944364
 21
1488.12889855495
 31
0.0
  0
LINE
  5
1AA
330
20
100
AcDbEntity
  8
_0-0_
  6
DASHED1
 62
     5
100
AcDbLine
 10
730.5014671944364
 20
1526.12889855495
 30
0.0
 11
724.5014671944363
 21
1526.12889855495
 31
0.0
  0
LINE
  5
1AB
330
20
100
AcDbEntity
  8
_0-0_
  6
DASHED1
 62
   136
100
AcDbLine
 10
730.5014671944364
 20
1481.12889855495
 30
0.0
 11
730.5014671944364
 21
1488.12889855495
 31
0.0
  0
LINE
  5
1AC
330
20
100
AcDbEntity
  8
_0-0_
  6
DASHED1
 62
     5
100
AcDbLine
 10
730.5014671944364
 20
1488.12889855495
 30
0.0
 11
730.5014671944364
 21
1526.12889855495
 31
0.0
  0
LINE
  5
1AD
330
20
100
AcDbEntity
  8
_0-0_
  6
DASHED1
 62
     5
100
AcDbLine
 10
1186.501467194436
 20
1526.12889855495
 30
0.0
 11
1187.501467194437
 21
1496.12889855495
 31
0.0
  0
LINE
  5
1AE
330
20
100
AcDbEntity
  8
_0-0_
  6
DASHED1
 62
     5
100
AcDbLine
 10
1200.501467194436
 20
1541.12889855495
 30
0.0
 11
1199.501467194436
 21
1496.12889855495
 31
0.0
  0
LINE
  5
1AF
330
20
100
AcDbEntity
  8
_0-0_
  6
DASHED1
 62
     5
100
AcDbLine
 10
1206.501467194436
 20
1541.12889855495
 30
0.0
 11
1207.501467194436
 21
1496.12889855495
 31
0.0
  0
LINE
  5
1B0
330
20
100
AcDbEntity
  8
_0-0_
  6
DASHED1
 62
     5
100
AcDbLine
 10
1187.501467194437
 20
1496.12889855495
 30
0.0
 11
1217.501467194436
 21
1496.12889855495
 31
0.0
  0
LINE
  5
1B1
330
20
100
AcDbEntity
  8
_0-0_
  6
DASHED1
 62
     5
100
AcDbLine
 10
1217.501467194436
 20
1488.12889855495
 30
0.0
 11
1217.501467194436
 21
1496.12889855495
 31
0.0
  0
LINE
  5
1B2
330
20
100
AcDbEntity
  8
_0-0_
  6
DASHED1
 62
     5
100
AcDbLine
 10
1180.501467194436
 20
1488.12889855495
 30
0.0
 11
1217.501467194436
 21
1488.12889855495
 31
0.0
  0
LINE
  5
1B3
330
20
100
AcDbEntity
  8
_0-0_
  6
DASHED1
 62
   136
100
AcDbLine
 10
730.5014671944364
 20
1526.12889855495
 30
0.0
 11
1180.501467194436
 21
1526.12889855495
 31
0.0
  0
LINE
  5
1B4
330
20
100
AcDbEntity
  8
_0-0_
  6
DASHED1
 62
     5
100
AcDbLine
 10
1186.501467194436
 20
1526.12889855495
 30
0.0
 11
1180.501467194436
 21
1526.12889855495
 31
0.0
  0
LINE
  5
1B5
330
20
100
AcDbEntity
  8
_0-0_
  6
DASHED1
 62
   136
100
AcDbLine
 10
1180.501467194436
 20
1481.12889855495
 30
0.0
 11
1180.501467194436
 21
1488.12889855495
 31
0.0
  0
LINE
  5
1B6
330
20
100
AcDbEntity
  8
_0-0_
  6
DASHED1
 62
     5
100
AcDbLine
 10
1180.501467194436
 20
1488.12889855495
 30
0.0
 11
1180.501467194436
 21
1526.12889855495
 31
0.0
  0
LINE
  5
1B7
330
20
100
AcDbEntity
  8
_0-0_
  6
Continuous
 62
     4
100
AcDbLine
 10
655.5014671944364
 20
1721.128898554949
 30
0.0
 11
674.8199837202175
 21
1726.305279457
 31
0.0
  0
LINE
  5
1B8
330
20
100
AcDbEntity
  8
_0-0_
  6
Continuous
 62
     4
100
AcDbLine
 10
655.5014671944364
 20
1721.128898554949
 30
0.0
 11
674.8199837202175
 21
1715.952517652899
 31
0.0
  0
LINE
  5
1B9
330
20
100
AcDbEntity
  8
_0-0_
  6
Continuous
 62
     4
100
AcDbLine
 10
1255.501467194436
 20
1721.128898554949
 30
0.0
 11
1236.182950668655
 21
1715.952517652899
 31
0.0
  0
LINE
  5
1BA
330
20
100
AcDbEntity
  8
_0-0_
  6
Continuous
 62
     4
100
AcDbLine
 10
1255.501467194436
 20
1721.128898554949
 30
0.0
 11
1236.182950668655
 21
1726.305279457
 31
0.0
  0
LINE
  5
1BB
330
20
100
AcDbEntity
  8
_0-0_
  6
Continuous
 62
     4
100
AcDbLine
 10
1255.501467194436
 20
1631.12889855495
 30
0.0
 11
1236.182950668655
 21
1625.952517652899
 31
0.0
  0
LINE
  5
1BC
330
20
100
AcDbEntity
  8
_0-0_
  6
Continuous
 62
     4
100
AcDbLine
 10
1255.501467194436
 20
1631.12889855495
 30
0.0
 11
1236.182950668655
 21
1636.305279457
 31
0.0
  0
LINE
  5
1BD
330
20
100
AcDbEntity
  8
_0-0_
  6
Continuous
 62
     4
100
AcDbLine
 10
1180.501467194436
 20
1631.12889855495
 30
0.0
 11
1199.819983720218
 21
1636.305279457
 31
0.0
  0
LINE
  5
1BE
330
20
100
AcDbEntity
  8
_0-0_
  6
Continuous
 62
     4
100
AcDbLine
 10
1180.501467194436
 20
1631.12889855495
 30
0.0
 11
1199.819983720218
 21
1625.952517652899
 31
0.0
  0
LINE
  5
1BF
330
20
100
AcDbEntity
  8
_0-0_
  6
Continuous
 62
     4
100
AcDbLine
 10
1180.501467194436
 20
1631.12889855495
 30
0.0
 11
1161.182950668655
 21
1625.952517652899
 31
0.0
  0
LINE
  5
1C0
330
20
100
AcDbEntity
  8
_0-0_
  6
Continuous
 62
     4
100
AcDbLine
 10
1180.501467194436
 20
1631.12889855495
 30
0.0
 11
1161.182950668655
 21
1636.305279457
 31
0.0
  0
LINE
  5
1C1
330
20
100
AcDbEntity
  8
_0-0_
  6
Continuous
 62
     4
100
AcDbLine
 10
730.5014671944364
 20
1631.12889855495
 30
0.0
 11
749.8199837202175
 21
1636.305279457
 31
0.0
  0
LINE
  5
1C2
330
20
100
AcDbEntity
  8
_0-0_
  6
Continuous
 62
     4
100
AcDbLine
 10
730.5014671944364
 20
1631.12889855495
 30
0.0
 11
749.8199837202175
 21
1625.952517652899
 31
0.0
  0
LINE
  5
1C3
330
20
100
AcDbEntity
  8
_0-0_
  6
Continuous
 62
     4
100
AcDbLine
 10
730.5014671944364
 20
1631.12889855495
 30
0.0
 11
711.1829506686549
 21
1625.952517652899
 31
0.0
  0
LINE
  5
1C4
330
20
100
AcDbEntity
  8
_0-0_
  6
Continuous
 62
     4
100
AcDbLine
 10
730.5014671944364
 20
1631.12889855495
 30
0.0
 11
711.1829506686549
 21
1636.305279457
 31
0.0
  0
LINE
  5
1C5
330
20
100
AcDbEntity
  8
_0-0_
  6
Continuous
 62
     4
100
AcDbLine
 10
655.5014671944364
 20
1631.12889855495
 30
0.0
 11
674.8199837202175
 21
1636.305279457
 31
0.0
  0
LINE
  5
1C6
330
20
100
AcDbEntity
  8
_0-0_
  6
Continuous
 62
     4
100
AcDbLine
 10
655.5014671944364
 20
1631.12889855495
 30
0.0
 11
674.8199837202175
 21
1625.952517652899
 31
0.0
  0
TEXT
  5
1C7
330
20
100
AcDbEntity
  8
_0-0_
 62
     7
100
AcDbText
 10
917.5793116424571
 20
1728.421366010193
 30
0.0
 40
30.0
  1
600
100
AcDbText
  0
TEXT
  5
1C8
330
20
100
AcDbEntity
  8
_0-0_
 62
     7
100
AcDbText
 10
903.7271115532643
 20
1639.371508293955
 30
0.0
 40
30.0
  1
φ450
100
AcDbText
  0
TEXT
  5
1C9
330
20
100
AcDbEntity
  8
_0-0_
 62
     7
100
AcDbText
 10
678.7027549936344
 20
1640.360951157468
 30
0.0
 40
30.0
  1
75
100
AcDbText
  0
TEXT
  5
1CA
330
20
100
AcDbEntity
  8
_0-0_
 62
     7
100
AcDbText
 10
1187.697213381717
 20
1638.382065430441
 30
0.0
 40
30.0
  1
75
100
AcDbText
  0
LINE
  5
1CB
330
20
100
AcDbEntity
  8
_0-0_
  6
Continuous
 62
     7
100
AcDbLine
 10
673.2222264144925
 20
1534.291176215118
 30
0.0
 11
655.5014671944364
 21
1481.12889855495
 31
0.0
  0
ARC
  5
1CC
330
20
100
AcDbEntity
  8
_0-0_
  6
Continuous
 62
     7
100
AcDbCircle
 10
682.7090593949976
 20
1531.12889855495
 30
0.0
 40
10.0
100
AcDbArc
 50
90.0
 51
161.565051177078
  0
LINE
  5
1CD
330
20
100
AcDbEntity
  8
_0-0_
  6
Continuous
 62
     7
100
AcDbLine
 10
1228.293874993875
 20
1541.12889855495
 30
0.0
 11
682.7090593949976
 21
1541.12889855495
 31
0.0
  0
LINE
  5
1CE
330
20
100
AcDbEntity
  8
_0-0_
  6
Continuous
 62
     7
100
AcDbLine
 10
1237.78070797438
 20
1534.291176215118
 30
0.0
 11
1255.501467194436
 21
1481.12889855495
 31
0.0
  0
ARC
  5
1CF
330
20
100
AcDbEntity
  8
_0-0_
  6
Continuous
 62
     7
100
AcDbCircle
 10
1228.293874993875
 20
1531.12889855495
 30
0.0
 40
10.0
100
AcDbArc
 50
18.434948822922
 51
90.00000000000003
  0
LINE
  5
1D0
330
20
100
AcDbEntity
  8
_0-0_
  6
Continuous
 62
     4
100
AcDbLine
 10
964.3837283464712
 20
1075.722963947066
 30
0.0
 11
1284.182987147751
 21
1241.128898554949
 31
0.0
  0
LINE
  5
1D1
330
20
100
AcDbEntity
  8
_0-0_
  6
Continuous
 62
     4
100
AcDbLine
 10
964.3837283464712
 20
1075.722963947066
 30
0.0
 11
979.1648759958084
 21
1089.195813466322
 31
0.0
  0
LINE
  5
1D2
330
20
100
AcDbEntity
  8
_0-0_
  6
Continuous
 62
     4
100
AcDbLine
 10
964.3837283464712
 20
1075.722963947066
 30
0.0
 11
983.9210024675136
 21
1080.000220067438
 31
0.0
  0
TEXT
  5
1D3
330
20
100
AcDbEntity
  8
_0-0_
 62
     7
100
AcDbText
 10
1288.335754073538
 20
1247.168604910109
 30
0.0
 40
30.0
  1
インサート　M12
100
AcDbText
  0
LINE
  5
1D4
330
20
100
AcDbEntity
  8
_0-0_
  6
Continuous
 62
     4
100
AcDbLine
 10
1587.35281527215
 20
1241.128898554949
 30
0.0
 11
1284.182987147751
 21
1241.128898554949
 31
0.0
  0
TEXT
  5
1D5
330
20
100
AcDbEntity
  8
_0-0_
 62
     7
100
AcDbText
 10
1346.808500286611
 20
1096.97291288079
 30
0.0
 40
30.0
  1
B1-550
 41
0.6200000000000001
100
AcDbText
  0
LINE
  5
1D6
330
20
100
AcDbEntity
  8
_0-0_
  6
Continuous
 62
     7
100
AcDbLine
 10
1345.501467194436
 20
1501.12889855495
 30
0.0
 11
1305.501467194436
 21
1481.12889855495
 31
0.0
  0
LINE
  5
1D7
330
20
100
AcDbEntity
  8
_0-0_
  6
Continuous
 62
     7
100
AcDbLine
 10
1305.501467194436
 20
1481.12889855495
 30
0.0
 11
1345.501467194436
 21
1461.12889855495
 31
0.0
  0
LINE
  5
1D8
330
20
100
AcDbEntity
  8
_0-0_
  6
Continuous
 62
     7
100
AcDbLine
 10
1345.501467194436
 20
1131.128898554949
 30
0.0
 11
1445.501467194437
 21
1131.128898554949
 31
0.0
  0
LINE
  5
1D9
330
20
100
AcDbEntity
  8
_0-0_
  6
Continuous
 62
     7
100
AcDbLine
 10
1345.501467194436
 20
1091.128898554949
 30
0.0
 11
1445.501467194437
 21
1091.128898554949
 31
0.0
  0
LINE
  5
1DA
330
20
100
AcDbEntity
  8
_0-0_
  6
Continuous
 62
     7
100
AcDbLine
 10
1445.501467194437
 20
1131.128898554949
 30
0.0
 11
1445.501467194437
 21
1091.128898554949
 31
0.0
  0
LINE
  5
1DB
330
20
100
AcDbEntity
  8
_0-0_
  6
Continuous
 62
     7
100
AcDbLine
 10
1305.501467194436
 20
1111.12889855495
 30
0.0
 11
1345.501467194436
 21
1091.128898554949
 31
0.0
  0
LINE
  5
1DC
330
20
100
AcDbEntity
  8
_0-0_
  6
Continuous
 62
     7
100
AcDbLine
 10
1345.501467194436
 20
1131.128898554949
 30
0.0
 11
1305.501467194436
 21
1111.12889855495
 31
0.0
  0
LINE
  5
1DD
330
20
100
AcDbEntity
  8
_0-0_
  6
Continuous
 62
   136
100
AcDbLine
 10
745.5014671944363
 20
1041.12889855495
 30
0.0
 11
745.5014671944363
 21
911.1288985549496
 31
0.0
  0
LINE
  5
1DE
330
20
100
AcDbEntity
  8
_0-0_
  6
Continuous
 62
   136
100
AcDbLine
 10
755.5014671944364
 20
1031.12889855495
 30
0.0
 11
755.5014671944364
 21
921.1288985549495
 31
0.0
  0
LINE
  5
1DF
330
20
100
AcDbEntity
  8
_0-0_
  6
Continuous
 62
   136
100
AcDbLine
 10
755.5014671944364
 20
1031.12889855495
 30
0.0
 11
1155.501467194437
 21
1031.12889855495
 31
0.0
  0
LINE
  5
1E0
330
20
100
AcDbEntity
  8
_0-0_
  6
Continuous
 62
   136
100
AcDbLine
 10
745.5014671944363
 20
1041.12889855495
 30
0.0
 11
1165.501467194436
 21
1041.12889855495
 31
0.0
  0
LINE
  5
1E1
330
20
100
AcDbEntity
  8
_0-0_
  6
Continuous
 62
   136
100
AcDbLine
 10
745.5014671944363
 20
1041.12889855495
 30
0.0
 11
755.5014671944364
 21
1031.12889855495
 31
0.0
  0
LINE
  5
1E2
330
20
100
AcDbEntity
  8
_0-0_
  6
Continuous
 62
   136
100
AcDbLine
 10
755.5014671944364
 20
921.1288985549495
 30
0.0
 11
745.5014671944363
 21
911.1288985549496
 31
0.0
  0
LINE
  5
1E3
330
20
100
AcDbEntity
  8
_0-0_
  6
Continuous
 62
   136
100
AcDbLine
 10
745.5014671944363
 20
911.1288985549496
 30
0.0
 11
1165.501467194436
 21
911.1288985549496
 31
0.0
  0
LINE
  5
1E4
330
20
100
AcDbEntity
  8
_0-0_
  6
Continuous
 62
   136
100
AcDbLine
 10
755.5014671944364
 20
921.1288985549495
 30
0.0
 11
1155.501467194437
 21
921.1288985549495
 31
0.0
  0
LINE
  5
1E5
330
20
100
AcDbEntity
  8
_0-0_
  6
Continuous
 62
   136
100
AcDbLine
 10
1155.501467194437
 20
1031.12889855495
 30
0.0
 11
1155.501467194437
 21
921.1288985549495
 31
0.0
  0
LINE
  5
1E6
330
20
100
AcDbEntity
  8
_0-0_
  6
Continuous
 62
   136
100
AcDbLine
 10
1165.501467194436
 20
1041.12889855495
 30
0.0
 11
1165.501467194436
 21
911.1288985549496
 31
0.0
  0
LINE
  5
1E7
330
20
100
AcDbEntity
  8
_0-0_
  6
Continuous
 62
   136
100
AcDbLine
 10
1155.501467194437
 20
921.1288985549495
 30
0.0
 11
1165.501467194436
 21
911.1288985549496
 31
0.0
  0
LINE
  5
1E8
330
20
100
AcDbEntity
  8
_0-0_
  6
Continuous
 62
   136
100
AcDbLine
 10
1165.501467194436
 20
1041.12889855495
 30
0.0
 11
1155.501467194437
 21
1031.12889855495
 31
0.0
  0
CIRCLE
  5
1E9
330
20
100
AcDbEntity
  8
_0-0_
  6
Continuous
 62
   136
100
AcDbCircle
 10
2267.453917050691
 20
1167.442396313364
 30
0.0
 40
300.0
  0
LINE
  5
1EA
330
20
100
AcDbEntity
  8
_0-0_
  6
Continuous
 62
     4
100
AcDbLine
 10
2462.30963290219
 20
1279.942396313364
 30
0.0
 11
2072.598201199193
 21
1054.942396313364
 31
0.0
  0
LINE
  5
1EB
330
20
100
AcDbEntity
  8
_0-0_
  6
Continuous
 62
     4
100
AcDbLine
 10
2462.30963290219
 20
1279.942396313364
 30
0.0
 11
2448.16749727846
 21
1265.800260689633
 31
0.0
  0
LINE
  5
1EC
330
20
100
AcDbEntity
  8
_0-0_
  6
Continuous
 62
     4
100
AcDbLine
 10
2462.30963290219
 20
1279.942396313364
 30
0.0
 11
2442.991116376409
 21
1274.766015411313
 31
0.0
  0
LINE
  5
1ED
330
20
100
AcDbEntity
  8
_0-0_
  6
Continuous
 62
     4
100
AcDbLine
 10
2072.598201199193
 20
1054.942396313364
 30
0.0
 11
2086.740336822923
 21
1069.084531937094
 31
0.0
  0
LINE
  5
1EE
330
20
100
AcDbEntity
  8
_0-0_
  6
Continuous
 62
     4
100
AcDbLine
 10
2072.598201199193
 20
1054.942396313364
 30
0.0
 11
2091.916717724974
 21
1060.118777215414
 31
0.0
  0
TEXT
  5
1EF
330
20
100
AcDbEntity
  8
_0-0_
 62
     7
100
AcDbText
 10
2223.187118208124
 20
1151.344764762619
 30
0.0
 40
30.0
  1
φ450
 50
30.0
100
AcDbText
  0
LINE
  5
1F0
330
20
100
AcDbEntity
  8
_0-0_
  6
Continuous
 62
     7
100
AcDbLine
 10
146.1144578313252
 20
1916.325301204819
 30
0.0
 11
446.1144578313252
 21
1916.325301204819
 31
0.0
  0
LINE
  5
1F1
330
20
100
AcDbEntity
  8
_0-0_
  6
Continuous
 62
     7
100
AcDbLine
 10
446.1144578313252
 20
1916.325301204819
 30
0.0
 11
446.1144578313252
 21
1986.32530120482
 31
0.0
  0
TEXT
  5
1F2
330
20
100
AcDbEntity
  8
_0-0_
 62
     3
100
AcDbText
 10
155.2455047732392
 20
1926.764637176411
 30
0.0
 40
50.0
  1
組立構造図
100
AcDbText
  0
LINE
  5
1F3
330
20
100
AcDbEntity
  8
_0-0_
  6
Continuous
 62
     7
100
AcDbLine
 10
1345.501467194436
 20
1501.12889855495
 30
0.0
 11
1445.501467194437
 21
1501.12889855495
 31
0.0
  0
LINE
  5
1F4
330
20
100
AcDbEntity
  8
_0-0_
  6
Continuous
 62
     7
100
AcDbLine
 10
1345.501467194436
 20
1461.12889855495
 30
0.0
 11
1445.501467194437
 21
1461.12889855495
 31
0.0
  0
LINE
  5
1F5
330
20
100
AcDbEntity
  8
_0-0_
  6
Continuous
 62
     7
100
AcDbLine
 10
1445.501467194437
 20
1461.12889855495
 30
0.0
 11
1445.501467194437
 21
1501.12889855495
 31
0.0
  0
TEXT
  5
1F6
330
20
100
AcDbEntity
  8
_0-0_
 62
     7
100
AcDbText
 10
1351.677828386007
 20
1465.771353552674
 30
0.0
 40
30.0
  1
BS
100
AcDbText
  0
LINE
  5
1F7
330
20
100
AcDbEntity
  8
_0-0_
  6
DASHED1
 62
     6
100
AcDbLine
 10
2257.453917050691
 20
917.4423963133639
 30
0.0
 11
2257.453917050691
 21
882.4423963133639
 31
0.0
  0
LINE
  5
1F8
330
20
100
AcDbEntity
  8
_0-0_
  6
DASHED1
 62
     6
100
AcDbLine
 10
2257.453917050691
 20
882.4423963133639
 30
0.0
 11
2277.453917050692
 21
882.4423963133639
 31
0.0
  0
LINE
  5
1F9
330
20
100
AcDbEntity
  8
_0-0_
  6
DASHED1
 62
     6
100
AcDbLine
 10
2277.453917050692
 20
917.4423963133639
 30
0.0
 11
2277.453917050692
 21
882.4423963133639
 31
0.0
  0
CIRCLE
  5
1FA
330
20
100
AcDbEntity
  8
_0-0_
  6
DASHED1
 62
     6
100
AcDbCircle
 10
955.5014671944364
 20
1371.128898554949
 30
0.0
 40
10.0
  0
CIRCLE
  5
1FB
330
20
100
AcDbEntity
  8
_0-0_
  6
DASHED1
 62
     6
100
AcDbCircle
 10
955.5014671944364
 20
1071.12889855495
 30
0.0
 40
10.0
  0
TEXT
  5
1FC
330
20
100
AcDbEntity
  8
_0-0_
 62
     7
100
AcDbText
 10
1916.563805027193
 20
267.2294828962961
 30
0.0
 40
30.0
  1
H-05055(BS)
100
AcDbText
  0
TEXT
  5
1FD
330
20
100
AcDbEntity
  8
_0-0_
 62
     7
100
AcDbText
 10
2016.090391828867
 20
316.1717081809395
 30
0.0
 40
30.0
  1
500型
100
AcDbText
  0
TEXT
  5
1FE
330
20
100
AcDbEntity
  8
_0-0_
 62
     7
100
AcDbText
 10
1930.046802215541
 20
366.6927149263778
 30
0.0
 40
30.0
  1
ＦＫ式ハンドホール
100
AcDbText
  0
ENDSEC
  0
SECTION
  2
OBJECTS
  0
DICTIONARY
  5
C
330
0
100
AcDbDictionary
281
     1
  3
ACAD_COLOR
350
1B
  3
ACAD_GROUP
350
D
  3
ACAD_LAYOUT
350
19
  3
ACAD_MATERIAL
350
1A
  3
ACAD_MLINESTYLE
350
16
  3
ACAD_PLOTSETTINGS
350
18
  3
ACAD_PLOTSTYLENAME
350
E
  3
ACDBHEADERROUNDTRIPXREC
350
205
  3
AcDbVariableDictionary
350
201
  0
DICTIONARY
  5
1B
102
{ACAD_REACTORS
330
C
102
}
330
C
100
AcDbDictionary
281
     1
  0
DICTIONARY
  5
D
102
{ACAD_REACTORS
330
C
102
}
330
C
100
AcDbDictionary
281
     1
  0
DICTIONARY
  5
19
102
{ACAD_REACTORS
330
C
102
}
330
C
100
AcDbDictionary
281
     1
  3
Model
350
23
  3
レイアウト1
350
1F
  0
DICTIONARY
  5
1A
102
{ACAD_REACTORS
330
C
102
}
330
C
100
AcDbDictionary
281
     1
  0
DICTIONARY
  5
16
102
{ACAD_REACTORS
330
C
102
}
330
C
100
AcDbDictionary
281
     1
  3
Standard
350
17
  0
DICTIONARY
  5
18
102
{ACAD_REACTORS
330
C
102
}
330
C
100
AcDbDictionary
281
     1
  0
ACDBDICTIONARYWDFLT
  5
E
102
{ACAD_REACTORS
330
C
102
}
330
C
100
AcDbDictionary
281
     1
  3
Normal
350
F
100
AcDbDictionaryWithDefault
340
F
  0
DICTIONARY
  5
205
102
{ACAD_REACTORS
330
C
102
}
330
C
100
AcDbDictionary
281
     1
  3
COLORDICT
350
207
  3
MATERIALDICT
350
206
  0
DICTIONARY
  5
201
102
{ACAD_REACTORS
330
C
102
}
330
C
100
AcDbDictionary
281
     1
  3
DIMASSOC
350
202
  3
PROJECTNAME
350
203
  0
LAYOUT
  5
23
102
{ACAD_XDICTIONARY
360
20A
102
}
102
{ACAD_REACTORS
330
19
102
}
330
19
100
AcDbPlotSettings
  1

  2
RICOH imagio MP C3300 RPCS
  4

  6

 40
0.0
 41
0.0
 42
0.0
 43
0.0
 44
0.0
 45
0.0
 46
0.0
 47
0.0
 48
0.0
 49
0.0
140
0.0
141
0.0
142
1.0
143
1.0
 70
  1712
 72
     0
 73
     0
 74
     0
  7

 75
     0
147
1.0
148
0.0
149
0.0
100
AcDbLayout
  1
Model
 70
     1
 71
     0
 10
0.0
 20
0.0
 11
12.0
 21
9.0
 12
0.0
 22
0.0
 32
0.0
 14
0.0
 24
0.0
 34
0.0
 15
0.0
 25
0.0
 35
0.0
146
0.0
 13
0.0
 23
0.0
 33
0.0
 16
1.0
 26
0.0
 36
0.0
 17
0.0
 27
1.0
 37
0.0
 76
     0
330
20
  0
LAYOUT
  5
1F
102
{ACAD_XDICTIONARY
360
208
102
}
102
{ACAD_REACTORS
330
19
102
}
330
19
100
AcDbPlotSettings
  1

  2
RICOH imagio MP C3300 RPCS
  4

  6

 40
0.0
 41
0.0
 42
0.0
 43
0.0
 44
0.0
 45
0.0
 46
0.0
 47
0.0
 48
0.0
 49
0.0
140
0.0
141
0.0
142
1.0
143
1.0
 70
   688
 72
     0
 73
     0
 74
     5
  7

 75
    16
147
1.0
148
0.0
149
0.0
100
AcDbLayout
  1
レイアウト1
 70
     1
 71
     1
 10
0.0
 20
0.0
 11
12.0
 21
9.0
 12
0.0
 22
0.0
 32
0.0
 14
1.000000000000000E+20
 24
1.000000000000000E+20
 34
1.000000000000000E+20
 15
-1.000000000000000E+20
 25
-1.000000000000000E+20
 35
-1.000000000000000E+20
146
0.0
 13
0.0
 23
0.0
 33
0.0
 16
1.0
 26
0.0
 36
0.0
 17
0.0
 27
1.0
 37
0.0
 76
     0
330
1C
  0
MLINESTYLE
  5
17
102
{ACAD_REACTORS
330
16
102
}
330
16
100
AcDbMlineStyle
  2
STANDARD
 70
     0
  3

 62
   256
 51
90.0
 52
90.0
 71
     2
 49
0.5
 62
   256
  6
BYLAYER
 49
-0.5
 62
   256
  6
BYLAYER
  0
ACDBPLACEHOLDER
  5
F
102
{ACAD_REACTORS
330
E
102
}
330
E
  0
XRECORD
  5
207
102
{ACAD_REACTORS
330
205
102
}
330
205
100
AcDbXrecord
280
     1
340
1B
  0
XRECORD
  5
206
102
{ACAD_REACTORS
330
205
102
}
330
205
100
AcDbXrecord
280
     1
340
1A
  0
DICTIONARYVAR
  5
202
102
{ACAD_REACTORS
330
201
102
}
330
201
100
DictionaryVariables
280
     0
  1
1
  0
DICTIONARYVAR
  5
203
102
{ACAD_REACTORS
330
201
102
}
330
201
100
DictionaryVariables
280
     0
  1

  0
DICTIONARY
  5
20A
330
23
100
AcDbDictionary
280
     1
281
     1
  3
ACAD_XREC_ROUNDTRIP
360
20B
  0
DICTIONARY
  5
208
330
1F
100
AcDbDictionary
280
     1
281
     1
  3
ACAD_XREC_ROUNDTRIP
360
209
  0
XRECORD
  5
20B
102
{ACAD_REACTORS
330
20A
102
}
330
20A
100
AcDbXrecord
280
     1
102
SHADEPLOT
 70
     0
102
SHADEPLOTRESLEVEL
 70
     2
102
SHADEPLOTCUSTOMDPI
 70
   300
  0
XRECORD
  5
209
102
{ACAD_REACTORS
330
208
102
}
330
208
100
AcDbXrecord
280
     1
102
SHADEPLOT
 70
     0
102
SHADEPLOTRESLEVEL
 70
     2
102
SHADEPLOTCUSTOMDPI
 70
   300
  0
ENDSEC
  0
EOF
