  0
SECTION
  2
HEADER
  9
$ACADVER
  1
AC1015
  9
$ACADMAINTVER
 70
    20
  9
$DWGCODEPAGE
  3
ANSI_932
  9
$INSBASE
 10
0.0
 20
0.0
 30
0.0
  9
$EXTMIN
 10
216.4416644727353
 20
206.5521340427822
 30
-0.0015258207003583
  9
$EXTMAX
 10
5723.558363187541
 20
3993.44788551499
 30
0.0000000349246037
  9
$LIMMIN
 10
0.0
 20
0.0
  9
$LIMMAX
 10
5940.0
 20
4200.0
  9
$ORTHOMODE
 70
     1
  9
$REGENMODE
 70
     1
  9
$FILLMODE
 70
     1
  9
$QTEXTMODE
 70
     0
  9
$MIRRTEXT
 70
     0
  9
$LTSCALE
 40
20.0
  9
$ATTMODE
 70
     1
  9
$TEXTSIZE
 40
0.2
  9
$TRACEWID
 40
0.05
  9
$TEXTSTYLE
  7
STANDARD
  9
$CLAYER
  8
0
  9
$CELTYPE
  6
CONTINUOUS
  9
$CECOLOR
 62
   256
  9
$CELTSCALE
 40
1.0
  9
$DISPSILH
 70
     0
  9
$DIMSCALE
 40
1.0
  9
$DIMASZ
 40
0.18
  9
$DIMEXO
 40
0.0625
  9
$DIMDLI
 40
0.38
  9
$DIMRND
 40
0.0
  9
$DIMDLE
 40
0.0
  9
$DIMEXE
 40
0.18
  9
$DIMTP
 40
0.0
  9
$DIMTM
 40
0.0
  9
$DIMTXT
 40
0.18
  9
$DIMCEN
 40
0.09
  9
$DIMTSZ
 40
0.0
  9
$DIMTOL
 70
     0
  9
$DIMLIM
 70
     0
  9
$DIMTIH
 70
     1
  9
$DIMTOH
 70
     1
  9
$DIMSE1
 70
     0
  9
$DIMSE2
 70
     0
  9
$DIMTAD
 70
     0
  9
$DIMZIN
 70
     0
  9
$DIMBLK
  1

  9
$DIMASO
 70
     1
  9
$DIMSHO
 70
     1
  9
$DIMPOST
  1

  9
$DIMAPOST
  1

  9
$DIMALT
 70
     0
  9
$DIMALTD
 70
     2
  9
$DIMALTF
 40
25.4
  9
$DIMLFAC
 40
1.0
  9
$DIMTOFL
 70
     0
  9
$DIMTVP
 40
0.0
  9
$DIMTIX
 70
     0
  9
$DIMSOXD
 70
     0
  9
$DIMSAH
 70
     0
  9
$DIMBLK1
  1

  9
$DIMBLK2
  1

  9
$DIMSTYLE
  2
Standard
  9
$DIMCLRD
 70
     0
  9
$DIMCLRE
 70
     0
  9
$DIMCLRT
 70
     0
  9
$DIMTFAC
 40
1.0
  9
$DIMGAP
 40
0.09
  9
$DIMJUST
 70
     0
  9
$DIMSD1
 70
     0
  9
$DIMSD2
 70
     0
  9
$DIMTOLJ
 70
     1
  9
$DIMTZIN
 70
     0
  9
$DIMALTZ
 70
     0
  9
$DIMALTTZ
 70
     0
  9
$DIMUPT
 70
     0
  9
$DIMDEC
 70
     4
  9
$DIMTDEC
 70
     4
  9
$DIMALTU
 70
     2
  9
$DIMALTTD
 70
     2
  9
$DIMTXSTY
  7
STANDARD
  9
$DIMAUNIT
 70
     0
  9
$DIMADEC
 70
     0
  9
$DIMALTRND
 40
0.0
  9
$DIMAZIN
 70
     0
  9
$DIMDSEP
 70
    46
  9
$DIMATFIT
 70
     3
  9
$DIMFRAC
 70
     0
  9
$DIMLDRBLK
  1

  9
$DIMLUNIT
 70
     2
  9
$DIMLWD
 70
    -2
  9
$DIMLWE
 70
    -2
  9
$DIMTMOVE
 70
     0
  9
$LUNITS
 70
     2
  9
$LUPREC
 70
     4
  9
$SKETCHINC
 40
0.1
  9
$FILLETRAD
 40
0.0
  9
$AUNITS
 70
     0
  9
$AUPREC
 70
     0
  9
$MENU
  1
.
  9
$ELEVATION
 40
0.0
  9
$PELEVATION
 40
0.0
  9
$THICKNESS
 40
0.0
  9
$LIMCHECK
 70
     0
  9
$CHAMFERA
 40
0.0
  9
$CHAMFERB
 40
0.0
  9
$CHAMFERC
 40
0.0
  9
$CHAMFERD
 40
0.0
  9
$SKPOLY
 70
     0
  9
$TDCREATE
 40
2457238.772427315
  9
$TDUCREATE
 40
2457238.397427315
  9
$TDUPDATE
 40
2457238.773087141
  9
$TDUUPDATE
 40
2457238.398087141
  9
$TDINDWG
 40
0.0006620602
  9
$TDUSRTIMER
 40
0.0006620602
  9
$USRTIMER
 70
     1
  9
$ANGBASE
 50
0.0
  9
$ANGDIR
 70
     0
  9
$PDMODE
 70
     0
  9
$PDSIZE
 40
0.0
  9
$PLINEWID
 40
0.0
  9
$SPLFRAME
 70
     0
  9
$SPLINETYPE
 70
     6
  9
$SPLINESEGS
 70
     8
  9
$HANDSEED
  5
323
  9
$SURFTAB1
 70
     6
  9
$SURFTAB2
 70
     6
  9
$SURFTYPE
 70
     6
  9
$SURFU
 70
     6
  9
$SURFV
 70
     6
  9
$UCSBASE
  2

  9
$UCSNAME
  2

  9
$UCSORG
 10
0.0
 20
0.0
 30
0.0
  9
$UCSXDIR
 10
1.0
 20
0.0
 30
0.0
  9
$UCSYDIR
 10
0.0
 20
1.0
 30
0.0
  9
$UCSORTHOREF
  2

  9
$UCSORTHOVIEW
 70
     0
  9
$UCSORGTOP
 10
0.0
 20
0.0
 30
0.0
  9
$UCSORGBOTTOM
 10
0.0
 20
0.0
 30
0.0
  9
$UCSORGLEFT
 10
0.0
 20
0.0
 30
0.0
  9
$UCSORGRIGHT
 10
0.0
 20
0.0
 30
0.0
  9
$UCSORGFRONT
 10
0.0
 20
0.0
 30
0.0
  9
$UCSORGBACK
 10
0.0
 20
0.0
 30
0.0
  9
$PUCSBASE
  2

  9
$PUCSNAME
  2

  9
$PUCSORG
 10
0.0
 20
0.0
 30
0.0
  9
$PUCSXDIR
 10
1.0
 20
0.0
 30
0.0
  9
$PUCSYDIR
 10
0.0
 20
1.0
 30
0.0
  9
$PUCSORTHOREF
  2

  9
$PUCSORTHOVIEW
 70
     0
  9
$PUCSORGTOP
 10
0.0
 20
0.0
 30
0.0
  9
$PUCSORGBOTTOM
 10
0.0
 20
0.0
 30
0.0
  9
$PUCSORGLEFT
 10
0.0
 20
0.0
 30
0.0
  9
$PUCSORGRIGHT
 10
0.0
 20
0.0
 30
0.0
  9
$PUCSORGFRONT
 10
0.0
 20
0.0
 30
0.0
  9
$PUCSORGBACK
 10
0.0
 20
0.0
 30
0.0
  9
$USERI1
 70
     0
  9
$USERI2
 70
     0
  9
$USERI3
 70
     0
  9
$USERI4
 70
     0
  9
$USERI5
 70
     0
  9
$USERR1
 40
0.0
  9
$USERR2
 40
0.0
  9
$USERR3
 40
0.0
  9
$USERR4
 40
0.0
  9
$USERR5
 40
0.0
  9
$WORLDVIEW
 70
     1
  9
$SHADEDGE
 70
     3
  9
$SHADEDIF
 70
    70
  9
$TILEMODE
 70
     1
  9
$MAXACTVP
 70
    64
  9
$PINSBASE
 10
0.0
 20
0.0
 30
0.0
  9
$PLIMCHECK
 70
     0
  9
$PEXTMIN
 10
1.000000000000000E+20
 20
1.000000000000000E+20
 30
1.000000000000000E+20
  9
$PEXTMAX
 10
-1.000000000000000E+20
 20
-1.000000000000000E+20
 30
-1.000000000000000E+20
  9
$PLIMMIN
 10
0.0
 20
0.0
  9
$PLIMMAX
 10
12.0
 20
9.0
  9
$UNITMODE
 70
     0
  9
$VISRETAIN
 70
     1
  9
$PLINEGEN
 70
     0
  9
$PSLTSCALE
 70
     1
  9
$TREEDEPTH
 70
  3020
  9
$CMLSTYLE
  2
Standard
  9
$CMLJUST
 70
     0
  9
$CMLSCALE
 40
1.0
  9
$PROXYGRAPHICS
 70
     1
  9
$MEASUREMENT
 70
     0
  9
$CELWEIGHT
370
    -1
  9
$ENDCAPS
280
     0
  9
$JOINSTYLE
280
     0
  9
$LWDISPLAY
290
     0
  9
$INSUNITS
 70
     0
  9
$HYPERLINKBASE
  1

  9
$STYLESHEET
  1

  9
$XEDIT
290
     1
  9
$CEPSNTYPE
380
     0
  9
$PSTYLEMODE
290
     1
  9
$FINGERPRINTGUID
  2
{2057DB1F-4D97-4969-8930-7B5DACE580E1}
  9
$VERSIONGUID
  2
{76D7F074-2D0D-4EBE-834C-8D7AD61D1315}
  9
$EXTNAMES
290
     1
  9
$PSVPSCALE
 40
0.0
  9
$OLESTARTUP
290
     0
  0
ENDSEC
  0
SECTION
  2
CLASSES
  0
CLASS
  1
ACDBDICTIONARYWDFLT
  2
AcDbDictionaryWithDefault
  3
ObjectDBX Classes
 90
        0
280
     0
281
     0
  0
CLASS
  1
MATERIAL
  2
AcDbMaterial
  3
ObjectDBX Classes
 90
     1153
280
     0
281
     0
  0
CLASS
  1
VISUALSTYLE
  2
AcDbVisualStyle
  3
ObjectDBX Classes
 90
     4095
280
     0
281
     0
  0
CLASS
  1
SCALE
  2
AcDbScale
  3
ObjectDBX Classes
 90
     1153
280
     0
281
     0
  0
CLASS
  1
TABLESTYLE
  2
AcDbTableStyle
  3
ObjectDBX Classes
 90
     4095
280
     0
281
     0
  0
CLASS
  1
MLEADERSTYLE
  2
AcDbMLeaderStyle
  3
ACDB_MLEADERSTYLE_CLASS
 90
     4095
280
     0
281
     0
  0
CLASS
  1
ACDBSECTIONVIEWSTYLE
  2
AcDbSectionViewStyle
  3
ObjectDBX Classes
 90
     1025
280
     0
281
     0
  0
CLASS
  1
ACDBDETAILVIEWSTYLE
  2
AcDbDetailViewStyle
  3
ObjectDBX Classes
 90
     1025
280
     0
281
     0
  0
CLASS
  1
DICTIONARYVAR
  2
AcDbDictionaryVar
  3
ObjectDBX Classes
 90
        0
280
     0
281
     0
  0
CLASS
  1
CELLSTYLEMAP
  2
AcDbCellStyleMap
  3
ObjectDBX Classes
 90
     1152
280
     0
281
     0
  0
CLASS
  1
ACDBPLACEHOLDER
  2
AcDbPlaceHolder
  3
ObjectDBX Classes
 90
        0
280
     0
281
     0
  0
CLASS
  1
LAYOUT
  2
AcDbLayout
  3
ObjectDBX Classes
 90
        0
280
     0
281
     0
  0
ENDSEC
  0
SECTION
  2
TABLES
  0
TABLE
  2
VPORT
  5
8
330
0
100
AcDbSymbolTable
 70
     1
  0
VPORT
  5
9A
330
8
100
AcDbSymbolTableRecord
100
AcDbViewportTableRecord
  2
*Active
 70
     0
 10
0.0
 20
0.0
 11
1.0
 21
1.0
 12
2970.000013830139
 22
2100.000009778886
 13
0.0
 23
0.0
 14
1.0
 24
1.0
 15
0.0
 25
0.0
 16
0.0
 26
0.0
 36
1.0
 17
0.0
 27
0.0
 37
0.0
 40
3824.891361018752
 41
2.127303182579564
 42
50.0
 43
0.0
 44
0.0
 50
0.0
 51
0.0
 71
     0
 72
   100
 73
     1
 74
     1
 75
     0
 76
     0
 77
     0
 78
     0
281
     0
 65
     1
110
0.0
120
0.0
130
0.0
111
1.0
121
0.0
131
0.0
112
0.0
122
1.0
132
0.0
 79
     0
146
0.0
1001
ACAD_NAV_VCDISPLAY
1070
     3
  0
ENDTAB
  0
TABLE
  2
LTYPE
  5
5
330
0
100
AcDbSymbolTable
 70
    35
  0
LTYPE
  5
5A
330
5
100
AcDbSymbolTableRecord
100
AcDbLinetypeTableRecord
  2
ByBlock
 70
     0
  3

 72
    65
 73
     0
 40
0.0
  0
LTYPE
  5
5B
330
5
100
AcDbSymbolTableRecord
100
AcDbLinetypeTableRecord
  2
ByLayer
 70
     0
  3

 72
    65
 73
     0
 40
0.0
  0
LTYPE
  5
5C
330
5
100
AcDbSymbolTableRecord
100
AcDbLinetypeTableRecord
  2
CONTINUOUS
 70
     0
  3
実線
 72
    65
 73
     0
 40
0.0
  0
LTYPE
  5
73
330
5
100
AcDbSymbolTableRecord
100
AcDbLinetypeTableRecord
  2
DASHED1
 70
     0
  3
--  --  --  --  --  --  --  --  
 72
    65
 73
     2
 40
2.5
 49
1.25
 74
     0
 49
-1.25
 74
     0
  0
LTYPE
  5
74
330
5
100
AcDbSymbolTableRecord
100
AcDbLinetypeTableRecord
  2
DASHED2
 70
     0
  3
----    ----    ----    ----    
 72
    65
 73
     2
 40
5.0
 49
2.5
 74
     0
 49
-2.5
 74
     0
  0
LTYPE
  5
75
330
5
100
AcDbSymbolTableRecord
100
AcDbLinetypeTableRecord
  2
DASHED3
 70
     0
  3
------  ------  ------  ------  
 72
    65
 73
     2
 40
5.0
 49
3.75
 74
     0
 49
-1.25
 74
     0
  0
LTYPE
  5
76
330
5
100
AcDbSymbolTableRecord
100
AcDbLinetypeTableRecord
  2
CENTER1
 70
     0
  3
----- - ----- - ----- - ----- - 
 72
    65
 73
     4
 40
10.0
 49
6.25
 74
     0
 49
-1.25
 74
     0
 49
1.25
 74
     0
 49
-1.25
 74
     0
  0
LTYPE
  5
77
330
5
100
AcDbSymbolTableRecord
100
AcDbLinetypeTableRecord
  2
CENTER2
 70
     0
  3
----------  --  ----------  --  
 72
    65
 73
     4
 40
20.0
 49
12.5
 74
     0
 49
-2.5
 74
     0
 49
2.5
 74
     0
 49
-2.5
 74
     0
  0
LTYPE
  5
78
330
5
100
AcDbSymbolTableRecord
100
AcDbLinetypeTableRecord
  2
PHANTOM1
 70
     0
  3
--- - - --- - - --- - - --- - - 
 72
    65
 73
     6
 40
10.0
 49
3.25
 74
     0
 49
-1.25
 74
     0
 49
1.25
 74
     0
 49
-1.25
 74
     0
 49
1.25
 74
     0
 49
-1.25
 74
     0
  0
LTYPE
  5
79
330
5
100
AcDbSymbolTableRecord
100
AcDbLinetypeTableRecord
  2
PHANTOM2
 70
     0
  3
--------  -  -  --------  -  -  
 72
    65
 73
     6
 40
20.0
 49
10.0
 74
     0
 49
-2.5
 74
     0
 49
1.25
 74
     0
 49
-2.5
 74
     0
 49
1.25
 74
     0
 49
-2.5
 74
     0
  0
LTYPE
  5
7A
330
5
100
AcDbSymbolTableRecord
100
AcDbLinetypeTableRecord
  2
DOT
 70
     0
  3
-   -   -   -   -   -   -   -   
 72
    65
 73
     2
 40
2.5
 49
0.625
 74
     0
 49
-1.875
 74
     0
  0
LTYPE
  5
7B
330
5
100
AcDbSymbolTableRecord
100
AcDbLinetypeTableRecord
  2
DUMMY
 70
     0
  3
ダミー
 72
    65
 73
     0
 40
0.0
  0
LTYPE
  5
7C
330
5
100
AcDbSymbolTableRecord
100
AcDbLinetypeTableRecord
  2
RAND1
 70
     0
  3
ランダム線1
 72
    65
 73
     4
 40
10.0
 49
1.0
 74
     0
 49
-2.0
 74
     0
 49
3.0
 74
     0
 49
-4.0
 74
     0
  0
LTYPE
  5
7D
330
5
100
AcDbSymbolTableRecord
100
AcDbLinetypeTableRecord
  2
RAND2
 70
     0
  3
ランダム線2
 72
    65
 73
     4
 40
14.0
 49
2.0
 74
     0
 49
-3.0
 74
     0
 49
4.0
 74
     0
 49
-5.0
 74
     0
  0
LTYPE
  5
7E
330
5
100
AcDbSymbolTableRecord
100
AcDbLinetypeTableRecord
  2
RAND3
 70
     0
  3
ランダム線3
 72
    65
 73
     4
 40
18.0
 49
3.0
 74
     0
 49
-4.0
 74
     0
 49
5.0
 74
     0
 49
-6.0
 74
     0
  0
LTYPE
  5
7F
330
5
100
AcDbSymbolTableRecord
100
AcDbLinetypeTableRecord
  2
RAND4
 70
     0
  3
ランダム線4
 72
    65
 73
     4
 40
22.0
 49
4.0
 74
     0
 49
-5.0
 74
     0
 49
6.0
 74
     0
 49
-7.0
 74
     0
  0
LTYPE
  5
80
330
5
100
AcDbSymbolTableRecord
100
AcDbLinetypeTableRecord
  2
RAND5
 70
     0
  3
ランダム線5
 72
    65
 73
     4
 40
26.0
 49
5.0
 74
     0
 49
-6.0
 74
     0
 49
7.0
 74
     0
 49
-8.0
 74
     0
  0
LTYPE
  5
81
330
5
100
AcDbSymbolTableRecord
100
AcDbLinetypeTableRecord
  2
LONG1
 70
     0
  3
----------  --  ----------  --  
 72
    65
 73
     4
 40
40.0
 49
32.5
 74
     0
 49
-2.5
 74
     0
 49
2.5
 74
     0
 49
-2.5
 74
     0
  0
LTYPE
  5
82
330
5
100
AcDbSymbolTableRecord
100
AcDbLinetypeTableRecord
  2
LONG2
 70
     0
  3
--------  -  -  --------  -  -  
 72
    65
 73
     6
 40
40.0
 49
30.0
 74
     0
 49
-2.5
 74
     0
 49
1.25
 74
     0
 49
-2.5
 74
     0
 49
1.25
 74
     0
 49
-2.5
 74
     0
  0
LTYPE
  5
83
330
5
100
AcDbSymbolTableRecord
100
AcDbLinetypeTableRecord
  2
LONG3
 70
     0
  3
+++++++++++++++..+++++++++++++++
 72
    65
 73
     2
 40
40.0
 49
37.5
 74
     0
 49
-2.5
 74
     0
  0
LTYPE
  5
84
330
5
100
AcDbSymbolTableRecord
100
AcDbLinetypeTableRecord
  2
LONG4
 70
     0
  3
+++++++++++++++..+++++++++++++++
 72
    65
 73
     2
 40
80.0
 49
75.0
 74
     0
 49
-5.0
 74
     0
  0
LTYPE
  5
85
330
5
100
AcDbSymbolTableRecord
100
AcDbLinetypeTableRecord
  2
LONG5
 70
     0
  3
----------  --  ----------  --  
 72
    65
 73
     4
 40
60.0
 49
37.5
 74
     0
 49
-7.5
 74
     0
 49
7.5
 74
     0
 49
-7.5
 74
     0
  0
LTYPE
  5
86
330
5
100
AcDbSymbolTableRecord
100
AcDbLinetypeTableRecord
  2
DASHED
 70
     0
  3
-------   -------------   ------
 72
    65
 73
     2
 40
7.5
 49
6.0
 74
     0
 49
-1.5
 74
     0
  0
LTYPE
  5
87
330
5
100
AcDbSymbolTableRecord
100
AcDbLinetypeTableRecord
  2
DASHED_SPACED
 70
     0
  3
----        --------        ----
 72
    65
 73
     2
 40
12.0
 49
6.0
 74
     0
 49
-6.0
 74
     0
  0
LTYPE
  5
88
330
5
100
AcDbSymbolTableRecord
100
AcDbLinetypeTableRecord
  2
LONG_DASHED_DOTTED
 70
     0
  3
------------- --- --------------
 72
    65
 73
     4
 40
15.25
 49
12.0
 74
     0
 49
-1.5
 74
     0
 49
0.25
 74
     0
 49
-1.5
 74
     0
  0
LTYPE
  5
89
330
5
100
AcDbSymbolTableRecord
100
AcDbLinetypeTableRecord
  2
LONG_DASHED_DOUBLE-DOTTED
 70
     0
  3
----------- --- --- ------------
 72
    65
 73
     6
 40
17.0
 49
12.0
 74
     0
 49
-1.5
 74
     0
 49
0.25
 74
     0
 49
-1.5
 74
     0
 49
0.25
 74
     0
 49
-1.5
 74
     0
  0
LTYPE
  5
8A
330
5
100
AcDbSymbolTableRecord
100
AcDbLinetypeTableRecord
  2
LONG_DASHED_TRIPLICATE-DOTTED
 70
     0
  3
--------- --- --- --- ----------
 72
    65
 73
     8
 40
18.75
 49
12.0
 74
     0
 49
-1.5
 74
     0
 49
0.25
 74
     0
 49
-1.5
 74
     0
 49
0.25
 74
     0
 49
-1.5
 74
     0
 49
0.25
 74
     0
 49
-1.5
 74
     0
  0
LTYPE
  5
8B
330
5
100
AcDbSymbolTableRecord
100
AcDbLinetypeTableRecord
  2
DOTTED
 70
     0
  3
   -       -       -       -    
 72
    65
 73
     2
 40
1.75
 49
0.25
 74
     0
 49
-1.5
 74
     0
  0
LTYPE
  5
8C
330
5
100
AcDbSymbolTableRecord
100
AcDbLinetypeTableRecord
  2
CHAIN
 70
     0
  3
-------------- -- --------------
 72
    65
 73
     4
 40
18.5
 49
12.0
 74
     0
 49
-1.5
 74
     0
 49
3.5
 74
     0
 49
-1.5
 74
     0
  0
LTYPE
  5
8D
330
5
100
AcDbSymbolTableRecord
100
AcDbLinetypeTableRecord
  2
CHAIN_DOUBLE_DASH
 70
     0
  3
------------ -- -- -------------
 72
    65
 73
     6
 40
23.5
 49
12.0
 74
     0
 49
-1.5
 74
     0
 49
3.5
 74
     0
 49
-1.5
 74
     0
 49
3.5
 74
     0
 49
-1.5
 74
     0
  0
LTYPE
  5
8E
330
5
100
AcDbSymbolTableRecord
100
AcDbLinetypeTableRecord
  2
DASHED_DOTTED
 70
     0
  3
-----------     -     ----------
 72
    65
 73
     4
 40
9.25
 49
6.0
 74
     0
 49
-1.5
 74
     0
 49
0.25
 74
     0
 49
-1.5
 74
     0
  0
LTYPE
  5
8F
330
5
100
AcDbSymbolTableRecord
100
AcDbLinetypeTableRecord
  2
DOUBLE-DASHED_DOTTED
 70
     0
  3
------   -----------   -   -----
 72
    65
 73
     6
 40
16.75
 49
6.0
 74
     0
 49
-1.5
 74
     0
 49
6.0
 74
     0
 49
-1.5
 74
     0
 49
0.25
 74
     0
 49
-1.5
 74
     0
  0
LTYPE
  5
90
330
5
100
AcDbSymbolTableRecord
100
AcDbLinetypeTableRecord
  2
DASHED_DOUBLE-DOTTED
 70
     0
  3
---------    -    -    ---------
 72
    65
 73
     6
 40
11.0
 49
6.0
 74
     0
 49
-1.5
 74
     0
 49
0.25
 74
     0
 49
-1.5
 74
     0
 49
0.25
 74
     0
 49
-1.5
 74
     0
  0
LTYPE
  5
91
330
5
100
AcDbSymbolTableRecord
100
AcDbLinetypeTableRecord
  2
DOUBLE-DASHED_DOUBLE-DOTTED
 70
     0
  3
-----   ---------   -   -   ----
 72
    65
 73
     8
 40
18.5
 49
6.0
 74
     0
 49
-1.5
 74
     0
 49
6.0
 74
     0
 49
-1.5
 74
     0
 49
0.25
 74
     0
 49
-1.5
 74
     0
 49
0.25
 74
     0
 49
-1.5
 74
     0
  0
LTYPE
  5
92
330
5
100
AcDbSymbolTableRecord
100
AcDbLinetypeTableRecord
  2
DASHED_TRIPLICATE-DOTTED
 70
     0
  3
-------    -    -    -    ------
 72
    65
 73
     8
 40
12.75
 49
6.0
 74
     0
 49
-1.5
 74
     0
 49
0.25
 74
     0
 49
-1.5
 74
     0
 49
0.25
 74
     0
 49
-1.5
 74
     0
 49
0.25
 74
     0
 49
-1.5
 74
     0
  0
LTYPE
  5
93
330
5
100
AcDbSymbolTableRecord
100
AcDbLinetypeTableRecord
  2
DOUBLE-DASHED_TRIPLICATE-DOTTED
 70
     0
  3
-----  ---------  -  -  -  -----
 72
    65
 73
    10
 40
20.25
 49
6.0
 74
     0
 49
-1.5
 74
     0
 49
6.0
 74
     0
 49
-1.5
 74
     0
 49
0.25
 74
     0
 49
-1.5
 74
     0
 49
0.25
 74
     0
 49
-1.5
 74
     0
 49
0.25
 74
     0
 49
-1.5
 74
     0
  0
LTYPE
  5
94
330
5
100
AcDbSymbolTableRecord
100
AcDbLinetypeTableRecord
  2
UNDEFINED
 70
     0
  3
--------------------------------
 72
    65
 73
     0
 40
0.0
  0
ENDTAB
  0
TABLE
  2
LAYER
  5
2
330
0
100
AcDbSymbolTable
 70
     3
  0
LAYER
  5
54
102
{ACAD_XDICTIONARY
360
2D1
102
}
330
2
100
AcDbSymbolTableRecord
100
AcDbLayerTableRecord
  2
0
 70
     0
 62
     7
  6
CONTINUOUS
370
    -3
390
F
  0
LAYER
  5
96
102
{ACAD_XDICTIONARY
360
2D3
102
}
330
2
100
AcDbSymbolTableRecord
100
AcDbLayerTableRecord
  2
_1-0_
 70
     0
 62
     7
  6
CONTINUOUS
370
    -3
390
F
  0
LAYER
  5
97
102
{ACAD_XDICTIONARY
360
2D5
102
}
330
2
100
AcDbSymbolTableRecord
100
AcDbLayerTableRecord
  2
ADD_LINE
 70
     0
 62
     7
  6
CONTINUOUS
370
    -3
390
F
  0
ENDTAB
  0
TABLE
  2
STYLE
  5
3
330
0
100
AcDbSymbolTable
 70
     3
  0
STYLE
  5
55
330
3
100
AcDbSymbolTableRecord
100
AcDbTextStyleTableRecord
  2
STANDARD
 70
     0
 40
0.0
 41
1.0
 50
0.0
 71
     0
 42
0.2
  3
txt
  4
bigfont.shx
  0
STYLE
  5
59
330
3
100
AcDbSymbolTableRecord
100
AcDbTextStyleTableRecord
  2
Annotative
 70
     0
 40
0.0
 41
1.0
 50
0.0
 71
     0
 42
0.2
  3
txt
  4

1001
AcadAnnotative
1000
AnnotativeData
1002
{
1070
     1
1070
     1
1002
}
  0
STYLE
  5
95
330
3
100
AcDbSymbolTableRecord
100
AcDbTextStyleTableRecord
  2
TATEGAKI
 70
     4
 40
0.0
 41
1.0
 50
0.0
 71
     0
 42
1.0
  3
txt
  4
bigfont.shx
  0
ENDTAB
  0
TABLE
  2
VIEW
  5
6
330
0
100
AcDbSymbolTable
 70
     0
  0
ENDTAB
  0
TABLE
  2
UCS
  5
7
330
0
100
AcDbSymbolTable
 70
     0
  0
ENDTAB
  0
TABLE
  2
APPID
  5
9
330
0
100
AcDbSymbolTable
 70
     4
  0
APPID
  5
56
330
9
100
AcDbSymbolTableRecord
100
AcDbRegAppTableRecord
  2
ACAD
 70
     0
  0
APPID
  5
5D
330
9
100
AcDbSymbolTableRecord
100
AcDbRegAppTableRecord
  2
AcadAnnotative
 70
     0
  0
APPID
  5
2E1
330
9
100
AcDbSymbolTableRecord
100
AcDbRegAppTableRecord
  2
ACAD_NAV_VCDISPLAY
 70
     0
  0
APPID
  5
31A
330
9
100
AcDbSymbolTableRecord
100
AcDbRegAppTableRecord
  2
ACAD_MLEADERVER
 70
     0
  0
ENDTAB
  0
TABLE
  2
DIMSTYLE
  5
A
330
0
100
AcDbSymbolTable
 70
     2
100
AcDbDimStyleTable
 71
     0
  0
DIMSTYLE
105
57
330
A
100
AcDbSymbolTableRecord
100
AcDbDimStyleTableRecord
  2
Standard
 70
     0
340
55
  0
DIMSTYLE
105
58
330
A
100
AcDbSymbolTableRecord
100
AcDbDimStyleTableRecord
  2
Annotative
 70
     0
340
55
1001
AcadAnnotative
1000
AnnotativeData
1002
{
1070
     1
1070
     1
1002
}
  0
ENDTAB
  0
TABLE
  2
BLOCK_RECORD
  5
1
330
0
100
AcDbSymbolTable
 70
     0
  0
BLOCK_RECORD
  5
6F
330
1
100
AcDbSymbolTableRecord
100
AcDbBlockTableRecord
  2
*Model_Space
340
72
  0
BLOCK_RECORD
  5
6B
330
1
100
AcDbSymbolTableRecord
100
AcDbBlockTableRecord
  2
*Paper_Space
340
6E
  0
ENDTAB
  0
ENDSEC
  0
SECTION
  2
BLOCKS
  0
BLOCK
  5
70
330
6F
100
AcDbEntity
  8
0
100
AcDbBlockBegin
  2
*Model_Space
 70
     0
 10
0.0
 20
0.0
 30
0.0
  3
*Model_Space
  1

  0
ENDBLK
  5
71
330
6F
100
AcDbEntity
  8
0
100
AcDbBlockEnd
  0
BLOCK
  5
6C
330
6B
100
AcDbEntity
 67
     1
  8
0
100
AcDbBlockBegin
  2
*Paper_Space
 70
     0
 10
0.0
 20
0.0
 30
0.0
  3
*Paper_Space
  1

  0
ENDBLK
  5
6D
330
6B
100
AcDbEntity
 67
     1
  8
0
100
AcDbBlockEnd
  0
ENDSEC
  0
SECTION
  2
ENTITIES
  0
LINE
  5
9B
330
6F
100
AcDbEntity
  8
_1-0_
  6
Continuous
 62
     7
100
AcDbLine
 10
3189.999999999999
 20
486.6666666666668
 30
0.0
 11
5723.333333333332
 21
486.6666666666668
 31
0.0
  0
LINE
  5
9C
330
6F
100
AcDbEntity
  8
_1-0_
  6
Continuous
 62
     7
100
AcDbLine
 10
216.6666666666669
 20
3993.333333333334
 30
0.0
 11
216.6666666666669
 21
206.6666666666665
 31
0.0
  0
LINE
  5
9D
330
6F
100
AcDbEntity
  8
_1-0_
  6
Continuous
 62
     7
100
AcDbLine
 10
5723.333333333332
 20
3993.333333333334
 30
0.0
 11
216.6666666666669
 21
3993.333333333334
 31
0.0
  0
LINE
  5
9E
330
6F
100
AcDbEntity
  8
_1-0_
  6
Continuous
 62
     7
100
AcDbLine
 10
5723.333333333332
 20
206.6666666666665
 30
0.0
 11
5723.333333333332
 21
3993.333333333334
 31
0.0
  0
LINE
  5
9F
330
6F
100
AcDbEntity
  8
_1-0_
  6
Continuous
 62
     7
100
AcDbLine
 10
216.6666666666669
 20
206.6666666666665
 30
0.0
 11
5723.333333333332
 21
206.6666666666665
 31
0.0
  0
LINE
  5
A0
330
6F
100
AcDbEntity
  8
_1-0_
  6
Continuous
 62
     7
100
AcDbLine
 10
4523.333333333333
 20
206.6666666666665
 30
0.0
 11
4523.333333333333
 21
766.6666666666672
 31
0.0
  0
LINE
  5
A1
330
6F
100
AcDbEntity
  8
_1-0_
  6
Continuous
 62
     7
100
AcDbLine
 10
4856.666666666666
 20
300.0
 30
0.0
 11
4856.666666666666
 21
766.6666666666672
 31
0.0
  0
LINE
  5
A2
330
6F
100
AcDbEntity
  8
_1-0_
  6
Continuous
 62
     7
100
AcDbLine
 10
3523.333333333333
 20
206.6666666666665
 30
0.0
 11
3523.333333333333
 21
766.6666666666672
 31
0.0
  0
LINE
  5
A3
330
6F
100
AcDbEntity
  8
_1-0_
  6
Continuous
 62
     7
100
AcDbLine
 10
3189.999999999999
 20
206.6666666666665
 30
0.0
 11
3189.999999999999
 21
766.6666666666672
 31
0.0
  0
LINE
  5
A4
330
6F
100
AcDbEntity
  8
_1-0_
  6
Continuous
 62
     7
100
AcDbLine
 10
3189.999999999999
 20
766.6666666666672
 30
0.0
 11
5723.333333333332
 21
766.6666666666672
 31
0.0
  0
LINE
  5
A5
330
6F
100
AcDbEntity
  8
_1-0_
  6
Continuous
 62
     7
100
AcDbLine
 10
3189.999999999999
 20
673.3333333333336
 30
0.0
 11
5723.333333333332
 21
673.3333333333336
 31
0.0
  0
LINE
  5
A6
330
6F
100
AcDbEntity
  8
_1-0_
  6
Continuous
 62
     7
100
AcDbLine
 10
3189.999999999999
 20
580.0000000000001
 30
0.0
 11
5723.333333333332
 21
580.0000000000001
 31
0.0
  0
LINE
  5
A7
330
6F
100
AcDbEntity
  8
_1-0_
  6
Continuous
 62
     7
100
AcDbLine
 10
3189.999999999999
 20
393.3333333333334
 30
0.0
 11
5723.333333333332
 21
393.3333333333334
 31
0.0
  0
LINE
  5
A8
330
6F
100
AcDbEntity
  8
_1-0_
  6
Continuous
 62
     7
100
AcDbLine
 10
3189.999999999999
 20
300.0
 30
0.0
 11
5723.333333333332
 21
300.0
 31
0.0
  0
LINE
  5
A9
330
6F
100
AcDbEntity
  8
_1-0_
  6
Continuous
 62
     7
100
AcDbLine
 10
3856.666666666665
 20
206.6666666666665
 30
0.0
 11
3856.666666666665
 21
300.0
 31
0.0
  0
LINE
  5
AA
330
6F
100
AcDbEntity
  8
_1-0_
  6
Continuous
 62
     7
100
AcDbLine
 10
4190.0
 20
206.6666666666665
 30
0.0
 11
4190.0
 21
300.0
 31
0.0
  0
TEXT
  5
AB
330
6F
100
AcDbEntity
  8
_1-0_
 62
     7
100
AcDbText
 10
3221.876526364969
 20
688.1587791203892
 30
0.0
 40
60.0
  1
製 品 名
100
AcDbText
  0
TEXT
  5
AC
330
6F
100
AcDbEntity
  8
_1-0_
 62
     7
100
AcDbText
 10
3221.482326020939
 20
596.404707044108
 30
0.0
 40
60.0
  1
型　　式
100
AcDbText
  0
TEXT
  5
AD
330
6F
100
AcDbEntity
  8
_1-0_
 62
     7
100
AcDbText
 10
3223.208923527788
 20
503.1684416742762
 30
0.0
 40
60.0
  1
呼 び 名
100
AcDbText
  0
TEXT
  5
AE
330
6F
100
AcDbEntity
  8
_1-0_
 62
     7
100
AcDbText
 10
3223.208923527788
 20
409.9321763044448
 30
0.0
 40
60.0
  1
寸　　法
100
AcDbText
  0
TEXT
  5
AF
330
6F
100
AcDbEntity
  8
_1-0_
 62
     7
100
AcDbText
 10
3221.482326020939
 20
316.6959109346132
 30
0.0
 40
60.0
  1
特記事項
100
AcDbText
  0
TEXT
  5
B0
330
6F
100
AcDbEntity
  8
_1-0_
 62
     7
100
AcDbText
 10
3223.208923527788
 20
223.4596455647817
 30
0.0
 40
60.0
  1
検　　図
100
AcDbText
  0
TEXT
  5
B1
330
6F
100
AcDbEntity
  8
_1-0_
 62
     7
100
AcDbText
 10
3889.675561171399
 20
225.1862430716304
 30
0.0
 40
60.0
  1
製　　図
100
AcDbText
  0
TEXT
  5
B2
330
6F
100
AcDbEntity
  8
_1-0_
 62
     7
100
AcDbText
 10
3711.836017965979
 20
689.6409724139397
 30
0.0
 40
60.0
  1
ＦＫ式ハンドホール
100
AcDbText
  0
TEXT
  5
B3
330
6F
100
AcDbEntity
  8
_1-0_
 62
     7
100
AcDbText
 10
3938.020291363163
 20
598.1313045509568
 30
0.0
 40
60.0
  1
800型
100
AcDbText
  0
TEXT
  5
B4
330
6F
100
AcDbEntity
  8
_1-0_
 62
     7
100
AcDbText
 10
3700.374224139592
 20
503.1684416742762
 30
0.0
 40
60.0
  1
H-0811(CR-600)
100
AcDbText
  0
TEXT
  5
B5
330
6F
100
AcDbEntity
  8
_1-0_
 62
     7
100
AcDbText
 10
3729.110788137615
 20
411.6587738112935
 30
0.0
 40
60.0
  1
800\U+00D7800\U+00D71100
100
AcDbText
  0
TEXT
  5
B6
330
6F
100
AcDbEntity
  8
_1-0_
 62
     7
100
AcDbText
 10
4566.273147656565
 20
222.2060884707682
 30
0.0
 40
60.0
  1
株式会社　丸治コンクリート工業所
100
AcDbText
  0
TEXT
  5
B7
330
6F
100
AcDbEntity
  8
_1-0_
 62
     7
100
AcDbText
 10
4554.738845590264
 20
688.5214434368961
 30
0.0
 40
60.0
  1
縮　　尺
100
AcDbText
  0
TEXT
  5
B8
330
6F
100
AcDbEntity
  8
_1-0_
 62
     7
100
AcDbText
 10
4554.738845590264
 20
594.5992694684535
 30
0.0
 40
60.0
  1
参考重量
100
AcDbText
  0
TEXT
  5
B9
330
6F
100
AcDbEntity
  8
_1-0_
 62
     7
100
AcDbText
 10
4556.386603028308
 20
502.3248529380536
 30
0.0
 40
60.0
  1
設計Ｎｏ
100
AcDbText
  0
TEXT
  5
BA
330
6F
100
AcDbEntity
  8
_1-0_
 62
     7
100
AcDbText
 10
4556.386603028308
 20
410.0504364076536
 30
0.0
 40
60.0
  1
図面Ｎｏ
100
AcDbText
  0
TEXT
  5
BB
330
6F
100
AcDbEntity
  8
_1-0_
 62
     7
100
AcDbText
 10
4554.738845590264
 20
314.4805050011681
 30
0.0
 40
60.0
  1
製 図 日
100
AcDbText
  0
TEXT
  5
BC
330
6F
100
AcDbEntity
  8
_1-0_
 62
     7
100
AcDbText
 10
4909.006694769479
 20
314.4805050011681
 30
0.0
 40
60.0
  1
平成　　年　　月　　日
100
AcDbText
  0
TEXT
  5
BD
330
6F
100
AcDbEntity
  8
_1-0_
 62
     7
100
AcDbText
 10
5223.728365435665
 20
690.1692008749389
 30
0.0
 40
60.0
  1
1/15
100
AcDbText
  0
TEXT
  5
BE
330
6F
100
AcDbEntity
  8
_1-0_
 62
     7
100
AcDbText
 10
5189.125459236764
 20
597.8947843445393
 30
0.0
 40
60.0
  1
1090kg
100
AcDbText
  0
TEXT
  5
BF
330
6F
100
AcDbEntity
  8
_1-0_
 62
     7
100
AcDbText
 10
4901.251081579334
 20
408.4026789696108
 30
0.0
 40
60.0
  1
FKHH-H0811-CR600
 41
0.9
100
AcDbText
  0
LINE
  5
C0
330
6F
100
AcDbEntity
  8
_1-0_
  6
Continuous
 62
     7
100
AcDbLine
 10
750.0
 20
3860.0
 30
0.0
 11
216.6666666666669
 21
3860.0
 31
0.0
  0
LINE
  5
C1
330
6F
100
AcDbEntity
  8
_1-0_
  6
Continuous
 62
     7
100
AcDbLine
 10
750.0
 20
3993.333333333334
 30
0.0
 11
750.0
 21
3860.0
 31
0.0
  0
TEXT
  5
C2
330
6F
100
AcDbEntity
  8
_1-0_
 62
     7
100
AcDbText
 10
260.0049374588548
 20
3886.140606086346
 30
0.0
 40
80.0
  1
組立構造図
100
AcDbText
  0
LINE
  5
C3
330
6F
100
AcDbEntity
  8
_1-0_
  6
Continuous
 62
     4
100
AcDbLine
 10
3663.494867325403
 20
2711.72823510679
 30
0.0
 11
3663.494867325403
 21
1645.06080334048
 31
0.0
  0
LINE
  5
C4
330
6F
100
AcDbEntity
  8
_1-0_
  6
DASHED1
 62
   136
100
AcDbLine
 10
4230.161939714827
 20
2805.060168637698
 30
0.0
 11
4243.495057814791
 21
2765.060114436594
 31
0.0
  0
LINE
  5
C5
330
6F
100
AcDbEntity
  8
_1-0_
  6
DASHED1
 62
   136
100
AcDbLine
 10
5043.495791886264
 20
2765.060114436594
 30
0.0
 11
4243.495057814791
 21
2765.060114436594
 31
0.0
  0
LINE
  5
C6
330
6F
100
AcDbEntity
  8
_1-0_
  6
DASHED1
 62
   136
100
AcDbLine
 10
5043.495791886264
 20
2765.060114436594
 30
0.0
 11
5056.828560035622
 21
2805.060168637698
 31
0.0
  0
LINE
  5
C7
330
6F
100
AcDbEntity
  8
_1-0_
  6
DASHED1
 62
   136
100
AcDbLine
 10
5110.161032435478
 20
2711.728691888557
 30
0.0
 11
4176.828767413758
 21
2711.728691888557
 31
0.0
  0
LINE
  5
C8
330
6F
100
AcDbEntity
  8
_1-0_
  6
DASHED1
 62
   136
100
AcDbLine
 10
5176.827672787115
 20
2645.06205153692
 30
0.0
 11
4110.16212706212
 21
2645.06205153692
 31
0.0
  0
LINE
  5
C9
330
6F
100
AcDbEntity
  8
_1-0_
  6
DASHED1
 62
   136
100
AcDbLine
 10
5110.161032435478
 20
1645.060871484622
 30
0.0
 11
5110.161032435478
 21
2711.728691888557
 31
0.0
  0
LINE
  5
CA
330
6F
100
AcDbEntity
  8
_1-0_
  6
DASHED1
 62
   136
100
AcDbLine
 10
5110.161032435478
 20
2711.728691888557
 30
0.0
 11
5176.827672787115
 21
2645.06205153692
 31
0.0
  0
LINE
  5
CB
330
6F
100
AcDbEntity
  8
_1-0_
  6
DASHED1
 62
   136
100
AcDbLine
 10
5176.827672787115
 20
1711.72751183626
 30
0.0
 11
5176.827672787115
 21
2645.06205153692
 31
0.0
  0
LINE
  5
CC
330
6F
100
AcDbEntity
  8
_1-0_
  6
DASHED1
 62
   136
100
AcDbLine
 10
5270.160549338681
 20
2591.727829384033
 30
0.0
 11
5230.160495137578
 21
2578.394711284069
 31
0.0
  0
LINE
  5
CD
330
6F
100
AcDbEntity
  8
_1-0_
  6
DASHED1
 62
   136
100
AcDbLine
 10
5230.160495137578
 20
1778.393977212595
 30
0.0
 11
5230.160495137578
 21
2578.394711284069
 31
0.0
  0
LINE
  5
CE
330
6F
100
AcDbEntity
  8
_1-0_
  6
DASHED1
 62
   136
100
AcDbLine
 10
5230.160495137578
 20
1778.393977212595
 30
0.0
 11
5270.160549338681
 21
1765.061209063237
 31
0.0
  0
LINE
  5
CF
330
6F
100
AcDbEntity
  8
_1-0_
  6
DASHED1
 62
   136
100
AcDbLine
 10
5176.827672787115
 20
1711.72751183626
 30
0.0
 11
5110.161032435478
 21
1645.060871484622
 31
0.0
  0
LINE
  5
D0
330
6F
100
AcDbEntity
  8
_1-0_
  6
DASHED1
 62
   136
100
AcDbLine
 10
4110.16212706212
 20
1711.72751183626
 30
0.0
 11
5176.827672787115
 21
1711.72751183626
 31
0.0
  0
LINE
  5
D1
330
6F
100
AcDbEntity
  8
_1-0_
  6
DASHED1
 62
   136
100
AcDbLine
 10
4176.828767413758
 20
1645.060871484622
 30
0.0
 11
5110.161032435478
 21
1645.060871484622
 31
0.0
  0
LINE
  5
D2
330
6F
100
AcDbEntity
  8
_1-0_
  6
DASHED1
 62
   136
100
AcDbLine
 10
5056.827860134409
 20
1551.728869809572
 30
0.0
 11
5043.494742034447
 21
1591.728924010676
 31
0.0
  0
LINE
  5
D3
330
6F
100
AcDbEntity
  8
_1-0_
  6
DASHED1
 62
   136
100
AcDbLine
 10
4243.494007962971
 20
1591.728924010676
 30
0.0
 11
5043.494742034447
 21
1591.728924010676
 31
0.0
  0
LINE
  5
D4
330
6F
100
AcDbEntity
  8
_1-0_
  6
DASHED1
 62
   136
100
AcDbLine
 10
4243.494007962971
 20
1591.728924010676
 30
0.0
 11
4230.161239813614
 21
1551.728869809572
 31
0.0
  0
LINE
  5
D5
330
6F
100
AcDbEntity
  8
_1-0_
  6
DASHED1
 62
   136
100
AcDbLine
 10
4176.828767413758
 20
1645.060871484622
 30
0.0
 11
4110.16212706212
 21
1711.72751183626
 31
0.0
  0
LINE
  5
D6
330
6F
100
AcDbEntity
  8
_1-0_
  6
DASHED1
 62
   136
100
AcDbLine
 10
4110.16212706212
 20
1711.72751183626
 30
0.0
 11
4110.16212706212
 21
2645.06205153692
 31
0.0
  0
LINE
  5
D7
330
6F
100
AcDbEntity
  8
_1-0_
  6
DASHED1
 62
   136
100
AcDbLine
 10
4176.828767413758
 20
2711.728691888557
 30
0.0
 11
4176.828767413758
 21
1645.060871484622
 31
0.0
  0
LINE
  5
D8
330
6F
100
AcDbEntity
  8
_1-0_
  6
DASHED1
 62
   136
100
AcDbLine
 10
4110.16212706212
 20
2645.06205153692
 30
0.0
 11
4176.828767413758
 21
2711.728691888557
 31
0.0
  0
LINE
  5
D9
330
6F
100
AcDbEntity
  8
_1-0_
  6
DASHED1
 62
   136
100
AcDbLine
 10
4056.830004612873
 20
2578.395061234676
 30
0.0
 11
4016.829950411768
 21
2591.727829384033
 31
0.0
  0
LINE
  5
DA
330
6F
100
AcDbEntity
  8
_1-0_
  6
DASHED1
 62
   136
100
AcDbLine
 10
4056.830004612873
 20
2578.395061234676
 30
0.0
 11
4056.830004612873
 21
1778.394327163201
 31
0.0
  0
LINE
  5
DB
330
6F
100
AcDbEntity
  8
_1-0_
  6
DASHED1
 62
   136
100
AcDbLine
 10
4016.829950411768
 20
1765.061209063237
 30
0.0
 11
4056.830004612873
 21
1778.394327163201
 31
0.0
  0
CIRCLE
  5
DC
330
6F
100
AcDbEntity
  8
_1-0_
  6
Continuous
 62
   136
100
AcDbCircle
 10
4643.494899924617
 20
2178.394519223635
 30
0.0
 40
133.3333681909274
  0
CIRCLE
  5
DD
330
6F
100
AcDbEntity
  8
_1-0_
  6
Continuous
 62
   136
100
AcDbCircle
 10
4643.494899924617
 20
2178.394519223635
 30
0.0
 40
120.0000094999217
  0
LINE
  5
DE
330
6F
100
AcDbEntity
  8
_1-0_
  6
DASHED1
 62
     6
100
AcDbLine
 10
4366.161844038095
 20
2758.393905337219
 30
0.0
 11
4366.161844038095
 21
2711.727292086132
 31
0.0
  0
LINE
  5
DF
330
6F
100
AcDbEntity
  8
_1-0_
  6
DASHED1
 62
     6
100
AcDbLine
 10
4387.494832998036
 20
2758.393905337219
 30
0.0
 11
4387.494832998036
 21
2711.727292086132
 31
0.0
  0
LINE
  5
E0
330
6F
100
AcDbEntity
  8
_1-0_
  6
DASHED1
 62
     6
100
AcDbLine
 10
4387.494832998036
 20
2758.393905337219
 30
0.0
 11
4366.161844038095
 21
2758.393905337219
 31
0.0
  0
LINE
  5
E1
330
6F
100
AcDbEntity
  8
_1-0_
  6
DASHED1
 62
     6
100
AcDbLine
 10
4899.494966851199
 20
2758.393905337219
 30
0.0
 11
4899.494966851199
 21
2711.727292086132
 31
0.0
  0
LINE
  5
E2
330
6F
100
AcDbEntity
  8
_1-0_
  6
DASHED1
 62
     6
100
AcDbLine
 10
4920.828305761746
 20
2758.393905337219
 30
0.0
 11
4920.828305761746
 21
2711.727292086132
 31
0.0
  0
LINE
  5
E3
330
6F
100
AcDbEntity
  8
_1-0_
  6
DASHED1
 62
     6
100
AcDbLine
 10
4920.828305761746
 20
2758.393905337219
 30
0.0
 11
4899.494966851199
 21
2758.393905337219
 31
0.0
  0
LINE
  5
E4
330
6F
100
AcDbEntity
  8
_1-0_
  6
DASHED1
 62
     6
100
AcDbLine
 10
4632.828405444647
 20
2758.393905337219
 30
0.0
 11
4632.828405444647
 21
2711.727292086132
 31
0.0
  0
LINE
  5
E5
330
6F
100
AcDbEntity
  8
_1-0_
  6
DASHED1
 62
     6
100
AcDbLine
 10
4654.161394404589
 20
2758.393905337219
 30
0.0
 11
4654.161394404589
 21
2711.727292086132
 31
0.0
  0
LINE
  5
E6
330
6F
100
AcDbEntity
  8
_1-0_
  6
DASHED1
 62
     6
100
AcDbLine
 10
4654.161394404589
 20
2758.393905337219
 30
0.0
 11
4632.828405444647
 21
2758.393905337219
 31
0.0
  0
LINE
  5
E7
330
6F
100
AcDbEntity
  8
_1-0_
  6
DASHED1
 62
     6
100
AcDbLine
 10
5223.494286038202
 20
2455.727925060765
 30
0.0
 11
5176.827672787115
 21
2455.727925060765
 31
0.0
  0
LINE
  5
E8
330
6F
100
AcDbEntity
  8
_1-0_
  6
DASHED1
 62
     6
100
AcDbLine
 10
5223.494286038202
 20
2434.394936100822
 30
0.0
 11
5176.827672787115
 21
2434.394936100822
 31
0.0
  0
LINE
  5
E9
330
6F
100
AcDbEntity
  8
_1-0_
  6
DASHED1
 62
     6
100
AcDbLine
 10
5223.494286038202
 20
2434.394936100822
 30
0.0
 11
5223.494286038202
 21
2455.727925060765
 31
0.0
  0
LINE
  5
EA
330
6F
100
AcDbEntity
  8
_1-0_
  6
DASHED1
 62
     6
100
AcDbLine
 10
5223.494286038202
 20
2167.728374694271
 30
0.0
 11
5176.827672787115
 21
2167.728374694271
 31
0.0
  0
LINE
  5
EB
330
6F
100
AcDbEntity
  8
_1-0_
  6
DASHED1
 62
     6
100
AcDbLine
 10
5223.494286038202
 20
2189.061363654213
 30
0.0
 11
5176.827672787115
 21
2189.061363654213
 31
0.0
  0
LINE
  5
EC
330
6F
100
AcDbEntity
  8
_1-0_
  6
DASHED1
 62
     6
100
AcDbLine
 10
5223.494286038202
 20
1922.394802247661
 30
0.0
 11
5176.827672787115
 21
1922.394802247661
 31
0.0
  0
LINE
  5
ED
330
6F
100
AcDbEntity
  8
_1-0_
  6
DASHED1
 62
     6
100
AcDbLine
 10
5223.494286038202
 20
1901.061463337112
 30
0.0
 11
5176.827672787115
 21
1901.061463337112
 31
0.0
  0
LINE
  5
EE
330
6F
100
AcDbEntity
  8
_1-0_
  6
DASHED1
 62
     6
100
AcDbLine
 10
5223.494286038202
 20
1901.061463337112
 30
0.0
 11
5223.494286038202
 21
1922.394802247661
 31
0.0
  0
LINE
  5
EF
330
6F
100
AcDbEntity
  8
_1-0_
  6
DASHED1
 62
     6
100
AcDbLine
 10
5223.494286038202
 20
2167.728374694271
 30
0.0
 11
5223.494286038202
 21
2189.061363654213
 31
0.0
  0
LINE
  5
F0
330
6F
100
AcDbEntity
  8
_1-0_
  6
DASHED1
 62
     6
100
AcDbLine
 10
4366.161494087489
 20
1598.395133110052
 30
0.0
 11
4366.161494087489
 21
1645.061746361139
 31
0.0
  0
LINE
  5
F1
330
6F
100
AcDbEntity
  8
_1-0_
  6
DASHED1
 62
     6
100
AcDbLine
 10
4366.161494087489
 20
1598.395133110052
 30
0.0
 11
4387.494832998036
 21
1598.395133110052
 31
0.0
  0
LINE
  5
F2
330
6F
100
AcDbEntity
  8
_1-0_
  6
DASHED1
 62
     6
100
AcDbLine
 10
4387.494832998036
 20
1598.395133110052
 30
0.0
 11
4387.494832998036
 21
1645.061746361139
 31
0.0
  0
LINE
  5
F3
330
6F
100
AcDbEntity
  8
_1-0_
  6
DASHED1
 62
     6
100
AcDbLine
 10
4632.828405444647
 20
1598.395133110052
 30
0.0
 11
4632.828405444647
 21
1645.061746361139
 31
0.0
  0
LINE
  5
F4
330
6F
100
AcDbEntity
  8
_1-0_
  6
DASHED1
 62
     6
100
AcDbLine
 10
4654.161394404589
 20
1598.395133110052
 30
0.0
 11
4654.161394404589
 21
1645.061746361139
 31
0.0
  0
LINE
  5
F5
330
6F
100
AcDbEntity
  8
_1-0_
  6
DASHED1
 62
     6
100
AcDbLine
 10
4899.494966851199
 20
1598.395133110052
 30
0.0
 11
4899.494966851199
 21
1645.061746361139
 31
0.0
  0
LINE
  5
F6
330
6F
100
AcDbEntity
  8
_1-0_
  6
DASHED1
 62
     6
100
AcDbLine
 10
4899.494966851199
 20
1598.395133110052
 30
0.0
 11
4920.827955811141
 21
1598.395133110052
 31
0.0
  0
LINE
  5
F7
330
6F
100
AcDbEntity
  8
_1-0_
  6
DASHED1
 62
     6
100
AcDbLine
 10
4920.827955811141
 20
1598.395133110052
 30
0.0
 11
4920.827955811141
 21
1645.061746361139
 31
0.0
  0
LINE
  5
F8
330
6F
100
AcDbEntity
  8
_1-0_
  6
DASHED1
 62
     6
100
AcDbLine
 10
4632.828405444647
 20
1598.395133110052
 30
0.0
 11
4654.161394404589
 21
1598.395133110052
 31
0.0
  0
LINE
  5
F9
330
6F
100
AcDbEntity
  8
_1-0_
  6
DASHED1
 62
     6
100
AcDbLine
 10
4063.496213712247
 20
2455.727575110158
 30
0.0
 11
4110.162826963334
 21
2455.727575110158
 31
0.0
  0
LINE
  5
FA
330
6F
100
AcDbEntity
  8
_1-0_
  6
DASHED1
 62
     6
100
AcDbLine
 10
4063.496213712247
 20
2434.394236199609
 30
0.0
 11
4110.162826963334
 21
2434.394236199609
 31
0.0
  0
LINE
  5
FB
330
6F
100
AcDbEntity
  8
_1-0_
  6
DASHED1
 62
     6
100
AcDbLine
 10
4063.496213712247
 20
2455.727575110158
 30
0.0
 11
4063.496213712247
 21
2434.394236199609
 31
0.0
  0
LINE
  5
FC
330
6F
100
AcDbEntity
  8
_1-0_
  6
DASHED1
 62
     6
100
AcDbLine
 10
4063.496213712247
 20
2189.060663753
 30
0.0
 11
4110.162826963334
 21
2189.060663753
 31
0.0
  0
LINE
  5
FD
330
6F
100
AcDbEntity
  8
_1-0_
  6
DASHED1
 62
     6
100
AcDbLine
 10
4063.496213712247
 20
2167.727674793059
 30
0.0
 11
4110.162826963334
 21
2167.727674793059
 31
0.0
  0
LINE
  5
FE
330
6F
100
AcDbEntity
  8
_1-0_
  6
DASHED1
 62
     6
100
AcDbLine
 10
4063.496213712247
 20
1922.394102346448
 30
0.0
 11
4110.162826963334
 21
1922.394102346448
 31
0.0
  0
LINE
  5
FF
330
6F
100
AcDbEntity
  8
_1-0_
  6
DASHED1
 62
     6
100
AcDbLine
 10
4063.496213712247
 20
1922.394102346448
 30
0.0
 11
4063.496213712247
 21
1901.061113386506
 31
0.0
  0
LINE
  5
100
330
6F
100
AcDbEntity
  8
_1-0_
  6
DASHED1
 62
     6
100
AcDbLine
 10
4063.496213712247
 20
1901.061113386506
 30
0.0
 11
4110.162826963334
 21
1901.061113386506
 31
0.0
  0
LINE
  5
101
330
6F
100
AcDbEntity
  8
_1-0_
  6
DASHED1
 62
     6
100
AcDbLine
 10
4063.496213712247
 20
2189.060663753
 30
0.0
 11
4063.496213712247
 21
2167.727674793059
 31
0.0
  0
LINE
  5
102
330
6F
100
AcDbEntity
  8
_1-0_
  6
Continuous
 62
     7
100
AcDbLine
 10
5256.827781189323
 20
2805.061568440124
 30
0.0
 11
4030.161668709307
 21
2805.061568440124
 31
0.0
  0
LINE
  5
103
330
6F
100
AcDbEntity
  8
_1-0_
  6
Continuous
 62
     7
100
AcDbLine
 10
4016.828200658737
 20
2791.728100389553
 30
0.0
 11
4030.161668709307
 21
2805.061568440124
 31
0.0
  0
LINE
  5
104
330
6F
100
AcDbEntity
  8
_1-0_
  6
Continuous
 62
     7
100
AcDbLine
 10
4016.828200658737
 20
1565.060588107111
 30
0.0
 11
4016.828200658737
 21
2791.728100389553
 31
0.0
  0
CIRCLE
  5
105
330
6F
100
AcDbEntity
  8
_1-0_
  6
Continuous
 62
     7
100
AcDbCircle
 10
4643.494899924617
 20
2178.394519223635
 30
0.0
 40
580.0000422709696
  0
CIRCLE
  5
106
330
6F
100
AcDbEntity
  8
_1-0_
  6
Continuous
 62
     7
100
AcDbCircle
 10
4643.494899924617
 20
2178.394519223635
 30
0.0
 40
400.0000170851305
  0
LINE
  5
107
330
6F
100
AcDbEntity
  8
_1-0_
  6
Continuous
 62
     7
100
AcDbLine
 10
5270.160899289287
 20
1565.060588107111
 30
0.0
 11
5270.160899289287
 21
2791.728100389553
 31
0.0
  0
LINE
  5
108
330
6F
100
AcDbEntity
  8
_1-0_
  6
Continuous
 62
     7
100
AcDbLine
 10
5256.827781189323
 20
2805.061568440124
 30
0.0
 11
5270.160899289287
 21
2791.728100389553
 31
0.0
  0
LINE
  5
109
330
6F
100
AcDbEntity
  8
_1-0_
  6
Continuous
 62
     7
100
AcDbLine
 10
4030.161668709307
 20
1551.727470007147
 30
0.0
 11
5256.827781189323
 21
1551.727470007147
 31
0.0
  0
LINE
  5
10A
330
6F
100
AcDbEntity
  8
_1-0_
  6
Continuous
 62
     7
100
AcDbLine
 10
4030.161668709307
 20
1551.727470007147
 30
0.0
 11
4016.828200658737
 21
1565.060588107111
 31
0.0
  0
LINE
  5
10B
330
6F
100
AcDbEntity
  8
_1-0_
  6
Continuous
 62
     7
100
AcDbLine
 10
5270.160899289287
 20
1565.060588107111
 30
0.0
 11
5256.827781189323
 21
1551.727470007147
 31
0.0
  0
LINE
  5
10C
330
6F
100
AcDbEntity
  8
_1-0_
  6
Continuous
 62
     4
100
AcDbLine
 10
5270.160899289287
 20
3331.72823510679
 30
0.0
 11
4016.828200658737
 21
3331.72823510679
 31
0.0
  0
LINE
  5
10D
330
6F
100
AcDbEntity
  8
_1-0_
  6
Continuous
 62
     4
100
AcDbLine
 10
4016.828200658737
 20
2825.061568440123
 30
0.0
 11
4016.828200658737
 21
3345.061568440124
 31
0.0
  0
LINE
  5
10E
330
6F
100
AcDbEntity
  8
_1-0_
  6
Continuous
 62
     4
100
AcDbLine
 10
5270.160899289287
 20
2825.061568440123
 30
0.0
 11
5270.160899289287
 21
3345.061568440124
 31
0.0
  0
LINE
  5
10F
330
6F
100
AcDbEntity
  8
_1-0_
  6
Continuous
 62
     4
100
AcDbLine
 10
4110.161533992069
 20
2825.061568440123
 30
0.0
 11
4110.161533992069
 21
3171.728235106789
 31
0.0
  0
LINE
  5
110
330
6F
100
AcDbEntity
  8
_1-0_
  6
Continuous
 62
     4
100
AcDbLine
 10
5176.827565955954
 20
2825.061568440123
 30
0.0
 11
5176.827565955954
 21
3171.728235106789
 31
0.0
  0
LINE
  5
111
330
6F
100
AcDbEntity
  8
_1-0_
  6
Continuous
 62
     4
100
AcDbLine
 10
5270.160899289287
 20
3158.394901773456
 30
0.0
 11
5176.827565955954
 21
3158.394901773456
 31
0.0
  0
LINE
  5
112
330
6F
100
AcDbEntity
  8
_1-0_
  6
Continuous
 62
     4
100
AcDbLine
 10
4110.161533992069
 20
3158.394901773456
 30
0.0
 11
4016.828200658737
 21
3158.394901773456
 31
0.0
  0
LINE
  5
113
330
6F
100
AcDbEntity
  8
_1-0_
  6
Continuous
 62
     4
100
AcDbLine
 10
5176.827565955954
 20
3158.394901773456
 30
0.0
 11
4110.161533992069
 21
3158.394901773456
 31
0.0
  0
LINE
  5
114
330
6F
100
AcDbEntity
  8
_1-0_
  6
Continuous
 62
     4
100
AcDbLine
 10
4176.828200658737
 20
2825.061568440123
 30
0.0
 11
4176.828200658737
 21
2998.394901773456
 31
0.0
  0
LINE
  5
115
330
6F
100
AcDbEntity
  8
_1-0_
  6
Continuous
 62
     4
100
AcDbLine
 10
5110.160899289287
 20
2825.061568440123
 30
0.0
 11
5110.160899289287
 21
2998.394901773456
 31
0.0
  0
LINE
  5
116
330
6F
100
AcDbEntity
  8
_1-0_
  6
Continuous
 62
     4
100
AcDbLine
 10
4243.494867325404
 20
2985.061568440123
 30
0.0
 11
4176.828200658737
 21
2985.061568440123
 31
0.0
  0
LINE
  5
117
330
6F
100
AcDbEntity
  8
_1-0_
  6
Continuous
 62
     4
100
AcDbLine
 10
4110.161533992069
 20
2985.061568440123
 30
0.0
 11
4043.494867325403
 21
2985.061568440123
 31
0.0
  0
LINE
  5
118
330
6F
100
AcDbEntity
  8
_1-0_
  6
Continuous
 62
     4
100
AcDbLine
 10
5243.494232622619
 20
2985.061568440123
 30
0.0
 11
5176.827565955954
 21
2985.061568440123
 31
0.0
  0
LINE
  5
119
330
6F
100
AcDbEntity
  8
_1-0_
  6
Continuous
 62
     4
100
AcDbLine
 10
5110.160899289287
 20
2985.061568440123
 30
0.0
 11
5043.49423262262
 21
2985.061568440123
 31
0.0
  0
LINE
  5
11A
330
6F
100
AcDbEntity
  8
_1-0_
  6
Continuous
 62
     4
100
AcDbLine
 10
4176.828200658737
 20
2985.061568440123
 30
0.0
 11
4110.161533992069
 21
2985.061568440123
 31
0.0
  0
LINE
  5
11B
330
6F
100
AcDbEntity
  8
_1-0_
  6
Continuous
 62
     4
100
AcDbLine
 10
5176.827565955954
 20
2985.061568440123
 30
0.0
 11
5110.160899289287
 21
2985.061568440123
 31
0.0
  0
LINE
  5
11C
330
6F
100
AcDbEntity
  8
_1-0_
  6
Continuous
 62
     4
100
AcDbLine
 10
4643.494549974011
 20
2825.061568440123
 30
0.0
 11
4643.494549974011
 21
2998.394901773456
 31
0.0
  0
LINE
  5
11D
330
6F
100
AcDbEntity
  8
_1-0_
  6
Continuous
 62
     4
100
AcDbLine
 10
4910.161216640679
 20
2825.061568440123
 30
0.0
 11
4910.161216640679
 21
2998.394901773456
 31
0.0
  0
LINE
  5
11E
330
6F
100
AcDbEntity
  8
_1-0_
  6
Continuous
 62
     4
100
AcDbLine
 10
4376.827883307345
 20
2825.061568440123
 30
0.0
 11
4376.827883307345
 21
2998.394901773456
 31
0.0
  0
LINE
  5
11F
330
6F
100
AcDbEntity
  8
_1-0_
  6
Continuous
 62
     4
100
AcDbLine
 10
4910.161216640679
 20
2985.061568440123
 30
0.0
 11
4643.494549974011
 21
2985.061568440123
 31
0.0
  0
LINE
  5
120
330
6F
100
AcDbEntity
  8
_1-0_
  6
Continuous
 62
     4
100
AcDbLine
 10
4643.494549974011
 20
2985.061568440123
 30
0.0
 11
4376.827883307345
 21
2985.061568440123
 31
0.0
  0
LINE
  5
121
330
6F
100
AcDbEntity
  8
_1-0_
  6
Continuous
 62
     4
100
AcDbLine
 10
5270.160899289287
 20
3331.72823510679
 30
0.0
 11
5235.38756954288
 21
3322.410749483099
 31
0.0
  0
LINE
  5
122
330
6F
100
AcDbEntity
  8
_1-0_
  6
Continuous
 62
     4
100
AcDbLine
 10
5270.160899289287
 20
3331.72823510679
 30
0.0
 11
5235.38756954288
 21
3341.045720730481
 31
0.0
  0
LINE
  5
123
330
6F
100
AcDbEntity
  8
_1-0_
  6
Continuous
 62
     4
100
AcDbLine
 10
4016.828200658737
 20
3331.72823510679
 30
0.0
 11
4051.601530405144
 21
3341.045720730481
 31
0.0
  0
LINE
  5
124
330
6F
100
AcDbEntity
  8
_1-0_
  6
Continuous
 62
     4
100
AcDbLine
 10
4016.828200658737
 20
3331.72823510679
 30
0.0
 11
4051.601530405144
 21
3322.410749483099
 31
0.0
  0
LINE
  5
125
330
6F
100
AcDbEntity
  8
_1-0_
  6
Continuous
 62
     4
100
AcDbLine
 10
4016.828200658737
 20
3158.394901773456
 30
0.0
 11
4051.601530405144
 21
3167.712387397147
 31
0.0
  0
LINE
  5
126
330
6F
100
AcDbEntity
  8
_1-0_
  6
Continuous
 62
     4
100
AcDbLine
 10
4016.828200658737
 20
3158.394901773456
 30
0.0
 11
4051.601530405144
 21
3149.077416149766
 31
0.0
  0
LINE
  5
127
330
6F
100
AcDbEntity
  8
_1-0_
  6
Continuous
 62
     4
100
AcDbLine
 10
4110.161533992069
 20
3158.394901773456
 30
0.0
 11
4075.388204245664
 21
3149.077416149766
 31
0.0
  0
LINE
  5
128
330
6F
100
AcDbEntity
  8
_1-0_
  6
Continuous
 62
     4
100
AcDbLine
 10
4110.161533992069
 20
3158.394901773456
 30
0.0
 11
4075.388204245664
 21
3167.712387397147
 31
0.0
  0
LINE
  5
129
330
6F
100
AcDbEntity
  8
_1-0_
  6
Continuous
 62
     4
100
AcDbLine
 10
4110.161533992069
 20
3158.394901773456
 30
0.0
 11
4144.934863738477
 21
3167.712387397147
 31
0.0
  0
LINE
  5
12A
330
6F
100
AcDbEntity
  8
_1-0_
  6
Continuous
 62
     4
100
AcDbLine
 10
4110.161533992069
 20
3158.394901773456
 30
0.0
 11
4144.934863738477
 21
3149.077416149766
 31
0.0
  0
LINE
  5
12B
330
6F
100
AcDbEntity
  8
_1-0_
  6
Continuous
 62
     4
100
AcDbLine
 10
5176.827565955954
 20
3158.394901773456
 30
0.0
 11
5142.054236209546
 21
3149.077416149766
 31
0.0
  0
LINE
  5
12C
330
6F
100
AcDbEntity
  8
_1-0_
  6
Continuous
 62
     4
100
AcDbLine
 10
5176.827565955954
 20
3158.394901773456
 30
0.0
 11
5142.054236209546
 21
3167.712387397147
 31
0.0
  0
LINE
  5
12D
330
6F
100
AcDbEntity
  8
_1-0_
  6
Continuous
 62
     4
100
AcDbLine
 10
5176.827565955954
 20
3158.394901773456
 30
0.0
 11
5211.60089570236
 21
3167.712387397147
 31
0.0
  0
LINE
  5
12E
330
6F
100
AcDbEntity
  8
_1-0_
  6
Continuous
 62
     4
100
AcDbLine
 10
5176.827565955954
 20
3158.394901773456
 30
0.0
 11
5211.60089570236
 21
3149.077416149766
 31
0.0
  0
LINE
  5
12F
330
6F
100
AcDbEntity
  8
_1-0_
  6
Continuous
 62
     4
100
AcDbLine
 10
5270.160899289287
 20
3158.394901773456
 30
0.0
 11
5235.38756954288
 21
3149.077416149766
 31
0.0
  0
LINE
  5
130
330
6F
100
AcDbEntity
  8
_1-0_
  6
Continuous
 62
     4
100
AcDbLine
 10
5270.160899289287
 20
3158.394901773456
 30
0.0
 11
5235.38756954288
 21
3167.712387397147
 31
0.0
  0
LINE
  5
131
330
6F
100
AcDbEntity
  8
_1-0_
  6
Continuous
 62
     4
100
AcDbLine
 10
5176.827565955954
 20
2985.061568440123
 30
0.0
 11
5211.60089570236
 21
2994.379054063813
 31
0.0
  0
LINE
  5
132
330
6F
100
AcDbEntity
  8
_1-0_
  6
Continuous
 62
     4
100
AcDbLine
 10
5176.827565955954
 20
2985.061568440123
 30
0.0
 11
5211.60089570236
 21
2975.744082816432
 31
0.0
  0
LINE
  5
133
330
6F
100
AcDbEntity
  8
_1-0_
  6
Continuous
 62
     4
100
AcDbLine
 10
5110.160899289287
 20
2985.061568440123
 30
0.0
 11
5075.38756954288
 21
2975.744082816432
 31
0.0
  0
LINE
  5
134
330
6F
100
AcDbEntity
  8
_1-0_
  6
Continuous
 62
     4
100
AcDbLine
 10
5110.160899289287
 20
2985.061568440123
 30
0.0
 11
5075.38756954288
 21
2994.379054063813
 31
0.0
  0
LINE
  5
135
330
6F
100
AcDbEntity
  8
_1-0_
  6
Continuous
 62
     4
100
AcDbLine
 10
4910.161216640679
 20
2985.061568440123
 30
0.0
 11
4875.387886894272
 21
2975.744082816432
 31
0.0
  0
LINE
  5
136
330
6F
100
AcDbEntity
  8
_1-0_
  6
Continuous
 62
     4
100
AcDbLine
 10
4910.161216640679
 20
2985.061568440123
 30
0.0
 11
4875.387886894272
 21
2994.379054063813
 31
0.0
  0
LINE
  5
137
330
6F
100
AcDbEntity
  8
_1-0_
  6
Continuous
 62
     4
100
AcDbLine
 10
4643.494549974011
 20
2985.061568440123
 30
0.0
 11
4678.267879720418
 21
2994.379054063813
 31
0.0
  0
LINE
  5
138
330
6F
100
AcDbEntity
  8
_1-0_
  6
Continuous
 62
     4
100
AcDbLine
 10
4643.494549974011
 20
2985.061568440123
 30
0.0
 11
4678.267879720418
 21
2975.744082816432
 31
0.0
  0
LINE
  5
139
330
6F
100
AcDbEntity
  8
_1-0_
  6
Continuous
 62
     4
100
AcDbLine
 10
4643.494549974011
 20
2985.061568440123
 30
0.0
 11
4608.721220227606
 21
2975.744082816432
 31
0.0
  0
LINE
  5
13A
330
6F
100
AcDbEntity
  8
_1-0_
  6
Continuous
 62
     4
100
AcDbLine
 10
4643.494549974011
 20
2985.061568440123
 30
0.0
 11
4608.721220227606
 21
2994.379054063813
 31
0.0
  0
LINE
  5
13B
330
6F
100
AcDbEntity
  8
_1-0_
  6
Continuous
 62
     4
100
AcDbLine
 10
4376.827883307345
 20
2985.061568440123
 30
0.0
 11
4411.601213053751
 21
2994.379054063813
 31
0.0
  0
LINE
  5
13C
330
6F
100
AcDbEntity
  8
_1-0_
  6
Continuous
 62
     4
100
AcDbLine
 10
4376.827883307345
 20
2985.061568440123
 30
0.0
 11
4411.601213053751
 21
2975.744082816432
 31
0.0
  0
LINE
  5
13D
330
6F
100
AcDbEntity
  8
_1-0_
  6
Continuous
 62
     4
100
AcDbLine
 10
4176.828200658737
 20
2985.061568440123
 30
0.0
 11
4211.601530405144
 21
2994.379054063813
 31
0.0
  0
LINE
  5
13E
330
6F
100
AcDbEntity
  8
_1-0_
  6
Continuous
 62
     4
100
AcDbLine
 10
4176.828200658737
 20
2985.061568440123
 30
0.0
 11
4211.601530405144
 21
2975.744082816432
 31
0.0
  0
LINE
  5
13F
330
6F
100
AcDbEntity
  8
_1-0_
  6
Continuous
 62
     4
100
AcDbLine
 10
4110.161533992069
 20
2985.061568440123
 30
0.0
 11
4075.388204245664
 21
2975.744082816432
 31
0.0
  0
LINE
  5
140
330
6F
100
AcDbEntity
  8
_1-0_
  6
Continuous
 62
     4
100
AcDbLine
 10
4110.161533992069
 20
2985.061568440123
 30
0.0
 11
4075.388204245664
 21
2994.379054063813
 31
0.0
  0
LINE
  5
141
330
6F
100
AcDbEntity
  8
_1-0_
  6
Continuous
 62
     4
100
AcDbLine
 10
5290.160899289287
 20
2578.394711284069
 30
0.0
 11
5463.49423262262
 21
2578.394711284069
 31
0.0
  0
LINE
  5
142
330
6F
100
AcDbEntity
  8
_1-0_
  6
Continuous
 62
     4
100
AcDbLine
 10
5450.160899289286
 20
1778.393977212595
 30
0.0
 11
5450.160899289286
 21
2578.394711284069
 31
0.0
  0
LINE
  5
143
330
6F
100
AcDbEntity
  8
_1-0_
  6
Continuous
 62
     4
100
AcDbLine
 10
5290.160899289287
 20
1778.393977212595
 30
0.0
 11
5463.49423262262
 21
1778.393977212595
 31
0.0
  0
LINE
  5
144
330
6F
100
AcDbEntity
  8
_1-0_
  6
Continuous
 62
     4
100
AcDbLine
 10
5450.160899289286
 20
2578.394711284069
 30
0.0
 11
5459.478384912977
 21
2543.621381537662
 31
0.0
  0
LINE
  5
145
330
6F
100
AcDbEntity
  8
_1-0_
  6
Continuous
 62
     4
100
AcDbLine
 10
5450.160899289286
 20
2578.394711284069
 30
0.0
 11
5440.843413665596
 21
2543.621381537662
 31
0.0
  0
LINE
  5
146
330
6F
100
AcDbEntity
  8
_1-0_
  6
Continuous
 62
     4
100
AcDbLine
 10
5450.160899289286
 20
1778.393977212595
 30
0.0
 11
5440.843413665596
 21
1813.167306959001
 31
0.0
  0
LINE
  5
147
330
6F
100
AcDbEntity
  8
_1-0_
  6
Continuous
 62
     4
100
AcDbLine
 10
5450.160899289286
 20
1778.393977212595
 30
0.0
 11
5459.478384912977
 21
1813.167306959001
 31
0.0
  0
LINE
  5
148
330
6F
100
AcDbEntity
  8
_1-0_
  6
Continuous
 62
     4
100
AcDbLine
 10
3490.161533992071
 20
1551.727470007147
 30
0.0
 11
3490.161533992071
 21
2805.061568440124
 31
0.0
  0
LINE
  5
149
330
6F
100
AcDbEntity
  8
_1-0_
  6
Continuous
 62
     4
100
AcDbLine
 10
3996.828200658737
 20
2805.061568440124
 30
0.0
 11
3476.828200658738
 21
2805.061568440124
 31
0.0
  0
LINE
  5
14A
330
6F
100
AcDbEntity
  8
_1-0_
  6
Continuous
 62
     4
100
AcDbLine
 10
3996.828200658737
 20
1551.727470007147
 30
0.0
 11
3476.828200658738
 21
1551.727470007147
 31
0.0
  0
LINE
  5
14B
330
6F
100
AcDbEntity
  8
_1-0_
  6
Continuous
 62
     4
100
AcDbLine
 10
3996.828200658737
 20
2711.72823510679
 30
0.0
 11
3650.161533992071
 21
2711.72823510679
 31
0.0
  0
LINE
  5
14C
330
6F
100
AcDbEntity
  8
_1-0_
  6
Continuous
 62
     4
100
AcDbLine
 10
3996.828200658737
 20
1645.06080334048
 30
0.0
 11
3650.161533992071
 21
1645.06080334048
 31
0.0
  0
LINE
  5
14D
330
6F
100
AcDbEntity
  8
_1-0_
  6
Continuous
 62
     4
100
AcDbLine
 10
3663.494867325403
 20
1551.727470007147
 30
0.0
 11
3663.494867325403
 21
1645.06080334048
 31
0.0
  0
LINE
  5
14E
330
6F
100
AcDbEntity
  8
_1-0_
  6
Continuous
 62
     4
100
AcDbLine
 10
3663.494867325403
 20
2711.72823510679
 30
0.0
 11
3663.494867325403
 21
2805.061568440124
 31
0.0
  0
LINE
  5
14F
330
6F
100
AcDbEntity
  8
_1-0_
  6
Continuous
 62
     4
100
AcDbLine
 10
3996.828200658737
 20
2645.061568440123
 30
0.0
 11
3823.494867325403
 21
2645.061568440123
 31
0.0
  0
LINE
  5
150
330
6F
100
AcDbEntity
  8
_1-0_
  6
Continuous
 62
     4
100
AcDbLine
 10
3996.828200658737
 20
1711.727470007147
 30
0.0
 11
3823.494867325403
 21
1711.727470007147
 31
0.0
  0
LINE
  5
151
330
6F
100
AcDbEntity
  8
_1-0_
  6
Continuous
 62
     4
100
AcDbLine
 10
3836.828200658737
 20
2578.394901773457
 30
0.0
 11
3836.828200658737
 21
2645.061568440123
 31
0.0
  0
LINE
  5
152
330
6F
100
AcDbEntity
  8
_1-0_
  6
Continuous
 62
     4
100
AcDbLine
 10
3836.828200658737
 20
2711.72823510679
 30
0.0
 11
3836.828200658737
 21
2778.394901773456
 31
0.0
  0
LINE
  5
153
330
6F
100
AcDbEntity
  8
_1-0_
  6
Continuous
 62
     4
100
AcDbLine
 10
3836.828200658737
 20
1578.394136673814
 30
0.0
 11
3836.828200658737
 21
1645.06080334048
 31
0.0
  0
LINE
  5
154
330
6F
100
AcDbEntity
  8
_1-0_
  6
Continuous
 62
     4
100
AcDbLine
 10
3836.828200658737
 20
1711.727470007147
 30
0.0
 11
3836.828200658737
 21
1778.394136673814
 31
0.0
  0
LINE
  5
155
330
6F
100
AcDbEntity
  8
_1-0_
  6
Continuous
 62
     4
100
AcDbLine
 10
3836.828200658737
 20
2711.72823510679
 30
0.0
 11
3836.828200658737
 21
2645.061568440123
 31
0.0
  0
LINE
  5
156
330
6F
100
AcDbEntity
  8
_1-0_
  6
Continuous
 62
     4
100
AcDbLine
 10
3836.828200658737
 20
1711.727470007147
 30
0.0
 11
3836.828200658737
 21
1645.06080334048
 31
0.0
  0
LINE
  5
157
330
6F
100
AcDbEntity
  8
_1-0_
  6
Continuous
 62
     4
100
AcDbLine
 10
3996.828200658737
 20
2178.394519223635
 30
0.0
 11
3823.494867325403
 21
2178.394519223635
 31
0.0
  0
LINE
  5
158
330
6F
100
AcDbEntity
  8
_1-0_
  6
Continuous
 62
     4
100
AcDbLine
 10
3996.828200658737
 20
2445.061185890302
 30
0.0
 11
3823.494867325403
 21
2445.061185890302
 31
0.0
  0
LINE
  5
159
330
6F
100
AcDbEntity
  8
_1-0_
  6
Continuous
 62
     4
100
AcDbLine
 10
3996.828200658737
 20
1911.727852556969
 30
0.0
 11
3823.494867325403
 21
1911.727852556969
 31
0.0
  0
LINE
  5
15A
330
6F
100
AcDbEntity
  8
_1-0_
  6
Continuous
 62
     4
100
AcDbLine
 10
3836.828200658737
 20
1911.727852556969
 30
0.0
 11
3836.828200658737
 21
2178.394519223635
 31
0.0
  0
LINE
  5
15B
330
6F
100
AcDbEntity
  8
_1-0_
  6
Continuous
 62
     4
100
AcDbLine
 10
3836.828200658737
 20
2445.061185890302
 30
0.0
 11
3836.828200658737
 21
2178.394519223635
 31
0.0
  0
LINE
  5
15C
330
6F
100
AcDbEntity
  8
_1-0_
  6
Continuous
 62
     4
100
AcDbLine
 10
3836.828200658737
 20
2711.72823510679
 30
0.0
 11
3827.510715035046
 21
2746.501564853196
 31
0.0
  0
LINE
  5
15D
330
6F
100
AcDbEntity
  8
_1-0_
  6
Continuous
 62
     4
100
AcDbLine
 10
3836.828200658737
 20
2711.72823510679
 30
0.0
 11
3846.145686282428
 21
2746.501564853196
 31
0.0
  0
LINE
  5
15E
330
6F
100
AcDbEntity
  8
_1-0_
  6
Continuous
 62
     4
100
AcDbLine
 10
3836.828200658737
 20
2645.061568440123
 30
0.0
 11
3846.145686282428
 21
2610.288238693716
 31
0.0
  0
LINE
  5
15F
330
6F
100
AcDbEntity
  8
_1-0_
  6
Continuous
 62
     4
100
AcDbLine
 10
3836.828200658737
 20
2645.061568440123
 30
0.0
 11
3827.510715035046
 21
2610.288238693716
 31
0.0
  0
LINE
  5
160
330
6F
100
AcDbEntity
  8
_1-0_
  6
Continuous
 62
     4
100
AcDbLine
 10
3663.494867325403
 20
2805.061568440124
 30
0.0
 11
3672.812352949095
 21
2770.288238693716
 31
0.0
  0
LINE
  5
161
330
6F
100
AcDbEntity
  8
_1-0_
  6
Continuous
 62
     4
100
AcDbLine
 10
3663.494867325403
 20
2805.061568440124
 30
0.0
 11
3654.177381701714
 21
2770.288238693716
 31
0.0
  0
LINE
  5
162
330
6F
100
AcDbEntity
  8
_1-0_
  6
Continuous
 62
     4
100
AcDbLine
 10
3663.494867325403
 20
2711.72823510679
 30
0.0
 11
3654.177381701714
 21
2746.501564853196
 31
0.0
  0
LINE
  5
163
330
6F
100
AcDbEntity
  8
_1-0_
  6
Continuous
 62
     4
100
AcDbLine
 10
3663.494867325403
 20
2711.72823510679
 30
0.0
 11
3672.812352949095
 21
2746.501564853196
 31
0.0
  0
LINE
  5
164
330
6F
100
AcDbEntity
  8
_1-0_
  6
Continuous
 62
     4
100
AcDbLine
 10
3490.161533992071
 20
2805.061568440124
 30
0.0
 11
3499.479019615761
 21
2770.288238693716
 31
0.0
  0
LINE
  5
165
330
6F
100
AcDbEntity
  8
_1-0_
  6
Continuous
 62
     4
100
AcDbLine
 10
3490.161533992071
 20
2805.061568440124
 30
0.0
 11
3480.844048368381
 21
2770.288238693716
 31
0.0
  0
LINE
  5
166
330
6F
100
AcDbEntity
  8
_1-0_
  6
Continuous
 62
     4
100
AcDbLine
 10
3663.494867325403
 20
2711.72823510679
 30
0.0
 11
3672.812352949095
 21
2676.954905360383
 31
0.0
  0
LINE
  5
167
330
6F
100
AcDbEntity
  8
_1-0_
  6
Continuous
 62
     4
100
AcDbLine
 10
3663.494867325403
 20
2711.72823510679
 30
0.0
 11
3654.177381701714
 21
2676.954905360383
 31
0.0
  0
LINE
  5
168
330
6F
100
AcDbEntity
  8
_1-0_
  6
Continuous
 62
     4
100
AcDbLine
 10
3836.828200658737
 20
2445.061185890302
 30
0.0
 11
3846.145686282428
 21
2410.287856143896
 31
0.0
  0
LINE
  5
169
330
6F
100
AcDbEntity
  8
_1-0_
  6
Continuous
 62
     4
100
AcDbLine
 10
3836.828200658737
 20
2445.061185890302
 30
0.0
 11
3827.510715035046
 21
2410.287856143896
 31
0.0
  0
LINE
  5
16A
330
6F
100
AcDbEntity
  8
_1-0_
  6
Continuous
 62
     4
100
AcDbLine
 10
3836.828200658737
 20
2178.394519223635
 30
0.0
 11
3827.510715035046
 21
2213.167848970042
 31
0.0
  0
LINE
  5
16B
330
6F
100
AcDbEntity
  8
_1-0_
  6
Continuous
 62
     4
100
AcDbLine
 10
3836.828200658737
 20
2178.394519223635
 30
0.0
 11
3846.145686282428
 21
2213.167848970042
 31
0.0
  0
LINE
  5
16C
330
6F
100
AcDbEntity
  8
_1-0_
  6
Continuous
 62
     4
100
AcDbLine
 10
3836.828200658737
 20
2178.394519223635
 30
0.0
 11
3846.145686282428
 21
2143.621189477229
 31
0.0
  0
LINE
  5
16D
330
6F
100
AcDbEntity
  8
_1-0_
  6
Continuous
 62
     4
100
AcDbLine
 10
3836.828200658737
 20
2178.394519223635
 30
0.0
 11
3827.510715035046
 21
2143.621189477229
 31
0.0
  0
LINE
  5
16E
330
6F
100
AcDbEntity
  8
_1-0_
  6
Continuous
 62
     4
100
AcDbLine
 10
3836.828200658737
 20
1911.727852556969
 30
0.0
 11
3827.510715035046
 21
1946.501182303375
 31
0.0
  0
LINE
  5
16F
330
6F
100
AcDbEntity
  8
_1-0_
  6
Continuous
 62
     4
100
AcDbLine
 10
3836.828200658737
 20
1911.727852556969
 30
0.0
 11
3846.145686282428
 21
1946.501182303375
 31
0.0
  0
LINE
  5
170
330
6F
100
AcDbEntity
  8
_1-0_
  6
Continuous
 62
     4
100
AcDbLine
 10
3836.828200658737
 20
1711.727470007147
 30
0.0
 11
3827.510715035046
 21
1746.500799753554
 31
0.0
  0
LINE
  5
171
330
6F
100
AcDbEntity
  8
_1-0_
  6
Continuous
 62
     4
100
AcDbLine
 10
3836.828200658737
 20
1711.727470007147
 30
0.0
 11
3846.145686282428
 21
1746.500799753554
 31
0.0
  0
LINE
  5
172
330
6F
100
AcDbEntity
  8
_1-0_
  6
Continuous
 62
     4
100
AcDbLine
 10
3836.828200658737
 20
1645.06080334048
 30
0.0
 11
3846.145686282428
 21
1610.287473594074
 31
0.0
  0
LINE
  5
173
330
6F
100
AcDbEntity
  8
_1-0_
  6
Continuous
 62
     4
100
AcDbLine
 10
3836.828200658737
 20
1645.06080334048
 30
0.0
 11
3827.510715035046
 21
1610.287473594074
 31
0.0
  0
LINE
  5
174
330
6F
100
AcDbEntity
  8
_1-0_
  6
Continuous
 62
     4
100
AcDbLine
 10
3663.494867325403
 20
1645.06080334048
 30
0.0
 11
3654.177381701714
 21
1679.834133086887
 31
0.0
  0
LINE
  5
175
330
6F
100
AcDbEntity
  8
_1-0_
  6
Continuous
 62
     4
100
AcDbLine
 10
3663.494867325403
 20
1645.06080334048
 30
0.0
 11
3672.812352949095
 21
1679.834133086887
 31
0.0
  0
LINE
  5
176
330
6F
100
AcDbEntity
  8
_1-0_
  6
Continuous
 62
     4
100
AcDbLine
 10
3663.494867325403
 20
1645.06080334048
 30
0.0
 11
3672.812352949095
 21
1610.287473594074
 31
0.0
  0
LINE
  5
177
330
6F
100
AcDbEntity
  8
_1-0_
  6
Continuous
 62
     4
100
AcDbLine
 10
3663.494867325403
 20
1645.06080334048
 30
0.0
 11
3654.177381701714
 21
1610.287473594074
 31
0.0
  0
LINE
  5
178
330
6F
100
AcDbEntity
  8
_1-0_
  6
Continuous
 62
     4
100
AcDbLine
 10
3663.494867325403
 20
1551.727470007147
 30
0.0
 11
3654.177381701714
 21
1586.500799753554
 31
0.0
  0
LINE
  5
179
330
6F
100
AcDbEntity
  8
_1-0_
  6
Continuous
 62
     4
100
AcDbLine
 10
3663.494867325403
 20
1551.727470007147
 30
0.0
 11
3672.812352949095
 21
1586.500799753554
 31
0.0
  0
LINE
  5
17A
330
6F
100
AcDbEntity
  8
_1-0_
  6
Continuous
 62
     4
100
AcDbLine
 10
3490.161533992071
 20
1551.727470007147
 30
0.0
 11
3480.844048368381
 21
1586.500799753554
 31
0.0
  0
LINE
  5
17B
330
6F
100
AcDbEntity
  8
_1-0_
  6
Continuous
 62
     4
100
AcDbLine
 10
3490.161533992071
 20
1551.727470007147
 30
0.0
 11
3499.479019615761
 21
1586.500799753554
 31
0.0
  0
LINE
  5
17C
330
6F
100
AcDbEntity
  8
_1-0_
  6
Continuous
 62
     4
100
AcDbLine
 10
5043.494742034447
 20
1531.727470007147
 30
0.0
 11
5043.494742034447
 21
1358.394136673814
 31
0.0
  0
LINE
  5
17D
330
6F
100
AcDbEntity
  8
_1-0_
  6
Continuous
 62
     4
100
AcDbLine
 10
4243.494007962971
 20
1371.727470007148
 30
0.0
 11
5043.494742034447
 21
1371.727470007148
 31
0.0
  0
LINE
  5
17E
330
6F
100
AcDbEntity
  8
_1-0_
  6
Continuous
 62
     4
100
AcDbLine
 10
4243.494007962971
 20
1531.727470007147
 30
0.0
 11
4243.494007962971
 21
1358.394136673814
 31
0.0
  0
LINE
  5
17F
330
6F
100
AcDbEntity
  8
_1-0_
  6
Continuous
 62
     4
100
AcDbLine
 10
5043.494742034447
 20
1371.727470007148
 30
0.0
 11
5008.72141228804
 21
1362.409984383457
 31
0.0
  0
LINE
  5
180
330
6F
100
AcDbEntity
  8
_1-0_
  6
Continuous
 62
     4
100
AcDbLine
 10
5043.494742034447
 20
1371.727470007148
 30
0.0
 11
5008.72141228804
 21
1381.044955630838
 31
0.0
  0
LINE
  5
181
330
6F
100
AcDbEntity
  8
_1-0_
  6
Continuous
 62
     4
100
AcDbLine
 10
4243.494007962971
 20
1371.727470007148
 30
0.0
 11
4278.267337709377
 21
1381.044955630838
 31
0.0
  0
LINE
  5
182
330
6F
100
AcDbEntity
  8
_1-0_
  6
Continuous
 62
     4
100
AcDbLine
 10
4243.494007962971
 20
1371.727470007148
 30
0.0
 11
4278.267337709377
 21
1362.409984383457
 31
0.0
  0
LINE
  5
183
330
6F
100
AcDbEntity
  8
_1-0_
  6
Continuous
 62
     4
100
AcDbLine
 10
4366.161494087489
 20
1614.780861550417
 30
0.0
 11
4129.504244426938
 21
1371.727470007148
 31
0.0
  0
LINE
  5
184
330
6F
100
AcDbEntity
  8
_1-0_
  6
Continuous
 62
     4
100
AcDbLine
 10
4366.161494087489
 20
1614.780861550417
 30
0.0
 11
4348.578749122513
 21
1583.366739256509
 31
0.0
  0
LINE
  5
185
330
6F
100
AcDbEntity
  8
_1-0_
  6
Continuous
 62
     4
100
AcDbLine
 10
4366.161494087489
 20
1614.780861550417
 30
0.0
 11
4335.227329132602
 21
1596.36680608879
 31
0.0
  0
LINE
  5
186
330
6F
100
AcDbEntity
  8
_1-0_
  6
DASHED1
 62
   136
100
AcDbLine
 10
1491.35886701781
 20
3173.247654557167
 30
0.0
 11
1491.35886701781
 21
2919.914386225883
 31
0.0
  0
LINE
  5
187
330
6F
100
AcDbEntity
  8
_1-0_
  6
DASHED1
 62
   136
100
AcDbLine
 10
2291.358901188072
 20
3173.247654557167
 30
0.0
 11
2291.358901188072
 21
2919.914386225883
 31
0.0
  0
LINE
  5
188
330
6F
100
AcDbEntity
  8
_1-0_
  6
DASHED1
 62
   136
100
AcDbLine
 10
1298.024192698104
 20
2653.247299893421
 30
0.0
 11
1298.024192698104
 21
2786.580755572001
 31
0.0
  0
LINE
  5
189
330
6F
100
AcDbEntity
  8
_1-0_
  6
DASHED1
 62
   136
100
AcDbLine
 10
1298.024192698104
 20
2786.580755572001
 30
0.0
 11
1264.690872522285
 21
2799.914048647268
 31
0.0
  0
LINE
  5
18A
330
6F
100
AcDbEntity
  8
_1-0_
  6
DASHED1
 62
   136
100
AcDbLine
 10
1264.690872522285
 20
2639.914006818154
 30
0.0
 11
1298.024192698104
 21
2653.247299893421
 31
0.0
  0
LINE
  5
18B
330
6F
100
AcDbEntity
  8
_1-0_
  6
DASHED1
 62
   136
100
AcDbLine
 10
1358.024536462715
 20
1519.913888989667
 30
0.0
 11
1358.024536462715
 21
2919.914036275276
 31
0.0
  0
LINE
  5
18C
330
6F
100
AcDbEntity
  8
_1-0_
  6
DASHED1
 62
   136
100
AcDbLine
 10
1424.691351789656
 20
1453.24724863803
 30
0.0
 11
1424.691351789656
 21
2919.914036275276
 31
0.0
  0
LINE
  5
18D
330
6F
100
AcDbEntity
  8
_1-0_
  6
DASHED1
 62
   136
100
AcDbLine
 10
2358.026591391528
 20
1453.24724863803
 30
0.0
 11
2358.026591391528
 21
2919.914036275276
 31
0.0
  0
LINE
  5
18E
330
6F
100
AcDbEntity
  8
_1-0_
  6
DASHED1
 62
   136
100
AcDbLine
 10
2424.693231743166
 20
1519.913888989667
 30
0.0
 11
2424.693231743166
 21
2919.914036275276
 31
0.0
  0
LINE
  5
18F
330
6F
100
AcDbEntity
  8
_1-0_
  6
DASHED1
 62
   136
100
AcDbLine
 10
2484.694012946035
 20
2653.247299893421
 30
0.0
 11
2484.694012946035
 21
2786.580755572001
 31
0.0
  0
LINE
  5
190
330
6F
100
AcDbEntity
  8
_1-0_
  6
DASHED1
 62
   136
100
AcDbLine
 10
2484.694012946035
 20
2786.580755572001
 30
0.0
 11
2518.027158146551
 21
2799.914048647268
 31
0.0
  0
LINE
  5
191
330
6F
100
AcDbEntity
  8
_1-0_
  6
DASHED1
 62
   136
100
AcDbLine
 10
2518.027158146551
 20
2639.914006818154
 30
0.0
 11
2484.694012946035
 21
2653.247299893421
 31
0.0
  0
LINE
  5
192
330
6F
100
AcDbEntity
  8
_1-0_
  6
DASHED1
 62
   136
100
AcDbLine
 10
1264.690872522285
 20
1946.580842175938
 30
0.0
 11
1298.024192698104
 21
1933.247724075975
 31
0.0
  0
LINE
  5
193
330
6F
100
AcDbEntity
  8
_1-0_
  6
DASHED1
 62
   136
100
AcDbLine
 10
1298.024192698104
 20
1533.247182064934
 30
0.0
 11
1298.024192698104
 21
1933.247724075975
 31
0.0
  0
LINE
  5
194
330
6F
100
AcDbEntity
  8
_1-0_
  6
DASHED1
 62
   136
100
AcDbLine
 10
1298.024192698104
 20
1533.247182064934
 30
0.0
 11
1264.690872522285
 21
1519.914413915577
 31
0.0
  0
LINE
  5
195
330
6F
100
AcDbEntity
  8
_1-0_
  6
DASHED1
 62
   136
100
AcDbLine
 10
1478.02539896724
 20
1519.914413915577
 30
0.0
 11
1358.024536462715
 21
1519.913888989667
 31
0.0
  0
LINE
  5
196
330
6F
100
AcDbEntity
  8
_1-0_
  6
DASHED1
 62
   136
100
AcDbLine
 10
1358.024536462715
 20
1519.913888989667
 30
0.0
 11
1424.691876715566
 21
1453.24724863803
 31
0.0
  0
LINE
  5
197
330
6F
100
AcDbEntity
  8
_1-0_
  6
DASHED1
 62
   136
100
AcDbLine
 10
1424.691876715566
 20
1453.24724863803
 30
0.0
 11
1758.026128325575
 21
1439.914130538066
 31
0.0
  0
LINE
  5
198
330
6F
100
AcDbEntity
  8
_1-0_
  6
DASHED1
 62
   136
100
AcDbLine
 10
1771.358546524325
 20
1399.913726386355
 30
0.0
 11
2011.359221681556
 21
1399.913726386355
 31
0.0
  0
LINE
  5
199
330
6F
100
AcDbEntity
  8
_1-0_
  6
DASHED1
 62
   136
100
AcDbLine
 10
1758.026128325575
 20
1439.914130538066
 30
0.0
 11
1771.358546524325
 21
1399.913726386355
 31
0.0
  0
LINE
  5
19A
330
6F
100
AcDbEntity
  8
_1-0_
  6
DASHED1
 62
   136
100
AcDbLine
 10
2011.359221681556
 20
1399.913726386355
 30
0.0
 11
2024.692689732126
 21
1439.914130538066
 31
0.0
  0
LINE
  5
19B
330
6F
100
AcDbEntity
  8
_1-0_
  6
DASHED1
 62
   136
100
AcDbLine
 10
2024.692689732126
 20
1439.914130538066
 30
0.0
 11
2358.115478845528
 21
1453.24724863803
 31
0.0
  0
LINE
  5
19C
330
6F
100
AcDbEntity
  8
_1-0_
  6
DASHED1
 62
   136
100
AcDbLine
 10
2424.693231743166
 20
1519.913888989667
 30
0.0
 11
2304.692019288035
 21
1519.914413915577
 31
0.0
  0
LINE
  5
19D
330
6F
100
AcDbEntity
  8
_1-0_
  6
DASHED1
 62
   136
100
AcDbLine
 10
2358.026591391528
 20
1453.24724863803
 30
0.0
 11
2424.693231743166
 21
1519.913888989667
 31
0.0
  0
LINE
  5
19E
330
6F
100
AcDbEntity
  8
_1-0_
  6
DASHED1
 62
   136
100
AcDbLine
 10
2484.826819201125
 20
1533.380513245934
 30
0.0
 11
2518.159789426338
 21
1520.047745096577
 31
0.0
  0
LINE
  5
19F
330
6F
100
AcDbEntity
  8
_1-0_
  6
DASHED1
 62
   136
100
AcDbLine
 10
2484.826819201125
 20
1533.380513245934
 30
0.0
 11
2484.826819201125
 21
1933.381055256974
 31
0.0
  0
LINE
  5
1A0
330
6F
100
AcDbEntity
  8
_1-0_
  6
DASHED1
 62
   136
100
AcDbLine
 10
2518.159789426338
 20
1946.714173356938
 30
0.0
 11
2484.826819201125
 21
1933.381055256974
 31
0.0
  0
LINE
  5
1A1
330
6F
100
AcDbEntity
  8
_1-0_
  6
Continuous
 62
   136
100
AcDbLine
 10
1478.02539896724
 20
2639.914006818154
 30
0.0
 11
1478.02539896724
 21
2799.914048647268
 31
0.0
  0
LINE
  5
1A2
330
6F
100
AcDbEntity
  8
_1-0_
  6
Continuous
 62
   136
100
AcDbLine
 10
1491.358692042506
 20
2653.247299893421
 30
0.0
 11
1491.358692042506
 21
2786.580755572001
 31
0.0
  0
LINE
  5
1A3
330
6F
100
AcDbEntity
  8
_1-0_
  6
Continuous
 62
   136
100
AcDbLine
 10
1491.358692042506
 20
2786.580755572001
 30
0.0
 11
2291.358551237465
 21
2786.580755572001
 31
0.0
  0
LINE
  5
1A4
330
6F
100
AcDbEntity
  8
_1-0_
  6
Continuous
 62
   136
100
AcDbLine
 10
1478.02539896724
 20
2799.914048647268
 30
0.0
 11
2304.692019288035
 21
2799.914048647268
 31
0.0
  0
LINE
  5
1A5
330
6F
100
AcDbEntity
  8
_1-0_
  6
Continuous
 62
   136
100
AcDbLine
 10
1491.358692042506
 20
2653.247299893421
 30
0.0
 11
2291.358551237465
 21
2653.247299893421
 31
0.0
  0
LINE
  5
1A6
330
6F
100
AcDbEntity
  8
_1-0_
  6
Continuous
 62
   136
100
AcDbLine
 10
1478.02539896724
 20
2639.914006818154
 30
0.0
 11
2304.692019288035
 21
2639.914006818154
 31
0.0
  0
LINE
  5
1A7
330
6F
100
AcDbEntity
  8
_1-0_
  6
Continuous
 62
   136
100
AcDbLine
 10
2291.358551237465
 20
2653.247299893421
 30
0.0
 11
2291.358551237465
 21
2786.580755572001
 31
0.0
  0
LINE
  5
1A8
330
6F
100
AcDbEntity
  8
_1-0_
  6
Continuous
 62
   136
100
AcDbLine
 10
2304.692019288035
 20
2639.914006818154
 30
0.0
 11
2304.692019288035
 21
2799.914048647268
 31
0.0
  0
LINE
  5
1A9
330
6F
100
AcDbEntity
  8
_1-0_
  6
Continuous
 62
   136
100
AcDbLine
 10
1478.02539896724
 20
1946.580842175938
 30
0.0
 11
1478.02539896724
 21
1519.914413915577
 31
0.0
  0
LINE
  5
1AA
330
6F
100
AcDbEntity
  8
_1-0_
  6
Continuous
 62
   136
100
AcDbLine
 10
1491.358692042506
 20
1933.247724075975
 30
0.0
 11
1491.358692042506
 21
1533.247182064934
 31
0.0
  0
LINE
  5
1AB
330
6F
100
AcDbEntity
  8
_1-0_
  6
Continuous
 62
   136
100
AcDbLine
 10
1491.358692042506
 20
1933.247724075975
 30
0.0
 11
2291.358551237465
 21
1933.247724075975
 31
0.0
  0
LINE
  5
1AC
330
6F
100
AcDbEntity
  8
_1-0_
  6
Continuous
 62
   136
100
AcDbLine
 10
1478.02539896724
 20
1946.580842175938
 30
0.0
 11
2304.692019288035
 21
1946.580842175938
 31
0.0
  0
LINE
  5
1AD
330
6F
100
AcDbEntity
  8
_1-0_
  6
Continuous
 62
   136
100
AcDbLine
 10
2291.358551237465
 20
1933.247724075975
 30
0.0
 11
2291.358551237465
 21
1533.247182064934
 31
0.0
  0
LINE
  5
1AE
330
6F
100
AcDbEntity
  8
_1-0_
  6
Continuous
 62
   136
100
AcDbLine
 10
2304.692019288035
 20
1946.580842175938
 30
0.0
 11
2304.692019288035
 21
1519.914413915577
 31
0.0
  0
LINE
  5
1AF
330
6F
100
AcDbEntity
  8
_1-0_
  6
Continuous
 62
   136
100
AcDbLine
 10
1491.358692042506
 20
1533.247182064934
 30
0.0
 11
2291.358551237465
 21
1533.247182064934
 31
0.0
  0
LINE
  5
1B0
330
6F
100
AcDbEntity
  8
_1-0_
  6
Continuous
 62
   136
100
AcDbLine
 10
1478.02539896724
 20
1519.914413915577
 30
0.0
 11
2304.692019288035
 21
1519.914413915577
 31
0.0
  0
LINE
  5
1B1
330
6F
100
AcDbEntity
  8
_1-0_
  6
Continuous
 62
   136
100
AcDbLine
 10
1478.02539896724
 20
1946.580842175938
 30
0.0
 11
1491.358692042506
 21
1933.247724075975
 31
0.0
  0
LINE
  5
1B2
330
6F
100
AcDbEntity
  8
_1-0_
  6
Continuous
 62
   136
100
AcDbLine
 10
1491.358692042506
 20
1533.247182064934
 30
0.0
 11
1478.02539896724
 21
1519.914413915577
 31
0.0
  0
LINE
  5
1B3
330
6F
100
AcDbEntity
  8
_1-0_
  6
Continuous
 62
   136
100
AcDbLine
 10
2291.358551237465
 20
1533.247182064934
 30
0.0
 11
2304.692019288035
 21
1519.914413915577
 31
0.0
  0
LINE
  5
1B4
330
6F
100
AcDbEntity
  8
_1-0_
  6
Continuous
 62
   136
100
AcDbLine
 10
2304.692019288035
 20
1946.580842175938
 30
0.0
 11
2291.358551237465
 21
1933.247724075975
 31
0.0
  0
LINE
  5
1B5
330
6F
100
AcDbEntity
  8
_1-0_
  6
Continuous
 62
   136
100
AcDbLine
 10
2304.692019288035
 20
2799.914048647268
 30
0.0
 11
2291.358551237465
 21
2786.580755572001
 31
0.0
  0
LINE
  5
1B6
330
6F
100
AcDbEntity
  8
_1-0_
  6
Continuous
 62
   136
100
AcDbLine
 10
2291.358551237465
 20
2653.247299893421
 30
0.0
 11
2304.692019288035
 21
2639.914006818154
 31
0.0
  0
LINE
  5
1B7
330
6F
100
AcDbEntity
  8
_1-0_
  6
Continuous
 62
   136
100
AcDbLine
 10
1491.358692042506
 20
2653.247299893421
 30
0.0
 11
1478.02539896724
 21
2639.914006818154
 31
0.0
  0
LINE
  5
1B8
330
6F
100
AcDbEntity
  8
_1-0_
  6
Continuous
 62
   136
100
AcDbLine
 10
1478.02539896724
 20
2799.914048647268
 30
0.0
 11
1491.358692042506
 21
2786.580755572001
 31
0.0
  0
LINE
  5
1B9
330
6F
100
AcDbEntity
  8
_1-0_
  6
DASHED1
 62
     6
100
AcDbLine
 10
1311.358098186932
 20
2863.914240354216
 30
0.0
 11
1358.024536462715
 21
2863.914240354216
 31
0.0
  0
LINE
  5
1BA
330
6F
100
AcDbEntity
  8
_1-0_
  6
DASHED1
 62
     6
100
AcDbLine
 10
1311.358098186932
 20
2842.580901443667
 30
0.0
 11
1358.024536462715
 21
2842.580901443667
 31
0.0
  0
LINE
  5
1BB
330
6F
100
AcDbEntity
  8
_1-0_
  6
DASHED1
 62
     6
100
AcDbLine
 10
1311.358098186932
 20
2842.580901443667
 30
0.0
 11
1311.358098186932
 21
2863.914240354216
 31
0.0
  0
CIRCLE
  5
1BC
330
6F
100
AcDbEntity
  8
_1-0_
  6
DASHED1
 62
     6
100
AcDbCircle
 10
1624.691797770479
 20
2853.247395923638
 30
0.0
 40
10.66666740478235
  0
CIRCLE
  5
1BD
330
6F
100
AcDbEntity
  8
_1-0_
  6
DASHED1
 62
     6
100
AcDbCircle
 10
1891.358709127637
 20
2853.247395923638
 30
0.0
 40
10.66666740478235
  0
CIRCLE
  5
1BE
330
6F
100
AcDbEntity
  8
_1-0_
  6
DASHED1
 62
     6
100
AcDbCircle
 10
2158.025270534189
 20
2853.247395923638
 30
0.0
 40
10.66666740478235
  0
LINE
  5
1BF
330
6F
100
AcDbEntity
  8
_1-0_
  6
DASHED1
 62
     6
100
AcDbLine
 10
2471.359495043646
 20
2842.580901443667
 30
0.0
 11
2424.69288179256
 21
2842.580901443667
 31
0.0
  0
LINE
  5
1C0
330
6F
100
AcDbEntity
  8
_1-0_
  6
DASHED1
 62
     6
100
AcDbLine
 10
2471.359495043646
 20
2863.914240354216
 30
0.0
 11
2424.69288179256
 21
2863.914240354216
 31
0.0
  0
LINE
  5
1C1
330
6F
100
AcDbEntity
  8
_1-0_
  6
DASHED1
 62
     6
100
AcDbLine
 10
2471.359495043646
 20
2842.580901443667
 30
0.0
 11
2471.359495043646
 21
2863.914240354216
 31
0.0
  0
LINE
  5
1C2
330
6F
100
AcDbEntity
  8
_1-0_
  6
DASHED1
 62
     6
100
AcDbLine
 10
1311.358098186932
 20
2063.914206183955
 30
0.0
 11
1358.024536462715
 21
2063.914206183955
 31
0.0
  0
LINE
  5
1C3
330
6F
100
AcDbEntity
  8
_1-0_
  6
DASHED1
 62
     6
100
AcDbLine
 10
1311.358098186932
 20
2042.580867273406
 30
0.0
 11
1358.024536462715
 21
2042.580867273406
 31
0.0
  0
LINE
  5
1C4
330
6F
100
AcDbEntity
  8
_1-0_
  6
DASHED1
 62
     6
100
AcDbLine
 10
1311.358098186932
 20
2042.580867273406
 30
0.0
 11
1311.358098186932
 21
2063.914206183955
 31
0.0
  0
CIRCLE
  5
1C5
330
6F
100
AcDbEntity
  8
_1-0_
  6
DASHED1
 62
     6
100
AcDbCircle
 10
1891.358709127637
 20
2053.247361753378
 30
0.0
 40
10.66666740478235
  0
CIRCLE
  5
1C6
330
6F
100
AcDbEntity
  8
_1-0_
  6
DASHED1
 62
     6
100
AcDbCircle
 10
2158.025270534189
 20
2053.247361753378
 30
0.0
 40
10.66666740478235
  0
LINE
  5
1C7
330
6F
100
AcDbEntity
  8
_1-0_
  6
DASHED1
 62
     6
100
AcDbLine
 10
2471.359495043646
 20
2042.580867273406
 30
0.0
 11
2424.69288179256
 21
2042.580867273406
 31
0.0
  0
LINE
  5
1C8
330
6F
100
AcDbEntity
  8
_1-0_
  6
DASHED1
 62
     6
100
AcDbLine
 10
2471.359495043646
 20
2063.914206183955
 30
0.0
 11
2424.69288179256
 21
2063.914206183955
 31
0.0
  0
LINE
  5
1C9
330
6F
100
AcDbEntity
  8
_1-0_
  6
DASHED1
 62
     6
100
AcDbLine
 10
2471.359495043646
 20
2042.580867273406
 30
0.0
 11
2471.359495043646
 21
2063.914206183955
 31
0.0
  0
LINE
  5
1CA
330
6F
100
AcDbEntity
  8
_1-0_
  6
Continuous
 62
     7
100
AcDbLine
 10
2451.35649336294
 20
3173.247654557167
 30
0.0
 11
1331.358825188697
 21
3173.247654557167
 31
0.0
  0
LINE
  5
1CB
330
6F
100
AcDbEntity
  8
_1-0_
  6
Continuous
 62
     7
100
AcDbLine
 10
1318.025532113431
 20
3159.914536457204
 30
0.0
 11
1311.358798088145
 21
3039.914198878588
 31
0.0
  0
ARC
  5
1CC
330
6F
100
AcDbEntity
  8
_1-0_
  6
Continuous
 62
     7
100
AcDbCircle
 10
1331.358825188697
 20
3159.914536457204
 30
0.0
 40
13.33333408510362
100
AcDbArc
 50
90.0
 51
180.0
  0
LINE
  5
1CD
330
6F
100
AcDbEntity
  8
_1-0_
  6
Continuous
 62
     7
100
AcDbLine
 10
2508.598788911663
 20
3039.914198878588
 30
0.0
 11
1274.11959170778
 21
3039.914198878588
 31
0.0
  0
LINE
  5
1CE
330
6F
100
AcDbEntity
  8
_1-0_
  6
Continuous
 62
     7
100
AcDbLine
 10
1264.690872522285
 20
3030.486179594307
 30
0.0
 11
1274.11959170778
 21
3039.914198878588
 31
0.0
  0
LINE
  5
1CF
330
6F
100
AcDbEntity
  8
_1-0_
  6
Continuous
 62
     7
100
AcDbLine
 10
1264.690872522285
 20
3030.486179594307
 30
0.0
 11
1264.690872522285
 21
1346.580204134681
 31
0.0
  0
LINE
  5
1D0
330
6F
100
AcDbEntity
  8
_1-0_
  6
Continuous
 62
     7
100
AcDbLine
 10
1264.690872522285
 20
2919.914036275276
 30
0.0
 11
2518.026458245337
 21
2919.914036275276
 31
0.0
  0
LINE
  5
1D1
330
6F
100
AcDbEntity
  8
_1-0_
  6
Continuous
 62
     7
100
AcDbLine
 10
2518.026458245337
 20
3030.486529544913
 30
0.0
 11
2518.026458245337
 21
1346.580204134681
 31
0.0
  0
LINE
  5
1D2
330
6F
100
AcDbEntity
  8
_1-0_
  6
Continuous
 62
     7
100
AcDbLine
 10
2508.598788911663
 20
3039.914198878588
 30
0.0
 11
2518.026458245337
 21
3030.486529544913
 31
0.0
  0
LINE
  5
1D3
330
6F
100
AcDbEntity
  8
_1-0_
  6
Continuous
 62
     7
100
AcDbLine
 10
2464.689786438207
 20
3159.914536457204
 30
0.0
 11
2471.356345488189
 21
3039.914198878588
 31
0.0
  0
ARC
  5
1D4
330
6F
100
AcDbEntity
  8
_1-0_
  6
Continuous
 62
     7
100
AcDbCircle
 10
2451.35649336294
 20
3159.914536457204
 30
0.0
 40
13.33333408510362
100
AcDbArc
 50
0.0
 51
90.0
  0
LINE
  5
1D5
330
6F
100
AcDbEntity
  8
_1-0_
  6
Continuous
 62
     7
100
AcDbLine
 10
1264.690872522285
 20
2519.914019190146
 30
0.0
 11
2518.026458245337
 21
2519.914019190146
 31
0.0
  0
LINE
  5
1D6
330
6F
100
AcDbEntity
  8
_1-0_
  6
Continuous
 62
     7
100
AcDbLine
 10
2504.692990194768
 20
1333.247086034718
 30
0.0
 11
2518.026458245337
 21
1346.580204134681
 31
0.0
  0
LINE
  5
1D7
330
6F
100
AcDbEntity
  8
_1-0_
  6
Continuous
 62
     7
100
AcDbLine
 10
2504.692990194768
 20
1333.247086034718
 30
0.0
 11
1278.023290721037
 21
1333.247086034718
 31
0.0
  0
LINE
  5
1D8
330
6F
100
AcDbEntity
  8
_1-0_
  6
Continuous
 62
     7
100
AcDbLine
 10
1264.690872522285
 20
1346.580204134681
 30
0.0
 11
1278.023290721037
 21
1333.247086034718
 31
0.0
  0
LINE
  5
1D9
330
6F
100
AcDbEntity
  8
_1-0_
  6
Continuous
 62
     4
100
AcDbLine
 10
2538.026458245338
 20
2519.914019190146
 30
0.0
 11
2711.359791578671
 21
2519.914019190146
 31
0.0
  0
LINE
  5
1DA
330
6F
100
AcDbEntity
  8
_1-0_
  6
Continuous
 62
     4
100
AcDbLine
 10
2538.026458245338
 20
2853.247352523479
 30
0.0
 11
2711.359791578671
 21
2853.247352523479
 31
0.0
  0
LINE
  5
1DB
330
6F
100
AcDbEntity
  8
_1-0_
  6
Continuous
 62
     4
100
AcDbLine
 10
2538.026458245338
 20
2919.914019190146
 30
0.0
 11
2711.359791578671
 21
2919.914019190146
 31
0.0
  0
LINE
  5
1DC
330
6F
100
AcDbEntity
  8
_1-0_
  6
Continuous
 62
     4
100
AcDbLine
 10
2538.026458245338
 20
2053.247352523479
 30
0.0
 11
2711.359791578671
 21
2053.247352523479
 31
0.0
  0
LINE
  5
1DD
330
6F
100
AcDbEntity
  8
_1-0_
  6
Continuous
 62
     4
100
AcDbLine
 10
2698.026458245337
 20
2519.914019190146
 30
0.0
 11
2698.026458245337
 21
2053.247352523479
 31
0.0
  0
LINE
  5
1DE
330
6F
100
AcDbEntity
  8
_1-0_
  6
Continuous
 62
     4
100
AcDbLine
 10
2698.026458245337
 20
2853.247352523479
 30
0.0
 11
2698.026458245337
 21
2519.914019190146
 31
0.0
  0
LINE
  5
1DF
330
6F
100
AcDbEntity
  8
_1-0_
  6
Continuous
 62
     4
100
AcDbLine
 10
2698.026458245337
 20
2986.580685856812
 30
0.0
 11
2698.026458245337
 21
2919.914019190146
 31
0.0
  0
LINE
  5
1E0
330
6F
100
AcDbEntity
  8
_1-0_
  6
Continuous
 62
     4
100
AcDbLine
 10
2698.026458245337
 20
2919.914019190146
 30
0.0
 11
2698.026458245337
 21
2853.247352523479
 31
0.0
  0
LINE
  5
1E1
330
6F
100
AcDbEntity
  8
_1-0_
  6
Continuous
 62
     4
100
AcDbLine
 10
2698.026458245337
 20
2919.914019190146
 30
0.0
 11
2688.708972621648
 21
2954.687348936552
 31
0.0
  0
LINE
  5
1E2
330
6F
100
AcDbEntity
  8
_1-0_
  6
Continuous
 62
     4
100
AcDbLine
 10
2698.026458245337
 20
2919.914019190146
 30
0.0
 11
2707.343943869029
 21
2954.687348936552
 31
0.0
  0
LINE
  5
1E3
330
6F
100
AcDbEntity
  8
_1-0_
  6
Continuous
 62
     4
100
AcDbLine
 10
2698.026458245337
 20
2853.247352523479
 30
0.0
 11
2707.343943869029
 21
2818.474022777073
 31
0.0
  0
LINE
  5
1E4
330
6F
100
AcDbEntity
  8
_1-0_
  6
Continuous
 62
     4
100
AcDbLine
 10
2698.026458245337
 20
2853.247352523479
 30
0.0
 11
2688.708972621648
 21
2818.474022777073
 31
0.0
  0
LINE
  5
1E5
330
6F
100
AcDbEntity
  8
_1-0_
  6
Continuous
 62
     4
100
AcDbLine
 10
2698.026458245337
 20
2519.914019190146
 30
0.0
 11
2688.708972621648
 21
2554.687348936552
 31
0.0
  0
LINE
  5
1E6
330
6F
100
AcDbEntity
  8
_1-0_
  6
Continuous
 62
     4
100
AcDbLine
 10
2698.026458245337
 20
2519.914019190146
 30
0.0
 11
2707.343943869029
 21
2554.687348936552
 31
0.0
  0
LINE
  5
1E7
330
6F
100
AcDbEntity
  8
_1-0_
  6
Continuous
 62
     4
100
AcDbLine
 10
2698.026458245337
 20
2519.914019190146
 30
0.0
 11
2707.343943869029
 21
2485.140689443739
 31
0.0
  0
LINE
  5
1E8
330
6F
100
AcDbEntity
  8
_1-0_
  6
Continuous
 62
     4
100
AcDbLine
 10
2698.026458245337
 20
2519.914019190146
 30
0.0
 11
2688.708972621648
 21
2485.140689443739
 31
0.0
  0
LINE
  5
1E9
330
6F
100
AcDbEntity
  8
_1-0_
  6
Continuous
 62
     4
100
AcDbLine
 10
2698.026458245337
 20
2053.247352523479
 30
0.0
 11
2688.708972621648
 21
2088.020682269886
 31
0.0
  0
LINE
  5
1EA
330
6F
100
AcDbEntity
  8
_1-0_
  6
Continuous
 62
     4
100
AcDbLine
 10
2698.026458245337
 20
2053.247352523479
 30
0.0
 11
2707.343943869029
 21
2088.020682269886
 31
0.0
  0
TEXT
  5
1EB
330
6F
100
AcDbEntity
  8
_1-0_
 62
     7
100
AcDbText
 10
2907.127669339325
 20
3070.670736202765
 30
0.0
 40
70.0
  1
CR-600
 41
0.6
100
AcDbText
  0
TEXT
  5
1EC
330
6F
100
AcDbEntity
  8
_1-0_
 62
     7
100
AcDbText
 10
2988.524045011316
 20
2944.50635391118
 30
0.0
 40
70.0
  1
BS
100
AcDbText
  0
TEXT
  5
1ED
330
6F
100
AcDbEntity
  8
_1-0_
 62
     7
100
AcDbText
 10
2908.145124035226
 20
2685.055406456708
 30
0.0
 40
70.0
  1
BH-300
 41
0.6
100
AcDbText
  0
TEXT
  5
1EE
330
6F
100
AcDbEntity
  8
_1-0_
 62
     7
100
AcDbText
 10
2906.381973446914
 20
1891.566975544993
 30
0.0
 40
70.0
  1
B1-800
 41
0.6
100
AcDbText
  0
LINE
  5
1EF
330
6F
100
AcDbEntity
  8
_1-0_
  6
Continuous
 62
     7
100
AcDbLine
 10
2891.359791578672
 20
3153.247593384545
 30
0.0
 11
2811.359791578671
 21
3106.580926717877
 31
0.0
  0
LINE
  5
1F0
330
6F
100
AcDbEntity
  8
_1-0_
  6
Continuous
 62
     7
100
AcDbLine
 10
2811.359791578671
 20
3106.580926717877
 30
0.0
 11
2891.359791578672
 21
3059.914260051211
 31
0.0
  0
LINE
  5
1F1
330
6F
100
AcDbEntity
  8
_1-0_
  6
Continuous
 62
     7
100
AcDbLine
 10
2891.359791578672
 20
3059.914260051211
 30
0.0
 11
3158.026458245338
 21
3059.914260051211
 31
0.0
  0
LINE
  5
1F2
330
6F
100
AcDbEntity
  8
_1-0_
  6
Continuous
 62
     7
100
AcDbLine
 10
3158.026458245338
 20
3153.247593384545
 30
0.0
 11
3158.026458245338
 21
3059.914260051211
 31
0.0
  0
LINE
  5
1F3
330
6F
100
AcDbEntity
  8
_1-0_
  6
Continuous
 62
     7
100
AcDbLine
 10
2891.359791578672
 20
3153.247593384545
 30
0.0
 11
3158.026458245338
 21
3153.247593384545
 31
0.0
  0
LINE
  5
1F4
330
6F
100
AcDbEntity
  8
_1-0_
  6
Continuous
 62
     7
100
AcDbLine
 10
2891.359791578672
 20
3026.580784243599
 30
0.0
 11
3158.026458245338
 21
3026.580784243599
 31
0.0
  0
LINE
  5
1F5
330
6F
100
AcDbEntity
  8
_1-0_
  6
Continuous
 62
     7
100
AcDbLine
 10
2891.359791578672
 20
3026.580784243599
 30
0.0
 11
2811.359791578671
 21
2979.914117576932
 31
0.0
  0
LINE
  5
1F6
330
6F
100
AcDbEntity
  8
_1-0_
  6
Continuous
 62
     7
100
AcDbLine
 10
2811.359791578671
 20
2979.914117576932
 30
0.0
 11
2891.359791578672
 21
2933.247450910265
 31
0.0
  0
LINE
  5
1F7
330
6F
100
AcDbEntity
  8
_1-0_
  6
Continuous
 62
     7
100
AcDbLine
 10
2891.359791578672
 20
2933.247450910265
 30
0.0
 11
3158.026458245338
 21
2933.247450910265
 31
0.0
  0
LINE
  5
1F8
330
6F
100
AcDbEntity
  8
_1-0_
  6
Continuous
 62
     7
100
AcDbLine
 10
3158.026458245338
 20
3026.580784243599
 30
0.0
 11
3158.026458245338
 21
2933.247450910265
 31
0.0
  0
LINE
  5
1F9
330
6F
100
AcDbEntity
  8
_1-0_
  6
Continuous
 62
     7
100
AcDbLine
 10
2891.359791578672
 20
2766.580694399377
 30
0.0
 11
3158.026458245338
 21
2766.580694399377
 31
0.0
  0
LINE
  5
1FA
330
6F
100
AcDbEntity
  8
_1-0_
  6
Continuous
 62
     7
100
AcDbLine
 10
2891.359791578672
 20
2673.247361066044
 30
0.0
 11
3158.026458245338
 21
2673.247361066044
 31
0.0
  0
LINE
  5
1FB
330
6F
100
AcDbEntity
  8
_1-0_
  6
Continuous
 62
     7
100
AcDbLine
 10
3158.026458245338
 20
2766.580694399377
 30
0.0
 11
3158.026458245338
 21
2673.247361066044
 31
0.0
  0
LINE
  5
1FC
330
6F
100
AcDbEntity
  8
_1-0_
  6
Continuous
 62
     7
100
AcDbLine
 10
2891.359791578672
 20
2766.580694399377
 30
0.0
 11
2811.359791578671
 21
2719.914027732711
 31
0.0
  0
LINE
  5
1FD
330
6F
100
AcDbEntity
  8
_1-0_
  6
Continuous
 62
     7
100
AcDbLine
 10
2811.359791578671
 20
2719.914027732711
 30
0.0
 11
2891.359791578672
 21
2673.247361066044
 31
0.0
  0
LINE
  5
1FE
330
6F
100
AcDbEntity
  8
_1-0_
  6
Continuous
 62
     7
100
AcDbLine
 10
2891.359791578672
 20
1973.247219279098
 30
0.0
 11
2811.359791578671
 21
1926.580552612432
 31
0.0
  0
LINE
  5
1FF
330
6F
100
AcDbEntity
  8
_1-0_
  6
Continuous
 62
     7
100
AcDbLine
 10
2811.359791578671
 20
1926.580552612432
 30
0.0
 11
2891.359791578672
 21
1879.913885945765
 31
0.0
  0
LINE
  5
200
330
6F
100
AcDbEntity
  8
_1-0_
  6
Continuous
 62
     7
100
AcDbLine
 10
2891.359791578672
 20
1879.913885945765
 30
0.0
 11
3158.026458245338
 21
1879.913885945765
 31
0.0
  0
LINE
  5
201
330
6F
100
AcDbEntity
  8
_1-0_
  6
Continuous
 62
     7
100
AcDbLine
 10
3158.026458245338
 20
1973.247219279098
 30
0.0
 11
3158.026458245338
 21
1879.913885945765
 31
0.0
  0
LINE
  5
202
330
6F
100
AcDbEntity
  8
_1-0_
  6
Continuous
 62
     7
100
AcDbLine
 10
2891.359791578672
 20
1973.247219279098
 30
0.0
 11
3158.026458245338
 21
1973.247219279098
 31
0.0
  0
LINE
  5
203
330
6F
100
AcDbEntity
  8
_1-0_
  6
Continuous
 62
     4
100
AcDbLine
 10
1311.358798088145
 20
3193.247654557167
 30
0.0
 11
1311.358798088145
 21
3539.914321223834
 31
0.0
  0
LINE
  5
204
330
6F
100
AcDbEntity
  8
_1-0_
  6
Continuous
 62
     4
100
AcDbLine
 10
2471.356345488189
 20
3526.5809878905
 30
0.0
 11
1311.358798088145
 21
3526.5809878905
 31
0.0
  0
LINE
  5
205
330
6F
100
AcDbEntity
  8
_1-0_
  6
Continuous
 62
     4
100
AcDbLine
 10
1491.358798088145
 20
3193.247654557167
 30
0.0
 11
1491.358798088145
 21
3366.580987890499
 31
0.0
  0
LINE
  5
206
330
6F
100
AcDbEntity
  8
_1-0_
  6
Continuous
 62
     4
100
AcDbLine
 10
2291.356345488189
 20
3193.247654557167
 30
0.0
 11
2291.356345488189
 21
3366.580987890499
 31
0.0
  0
LINE
  5
207
330
6F
100
AcDbEntity
  8
_1-0_
  6
Continuous
 62
     4
100
AcDbLine
 10
2471.356345488189
 20
3193.247654557167
 30
0.0
 11
2471.356345488189
 21
3539.914321223834
 31
0.0
  0
LINE
  5
208
330
6F
100
AcDbEntity
  8
_1-0_
  6
Continuous
 62
     4
100
AcDbLine
 10
2471.356345488189
 20
3353.247654557167
 30
0.0
 11
2291.356345488189
 21
3353.247654557167
 31
0.0
  0
LINE
  5
209
330
6F
100
AcDbEntity
  8
_1-0_
  6
Continuous
 62
     4
100
AcDbLine
 10
1491.358798088145
 20
3353.247654557167
 30
0.0
 11
1311.358798088145
 21
3353.247654557167
 31
0.0
  0
LINE
  5
20A
330
6F
100
AcDbEntity
  8
_1-0_
  6
Continuous
 62
     4
100
AcDbLine
 10
2291.356345488189
 20
3353.247654557167
 30
0.0
 11
1491.358798088145
 21
3353.247654557167
 31
0.0
  0
LINE
  5
20B
330
6F
100
AcDbEntity
  8
_1-0_
  6
Continuous
 62
     4
100
AcDbLine
 10
2471.356345488189
 20
3526.5809878905
 30
0.0
 11
2436.583015741784
 21
3517.26350226681
 31
0.0
  0
LINE
  5
20C
330
6F
100
AcDbEntity
  8
_1-0_
  6
Continuous
 62
     4
100
AcDbLine
 10
2471.356345488189
 20
3526.5809878905
 30
0.0
 11
2436.583015741784
 21
3535.898473514191
 31
0.0
  0
LINE
  5
20D
330
6F
100
AcDbEntity
  8
_1-0_
  6
Continuous
 62
     4
100
AcDbLine
 10
2471.356345488189
 20
3353.247654557167
 30
0.0
 11
2436.583015741784
 21
3343.930168933476
 31
0.0
  0
LINE
  5
20E
330
6F
100
AcDbEntity
  8
_1-0_
  6
Continuous
 62
     4
100
AcDbLine
 10
2471.356345488189
 20
3353.247654557167
 30
0.0
 11
2436.583015741784
 21
3362.565140180859
 31
0.0
  0
LINE
  5
20F
330
6F
100
AcDbEntity
  8
_1-0_
  6
Continuous
 62
     4
100
AcDbLine
 10
2291.356345488189
 20
3353.247654557167
 30
0.0
 11
2326.129675234597
 21
3362.565140180859
 31
0.0
  0
LINE
  5
210
330
6F
100
AcDbEntity
  8
_1-0_
  6
Continuous
 62
     4
100
AcDbLine
 10
2291.356345488189
 20
3353.247654557167
 30
0.0
 11
2326.129675234597
 21
3343.930168933476
 31
0.0
  0
LINE
  5
211
330
6F
100
AcDbEntity
  8
_1-0_
  6
Continuous
 62
     4
100
AcDbLine
 10
2291.356345488189
 20
3353.247654557167
 30
0.0
 11
2256.583015741783
 21
3343.930168933476
 31
0.0
  0
LINE
  5
212
330
6F
100
AcDbEntity
  8
_1-0_
  6
Continuous
 62
     4
100
AcDbLine
 10
2291.356345488189
 20
3353.247654557167
 30
0.0
 11
2256.583015741783
 21
3362.565140180859
 31
0.0
  0
LINE
  5
213
330
6F
100
AcDbEntity
  8
_1-0_
  6
Continuous
 62
     4
100
AcDbLine
 10
1491.358798088145
 20
3353.247654557167
 30
0.0
 11
1526.132127834552
 21
3362.565140180859
 31
0.0
  0
LINE
  5
214
330
6F
100
AcDbEntity
  8
_1-0_
  6
Continuous
 62
     4
100
AcDbLine
 10
1491.358798088145
 20
3353.247654557167
 30
0.0
 11
1526.132127834552
 21
3343.930168933476
 31
0.0
  0
LINE
  5
215
330
6F
100
AcDbEntity
  8
_1-0_
  6
Continuous
 62
     4
100
AcDbLine
 10
1491.358798088145
 20
3353.247654557167
 30
0.0
 11
1456.585468341739
 21
3343.930168933476
 31
0.0
  0
LINE
  5
216
330
6F
100
AcDbEntity
  8
_1-0_
  6
Continuous
 62
     4
100
AcDbLine
 10
1491.358798088145
 20
3353.247654557167
 30
0.0
 11
1456.585468341739
 21
3362.565140180859
 31
0.0
  0
LINE
  5
217
330
6F
100
AcDbEntity
  8
_1-0_
  6
Continuous
 62
     4
100
AcDbLine
 10
1311.358798088145
 20
3353.247654557167
 30
0.0
 11
1346.132127834552
 21
3362.565140180859
 31
0.0
  0
LINE
  5
218
330
6F
100
AcDbEntity
  8
_1-0_
  6
Continuous
 62
     4
100
AcDbLine
 10
1311.358798088145
 20
3353.247654557167
 30
0.0
 11
1346.132127834552
 21
3343.930168933476
 31
0.0
  0
LINE
  5
219
330
6F
100
AcDbEntity
  8
_1-0_
  6
Continuous
 62
     4
100
AcDbLine
 10
1311.358798088145
 20
3526.5809878905
 30
0.0
 11
1346.132127834552
 21
3535.898473514191
 31
0.0
  0
LINE
  5
21A
330
6F
100
AcDbEntity
  8
_1-0_
  6
Continuous
 62
     4
100
AcDbLine
 10
1311.358798088145
 20
3526.5809878905
 30
0.0
 11
1346.132127834552
 21
3517.26350226681
 31
0.0
  0
LINE
  5
21B
330
6F
100
AcDbEntity
  8
_1-0_
  6
Continuous
 62
     4
100
AcDbLine
 10
2518.026458245337
 20
633.2470860347178
 30
0.0
 11
1264.690872522285
 21
633.2470860347178
 31
0.0
  0
LINE
  5
21C
330
6F
100
AcDbEntity
  8
_1-0_
  6
Continuous
 62
     4
100
AcDbLine
 10
1264.690872522285
 20
1313.247086034718
 30
0.0
 11
1264.690872522285
 21
619.9137527013842
 31
0.0
  0
LINE
  5
21D
330
6F
100
AcDbEntity
  8
_1-0_
  6
Continuous
 62
     4
100
AcDbLine
 10
2518.026458245337
 20
1313.247086034718
 30
0.0
 11
2518.026458245337
 21
619.9137527013842
 31
0.0
  0
LINE
  5
21E
330
6F
100
AcDbEntity
  8
_1-0_
  6
Continuous
 62
     4
100
AcDbLine
 10
2024.692689732126
 20
1313.247086034718
 30
0.0
 11
2024.692689732126
 21
1139.913752701384
 31
0.0
  0
LINE
  5
21F
330
6F
100
AcDbEntity
  8
_1-0_
  6
Continuous
 62
     4
100
AcDbLine
 10
2011.359221681556
 20
1313.247086034718
 30
0.0
 11
2011.359221681556
 21
1139.913752701384
 31
0.0
  0
LINE
  5
220
330
6F
100
AcDbEntity
  8
_1-0_
  6
Continuous
 62
     4
100
AcDbLine
 10
1771.358546524325
 20
1313.247086034718
 30
0.0
 11
1771.358546524325
 21
1139.913752701384
 31
0.0
  0
LINE
  5
221
330
6F
100
AcDbEntity
  8
_1-0_
  6
Continuous
 62
     4
100
AcDbLine
 10
1758.026128325575
 20
1313.247086034718
 30
0.0
 11
1758.026128325575
 21
1139.913752701384
 31
0.0
  0
LINE
  5
222
330
6F
100
AcDbEntity
  8
_1-0_
  6
Continuous
 62
     4
100
AcDbLine
 10
1758.026128325575
 20
1153.247086034718
 30
0.0
 11
1691.359461658908
 21
1153.247086034718
 31
0.0
  0
LINE
  5
223
330
6F
100
AcDbEntity
  8
_1-0_
  6
Continuous
 62
     4
100
AcDbLine
 10
2091.359356398793
 20
1153.247086034718
 30
0.0
 11
2024.692689732126
 21
1153.247086034718
 31
0.0
  0
LINE
  5
224
330
6F
100
AcDbEntity
  8
_1-0_
  6
Continuous
 62
     4
100
AcDbLine
 10
2011.359221681556
 20
1153.247086034718
 30
0.0
 11
1771.358546524325
 21
1153.247086034718
 31
0.0
  0
LINE
  5
225
330
6F
100
AcDbEntity
  8
_1-0_
  6
Continuous
 62
     4
100
AcDbLine
 10
1771.358546524325
 20
1153.247086034718
 30
0.0
 11
1758.026128325575
 21
1153.247086034718
 31
0.0
  0
LINE
  5
226
330
6F
100
AcDbEntity
  8
_1-0_
  6
Continuous
 62
     4
100
AcDbLine
 10
2024.692689732126
 20
1153.247086034718
 30
0.0
 11
2011.359221681556
 21
1153.247086034718
 31
0.0
  0
LINE
  5
227
330
6F
100
AcDbEntity
  8
_1-0_
  6
Continuous
 62
     4
100
AcDbLine
 10
2291.358551237465
 20
1313.247086034718
 30
0.0
 11
2291.358551237465
 21
966.5804193680513
 31
0.0
  0
LINE
  5
228
330
6F
100
AcDbEntity
  8
_1-0_
  6
Continuous
 62
     4
100
AcDbLine
 10
1491.358692042506
 20
1313.247086034718
 30
0.0
 11
1491.358692042506
 21
966.5804193680513
 31
0.0
  0
LINE
  5
229
330
6F
100
AcDbEntity
  8
_1-0_
  6
Continuous
 62
     4
100
AcDbLine
 10
2291.358551237465
 20
979.9137527013844
 30
0.0
 11
1491.358692042506
 21
979.9137527013844
 31
0.0
  0
LINE
  5
22A
330
6F
100
AcDbEntity
  8
_1-0_
  6
Continuous
 62
     4
100
AcDbLine
 10
1358.024205855619
 20
1313.247086034718
 30
0.0
 11
1358.024205855619
 21
793.2470860347177
 31
0.0
  0
LINE
  5
22B
330
6F
100
AcDbEntity
  8
_1-0_
  6
Continuous
 62
     4
100
AcDbLine
 10
2424.693124912005
 20
1313.247086034718
 30
0.0
 11
2424.693124912005
 21
793.2470860347177
 31
0.0
  0
LINE
  5
22C
330
6F
100
AcDbEntity
  8
_1-0_
  6
Continuous
 62
     4
100
AcDbLine
 10
2518.026458245337
 20
806.5804193680513
 30
0.0
 11
2424.693124912005
 21
806.5804193680513
 31
0.0
  0
LINE
  5
22D
330
6F
100
AcDbEntity
  8
_1-0_
  6
Continuous
 62
     4
100
AcDbLine
 10
1358.024205855619
 20
806.5804193680513
 30
0.0
 11
1264.690872522285
 21
806.5804193680513
 31
0.0
  0
LINE
  5
22E
330
6F
100
AcDbEntity
  8
_1-0_
  6
Continuous
 62
     4
100
AcDbLine
 10
2424.693124912005
 20
806.5804193680513
 30
0.0
 11
1358.024205855619
 21
806.5804193680513
 31
0.0
  0
LINE
  5
22F
330
6F
100
AcDbEntity
  8
_1-0_
  6
Continuous
 62
     4
100
AcDbLine
 10
2024.692689732126
 20
1153.247086034718
 30
0.0
 11
2059.466019478533
 21
1162.564571658408
 31
0.0
  0
LINE
  5
230
330
6F
100
AcDbEntity
  8
_1-0_
  6
Continuous
 62
     4
100
AcDbLine
 10
2024.692689732126
 20
1153.247086034718
 30
0.0
 11
2059.466019478533
 21
1143.929600411027
 31
0.0
  0
LINE
  5
231
330
6F
100
AcDbEntity
  8
_1-0_
  6
Continuous
 62
     4
100
AcDbLine
 10
2011.359221681556
 20
1153.247086034718
 30
0.0
 11
1976.585891935149
 21
1143.929600411027
 31
0.0
  0
LINE
  5
232
330
6F
100
AcDbEntity
  8
_1-0_
  6
Continuous
 62
     4
100
AcDbLine
 10
2011.359221681556
 20
1153.247086034718
 30
0.0
 11
1976.585891935149
 21
1162.564571658408
 31
0.0
  0
LINE
  5
233
330
6F
100
AcDbEntity
  8
_1-0_
  6
Continuous
 62
     4
100
AcDbLine
 10
1771.358546524325
 20
1153.247086034718
 30
0.0
 11
1806.131876270732
 21
1162.564571658408
 31
0.0
  0
LINE
  5
234
330
6F
100
AcDbEntity
  8
_1-0_
  6
Continuous
 62
     4
100
AcDbLine
 10
1771.358546524325
 20
1153.247086034718
 30
0.0
 11
1806.131876270732
 21
1143.929600411027
 31
0.0
  0
LINE
  5
235
330
6F
100
AcDbEntity
  8
_1-0_
  6
Continuous
 62
     4
100
AcDbLine
 10
1758.026128325575
 20
1153.247086034718
 30
0.0
 11
1723.252798579168
 21
1143.929600411027
 31
0.0
  0
LINE
  5
236
330
6F
100
AcDbEntity
  8
_1-0_
  6
Continuous
 62
     4
100
AcDbLine
 10
1758.026128325575
 20
1153.247086034718
 30
0.0
 11
1723.252798579168
 21
1162.564571658408
 31
0.0
  0
LINE
  5
237
330
6F
100
AcDbEntity
  8
_1-0_
  6
Continuous
 62
     4
100
AcDbLine
 10
1491.358692042506
 20
979.9137527013844
 30
0.0
 11
1526.132021788913
 21
989.2312383250752
 31
0.0
  0
LINE
  5
238
330
6F
100
AcDbEntity
  8
_1-0_
  6
Continuous
 62
     4
100
AcDbLine
 10
1491.358692042506
 20
979.9137527013844
 30
0.0
 11
1526.132021788913
 21
970.5962670776935
 31
0.0
  0
LINE
  5
239
330
6F
100
AcDbEntity
  8
_1-0_
  6
Continuous
 62
     4
100
AcDbLine
 10
2291.358551237465
 20
979.9137527013844
 30
0.0
 11
2256.585221491059
 21
970.5962670776935
 31
0.0
  0
LINE
  5
23A
330
6F
100
AcDbEntity
  8
_1-0_
  6
Continuous
 62
     4
100
AcDbLine
 10
2291.358551237465
 20
979.9137527013844
 30
0.0
 11
2256.585221491059
 21
989.2312383250752
 31
0.0
  0
LINE
  5
23B
330
6F
100
AcDbEntity
  8
_1-0_
  6
Continuous
 62
     4
100
AcDbLine
 10
2424.693124912005
 20
806.5804193680513
 30
0.0
 11
2389.919795165598
 21
797.2629337443603
 31
0.0
  0
LINE
  5
23C
330
6F
100
AcDbEntity
  8
_1-0_
  6
Continuous
 62
     4
100
AcDbLine
 10
2424.693124912005
 20
806.5804193680513
 30
0.0
 11
2389.919795165598
 21
815.8979049917419
 31
0.0
  0
LINE
  5
23D
330
6F
100
AcDbEntity
  8
_1-0_
  6
Continuous
 62
     4
100
AcDbLine
 10
2424.693124912005
 20
806.5804193680513
 30
0.0
 11
2459.466454658411
 21
815.8979049917419
 31
0.0
  0
LINE
  5
23E
330
6F
100
AcDbEntity
  8
_1-0_
  6
Continuous
 62
     4
100
AcDbLine
 10
2424.693124912005
 20
806.5804193680513
 30
0.0
 11
2459.466454658411
 21
797.2629337443603
 31
0.0
  0
LINE
  5
23F
330
6F
100
AcDbEntity
  8
_1-0_
  6
Continuous
 62
     4
100
AcDbLine
 10
2518.026458245337
 20
806.5804193680513
 30
0.0
 11
2483.253128498932
 21
797.2629337443603
 31
0.0
  0
LINE
  5
240
330
6F
100
AcDbEntity
  8
_1-0_
  6
Continuous
 62
     4
100
AcDbLine
 10
2518.026458245337
 20
806.5804193680513
 30
0.0
 11
2483.253128498932
 21
815.8979049917419
 31
0.0
  0
LINE
  5
241
330
6F
100
AcDbEntity
  8
_1-0_
  6
Continuous
 62
     4
100
AcDbLine
 10
2518.026458245337
 20
633.2470860347178
 30
0.0
 11
2483.253128498932
 21
623.9296004110269
 31
0.0
  0
LINE
  5
242
330
6F
100
AcDbEntity
  8
_1-0_
  6
Continuous
 62
     4
100
AcDbLine
 10
2518.026458245337
 20
633.2470860347178
 30
0.0
 11
2483.253128498932
 21
642.5645716584084
 31
0.0
  0
LINE
  5
243
330
6F
100
AcDbEntity
  8
_1-0_
  6
Continuous
 62
     4
100
AcDbLine
 10
1358.024205855619
 20
806.5804193680513
 30
0.0
 11
1392.797535602025
 21
815.8979049917419
 31
0.0
  0
LINE
  5
244
330
6F
100
AcDbEntity
  8
_1-0_
  6
Continuous
 62
     4
100
AcDbLine
 10
1358.024205855619
 20
806.5804193680513
 30
0.0
 11
1392.797535602025
 21
797.2629337443603
 31
0.0
  0
LINE
  5
245
330
6F
100
AcDbEntity
  8
_1-0_
  6
Continuous
 62
     4
100
AcDbLine
 10
1358.024205855619
 20
806.5804193680513
 30
0.0
 11
1323.250876109213
 21
797.2629337443603
 31
0.0
  0
LINE
  5
246
330
6F
100
AcDbEntity
  8
_1-0_
  6
Continuous
 62
     4
100
AcDbLine
 10
1358.024205855619
 20
806.5804193680513
 30
0.0
 11
1323.250876109213
 21
815.8979049917419
 31
0.0
  0
LINE
  5
247
330
6F
100
AcDbEntity
  8
_1-0_
  6
Continuous
 62
     4
100
AcDbLine
 10
1264.690872522285
 20
806.5804193680513
 30
0.0
 11
1299.464202268692
 21
815.8979049917419
 31
0.0
  0
LINE
  5
248
330
6F
100
AcDbEntity
  8
_1-0_
  6
Continuous
 62
     4
100
AcDbLine
 10
1264.690872522285
 20
806.5804193680513
 30
0.0
 11
1299.464202268692
 21
797.2629337443603
 31
0.0
  0
LINE
  5
249
330
6F
100
AcDbEntity
  8
_1-0_
  6
Continuous
 62
     4
100
AcDbLine
 10
1264.690872522285
 20
633.2470860347178
 30
0.0
 11
1299.464202268692
 21
642.5645716584084
 31
0.0
  0
LINE
  5
24A
330
6F
100
AcDbEntity
  8
_1-0_
  6
Continuous
 62
     4
100
AcDbLine
 10
1264.690872522285
 20
633.2470860347178
 30
0.0
 11
1299.464202268692
 21
623.9296004110269
 31
0.0
  0
LINE
  5
24B
330
6F
100
AcDbEntity
  8
_1-0_
  6
Continuous
 62
     4
100
AcDbLine
 10
564.6908725222852
 20
3173.247654557167
 30
0.0
 11
564.6908725222852
 21
1333.247086034718
 31
0.0
  0
LINE
  5
24C
330
6F
100
AcDbEntity
  8
_1-0_
  6
Continuous
 62
     4
100
AcDbLine
 10
1291.358798088145
 20
3173.247654557167
 30
0.0
 11
551.357539188952
 21
3173.247654557167
 31
0.0
  0
LINE
  5
24D
330
6F
100
AcDbEntity
  8
_1-0_
  6
Continuous
 62
     4
100
AcDbLine
 10
1244.690872522285
 20
1333.247086034718
 30
0.0
 11
551.357539188952
 21
1333.247086034718
 31
0.0
  0
LINE
  5
24E
330
6F
100
AcDbEntity
  8
_1-0_
  6
Continuous
 62
     4
100
AcDbLine
 10
1244.356025057248
 20
3039.914321223833
 30
0.0
 11
724.6908725222852
 21
3039.914321223833
 31
0.0
  0
LINE
  5
24F
330
6F
100
AcDbEntity
  8
_1-0_
  6
Continuous
 62
     4
100
AcDbLine
 10
1244.690872522285
 20
1453.247086034718
 30
0.0
 11
724.6908725222852
 21
1453.247086034718
 31
0.0
  0
LINE
  5
250
330
6F
100
AcDbEntity
  8
_1-0_
  6
Continuous
 62
     4
100
AcDbLine
 10
1244.356025057248
 20
2919.914321223834
 30
0.0
 11
724.6908725222852
 21
2919.914321223834
 31
0.0
  0
LINE
  5
251
330
6F
100
AcDbEntity
  8
_1-0_
  6
Continuous
 62
     4
100
AcDbLine
 10
1244.356025057248
 20
2519.914321223834
 30
0.0
 11
898.0242058556189
 21
2519.914321223834
 31
0.0
  0
LINE
  5
252
330
6F
100
AcDbEntity
  8
_1-0_
  6
Continuous
 62
     4
100
AcDbLine
 10
1244.356025057248
 20
1933.247654557167
 30
0.0
 11
1071.357539188952
 21
1933.247654557167
 31
0.0
  0
LINE
  5
253
330
6F
100
AcDbEntity
  8
_1-0_
  6
Continuous
 62
     4
100
AcDbLine
 10
1244.356025057248
 20
1533.247654557167
 30
0.0
 11
1071.357539188952
 21
1533.247654557167
 31
0.0
  0
LINE
  5
254
330
6F
100
AcDbEntity
  8
_1-0_
  6
Continuous
 62
     4
100
AcDbLine
 10
1244.356025057248
 20
2653.247654557167
 30
0.0
 11
1071.357539188952
 21
2653.247654557167
 31
0.0
  0
LINE
  5
255
330
6F
100
AcDbEntity
  8
_1-0_
  6
Continuous
 62
     4
100
AcDbLine
 10
1244.356025057248
 20
2786.5809878905
 30
0.0
 11
1071.357539188952
 21
2786.5809878905
 31
0.0
  0
LINE
  5
256
330
6F
100
AcDbEntity
  8
_1-0_
  6
Continuous
 62
     4
100
AcDbLine
 10
1084.690872522285
 20
2919.914321223834
 30
0.0
 11
1084.690872522285
 21
2786.5809878905
 31
0.0
  0
LINE
  5
257
330
6F
100
AcDbEntity
  8
_1-0_
  6
Continuous
 62
     4
100
AcDbLine
 10
1084.690872522285
 20
2653.247654557167
 30
0.0
 11
1084.690872522285
 21
2519.914321223834
 31
0.0
  0
LINE
  5
258
330
6F
100
AcDbEntity
  8
_1-0_
  6
Continuous
 62
     4
100
AcDbLine
 10
1084.690872522285
 20
1933.247654557167
 30
0.0
 11
1084.690872522285
 21
1533.247654557167
 31
0.0
  0
LINE
  5
259
330
6F
100
AcDbEntity
  8
_1-0_
  6
Continuous
 62
     4
100
AcDbLine
 10
1084.690872522285
 20
2786.5809878905
 30
0.0
 11
1084.690872522285
 21
2653.247654557167
 31
0.0
  0
LINE
  5
25A
330
6F
100
AcDbEntity
  8
_1-0_
  6
Continuous
 62
     4
100
AcDbLine
 10
1084.690872522285
 20
2519.914321223834
 30
0.0
 11
1084.690872522285
 21
1933.247654557167
 31
0.0
  0
LINE
  5
25B
330
6F
100
AcDbEntity
  8
_1-0_
  6
Continuous
 62
     4
100
AcDbLine
 10
911.357539188952
 20
2919.914321223834
 30
0.0
 11
911.357539188952
 21
2519.914321223834
 31
0.0
  0
LINE
  5
25C
330
6F
100
AcDbEntity
  8
_1-0_
  6
Continuous
 62
     4
100
AcDbLine
 10
911.357539188952
 20
2519.914321223834
 30
0.0
 11
911.357539188952
 21
1453.247086034718
 31
0.0
  0
LINE
  5
25D
330
6F
100
AcDbEntity
  8
_1-0_
  6
Continuous
 62
     4
100
AcDbLine
 10
738.0242058556189
 20
1453.247086034718
 30
0.0
 11
738.0242058556189
 21
1333.247086034718
 31
0.0
  0
LINE
  5
25E
330
6F
100
AcDbEntity
  8
_1-0_
  6
Continuous
 62
     4
100
AcDbLine
 10
738.0242058556189
 20
2919.914321223834
 30
0.0
 11
738.0242058556189
 21
1453.247086034718
 31
0.0
  0
LINE
  5
25F
330
6F
100
AcDbEntity
  8
_1-0_
  6
Continuous
 62
     4
100
AcDbLine
 10
738.0242058556189
 20
3173.247654557167
 30
0.0
 11
738.0242058556189
 21
3039.914321223833
 31
0.0
  0
LINE
  5
260
330
6F
100
AcDbEntity
  8
_1-0_
  6
Continuous
 62
     4
100
AcDbLine
 10
738.0242058556189
 20
3039.914321223833
 30
0.0
 11
738.0242058556189
 21
2919.914321223834
 31
0.0
  0
LINE
  5
261
330
6F
100
AcDbEntity
  8
_1-0_
  6
Continuous
 62
     4
100
AcDbLine
 10
738.0242058556189
 20
3173.247654557167
 30
0.0
 11
747.3416914793097
 21
3138.474324810761
 31
0.0
  0
LINE
  5
262
330
6F
100
AcDbEntity
  8
_1-0_
  6
Continuous
 62
     4
100
AcDbLine
 10
738.0242058556189
 20
3173.247654557167
 30
0.0
 11
728.706720231928
 21
3138.474324810761
 31
0.0
  0
LINE
  5
263
330
6F
100
AcDbEntity
  8
_1-0_
  6
Continuous
 62
     4
100
AcDbLine
 10
738.0242058556189
 20
3039.914321223833
 30
0.0
 11
728.706720231928
 21
3074.68765097024
 31
0.0
  0
LINE
  5
264
330
6F
100
AcDbEntity
  8
_1-0_
  6
Continuous
 62
     4
100
AcDbLine
 10
738.0242058556189
 20
3039.914321223833
 30
0.0
 11
747.3416914793097
 21
3074.68765097024
 31
0.0
  0
LINE
  5
265
330
6F
100
AcDbEntity
  8
_1-0_
  6
Continuous
 62
     4
100
AcDbLine
 10
738.0242058556189
 20
3039.914321223833
 30
0.0
 11
747.3416914793097
 21
3005.140991477428
 31
0.0
  0
LINE
  5
266
330
6F
100
AcDbEntity
  8
_1-0_
  6
Continuous
 62
     4
100
AcDbLine
 10
738.0242058556189
 20
3039.914321223833
 30
0.0
 11
728.706720231928
 21
3005.140991477428
 31
0.0
  0
LINE
  5
267
330
6F
100
AcDbEntity
  8
_1-0_
  6
Continuous
 62
     4
100
AcDbLine
 10
738.0242058556189
 20
2919.914321223834
 30
0.0
 11
728.706720231928
 21
2954.68765097024
 31
0.0
  0
LINE
  5
268
330
6F
100
AcDbEntity
  8
_1-0_
  6
Continuous
 62
     4
100
AcDbLine
 10
738.0242058556189
 20
2919.914321223834
 30
0.0
 11
747.3416914793097
 21
2954.68765097024
 31
0.0
  0
LINE
  5
269
330
6F
100
AcDbEntity
  8
_1-0_
  6
Continuous
 62
     4
100
AcDbLine
 10
564.6908725222852
 20
3173.247654557167
 30
0.0
 11
574.0083581459759
 21
3138.474324810761
 31
0.0
  0
LINE
  5
26A
330
6F
100
AcDbEntity
  8
_1-0_
  6
Continuous
 62
     4
100
AcDbLine
 10
564.6908725222852
 20
3173.247654557167
 30
0.0
 11
555.3733868985943
 21
3138.474324810761
 31
0.0
  0
LINE
  5
26B
330
6F
100
AcDbEntity
  8
_1-0_
  6
Continuous
 62
     4
100
AcDbLine
 10
738.0242058556189
 20
2919.914321223834
 30
0.0
 11
747.3416914793097
 21
2885.140991477428
 31
0.0
  0
LINE
  5
26C
330
6F
100
AcDbEntity
  8
_1-0_
  6
Continuous
 62
     4
100
AcDbLine
 10
738.0242058556189
 20
2919.914321223834
 30
0.0
 11
728.706720231928
 21
2885.140991477428
 31
0.0
  0
LINE
  5
26D
330
6F
100
AcDbEntity
  8
_1-0_
  6
Continuous
 62
     4
100
AcDbLine
 10
911.357539188952
 20
2919.914321223834
 30
0.0
 11
920.6750248126429
 21
2885.140991477428
 31
0.0
  0
LINE
  5
26E
330
6F
100
AcDbEntity
  8
_1-0_
  6
Continuous
 62
     4
100
AcDbLine
 10
911.357539188952
 20
2919.914321223834
 30
0.0
 11
902.040053565261
 21
2885.140991477428
 31
0.0
  0
LINE
  5
26F
330
6F
100
AcDbEntity
  8
_1-0_
  6
Continuous
 62
     4
100
AcDbLine
 10
911.357539188952
 20
2519.914321223834
 30
0.0
 11
902.040053565261
 21
2554.68765097024
 31
0.0
  0
LINE
  5
270
330
6F
100
AcDbEntity
  8
_1-0_
  6
Continuous
 62
     4
100
AcDbLine
 10
911.357539188952
 20
2519.914321223834
 30
0.0
 11
920.6750248126429
 21
2554.68765097024
 31
0.0
  0
LINE
  5
271
330
6F
100
AcDbEntity
  8
_1-0_
  6
Continuous
 62
     4
100
AcDbLine
 10
1084.690872522285
 20
2519.914321223834
 30
0.0
 11
1075.373386898595
 21
2554.68765097024
 31
0.0
  0
LINE
  5
272
330
6F
100
AcDbEntity
  8
_1-0_
  6
Continuous
 62
     4
100
AcDbLine
 10
1084.690872522285
 20
2519.914321223834
 30
0.0
 11
1094.008358145976
 21
2554.68765097024
 31
0.0
  0
LINE
  5
273
330
6F
100
AcDbEntity
  8
_1-0_
  6
Continuous
 62
     4
100
AcDbLine
 10
1084.690872522285
 20
2653.247654557167
 30
0.0
 11
1094.008358145976
 21
2618.474324810761
 31
0.0
  0
LINE
  5
274
330
6F
100
AcDbEntity
  8
_1-0_
  6
Continuous
 62
     4
100
AcDbLine
 10
1084.690872522285
 20
2653.247654557167
 30
0.0
 11
1075.373386898595
 21
2618.474324810761
 31
0.0
  0
LINE
  5
275
330
6F
100
AcDbEntity
  8
_1-0_
  6
Continuous
 62
     4
100
AcDbLine
 10
1084.690872522285
 20
2653.247654557167
 30
0.0
 11
1075.373386898595
 21
2688.020984303574
 31
0.0
  0
LINE
  5
276
330
6F
100
AcDbEntity
  8
_1-0_
  6
Continuous
 62
     4
100
AcDbLine
 10
1084.690872522285
 20
2653.247654557167
 30
0.0
 11
1094.008358145976
 21
2688.020984303574
 31
0.0
  0
LINE
  5
277
330
6F
100
AcDbEntity
  8
_1-0_
  6
Continuous
 62
     4
100
AcDbLine
 10
1084.690872522285
 20
2786.5809878905
 30
0.0
 11
1094.008358145976
 21
2751.807658144094
 31
0.0
  0
LINE
  5
278
330
6F
100
AcDbEntity
  8
_1-0_
  6
Continuous
 62
     4
100
AcDbLine
 10
1084.690872522285
 20
2786.5809878905
 30
0.0
 11
1075.373386898595
 21
2751.807658144094
 31
0.0
  0
LINE
  5
279
330
6F
100
AcDbEntity
  8
_1-0_
  6
Continuous
 62
     4
100
AcDbLine
 10
1084.690872522285
 20
2786.5809878905
 30
0.0
 11
1075.373386898595
 21
2821.354317636907
 31
0.0
  0
LINE
  5
27A
330
6F
100
AcDbEntity
  8
_1-0_
  6
Continuous
 62
     4
100
AcDbLine
 10
1084.690872522285
 20
2786.5809878905
 30
0.0
 11
1094.008358145976
 21
2821.354317636907
 31
0.0
  0
LINE
  5
27B
330
6F
100
AcDbEntity
  8
_1-0_
  6
Continuous
 62
     4
100
AcDbLine
 10
1084.690872522285
 20
2919.914321223834
 30
0.0
 11
1094.008358145976
 21
2885.140991477428
 31
0.0
  0
LINE
  5
27C
330
6F
100
AcDbEntity
  8
_1-0_
  6
Continuous
 62
     4
100
AcDbLine
 10
1084.690872522285
 20
2919.914321223834
 30
0.0
 11
1075.373386898595
 21
2885.140991477428
 31
0.0
  0
LINE
  5
27D
330
6F
100
AcDbEntity
  8
_1-0_
  6
Continuous
 62
     4
100
AcDbLine
 10
1084.690872522285
 20
2519.914321223834
 30
0.0
 11
1094.008358145976
 21
2485.140991477428
 31
0.0
  0
LINE
  5
27E
330
6F
100
AcDbEntity
  8
_1-0_
  6
Continuous
 62
     4
100
AcDbLine
 10
1084.690872522285
 20
2519.914321223834
 30
0.0
 11
1075.373386898595
 21
2485.140991477428
 31
0.0
  0
LINE
  5
27F
330
6F
100
AcDbEntity
  8
_1-0_
  6
Continuous
 62
     4
100
AcDbLine
 10
1084.690872522285
 20
1933.247654557167
 30
0.0
 11
1075.373386898595
 21
1968.020984303573
 31
0.0
  0
LINE
  5
280
330
6F
100
AcDbEntity
  8
_1-0_
  6
Continuous
 62
     4
100
AcDbLine
 10
1084.690872522285
 20
1933.247654557167
 30
0.0
 11
1094.008358145976
 21
1968.020984303573
 31
0.0
  0
LINE
  5
281
330
6F
100
AcDbEntity
  8
_1-0_
  6
Continuous
 62
     4
100
AcDbLine
 10
1084.690872522285
 20
1933.247654557167
 30
0.0
 11
1094.008358145976
 21
1898.474324810761
 31
0.0
  0
LINE
  5
282
330
6F
100
AcDbEntity
  8
_1-0_
  6
Continuous
 62
     4
100
AcDbLine
 10
1084.690872522285
 20
1933.247654557167
 30
0.0
 11
1075.373386898595
 21
1898.474324810761
 31
0.0
  0
LINE
  5
283
330
6F
100
AcDbEntity
  8
_1-0_
  6
Continuous
 62
     4
100
AcDbLine
 10
1084.690872522285
 20
1533.247654557167
 30
0.0
 11
1075.373386898595
 21
1568.020984303573
 31
0.0
  0
LINE
  5
284
330
6F
100
AcDbEntity
  8
_1-0_
  6
Continuous
 62
     4
100
AcDbLine
 10
1084.690872522285
 20
1533.247654557167
 30
0.0
 11
1094.008358145976
 21
1568.020984303573
 31
0.0
  0
LINE
  5
285
330
6F
100
AcDbEntity
  8
_1-0_
  6
Continuous
 62
     4
100
AcDbLine
 10
911.357539188952
 20
1453.247086034718
 30
0.0
 11
902.040053565261
 21
1488.020415781124
 31
0.0
  0
LINE
  5
286
330
6F
100
AcDbEntity
  8
_1-0_
  6
Continuous
 62
     4
100
AcDbLine
 10
911.357539188952
 20
1453.247086034718
 30
0.0
 11
920.6750248126429
 21
1488.020415781124
 31
0.0
  0
LINE
  5
287
330
6F
100
AcDbEntity
  8
_1-0_
  6
Continuous
 62
     4
100
AcDbLine
 10
911.357539188952
 20
2519.914321223834
 30
0.0
 11
920.6750248126429
 21
2485.140991477428
 31
0.0
  0
LINE
  5
288
330
6F
100
AcDbEntity
  8
_1-0_
  6
Continuous
 62
     4
100
AcDbLine
 10
911.357539188952
 20
2519.914321223834
 30
0.0
 11
902.040053565261
 21
2485.140991477428
 31
0.0
  0
LINE
  5
289
330
6F
100
AcDbEntity
  8
_1-0_
  6
Continuous
 62
     4
100
AcDbLine
 10
738.0242058556189
 20
1453.247086034718
 30
0.0
 11
728.706720231928
 21
1488.020415781124
 31
0.0
  0
LINE
  5
28A
330
6F
100
AcDbEntity
  8
_1-0_
  6
Continuous
 62
     4
100
AcDbLine
 10
738.0242058556189
 20
1453.247086034718
 30
0.0
 11
747.3416914793097
 21
1488.020415781124
 31
0.0
  0
LINE
  5
28B
330
6F
100
AcDbEntity
  8
_1-0_
  6
Continuous
 62
     4
100
AcDbLine
 10
738.0242058556189
 20
1453.247086034718
 30
0.0
 11
747.3416914793097
 21
1418.473756288311
 31
0.0
  0
LINE
  5
28C
330
6F
100
AcDbEntity
  8
_1-0_
  6
Continuous
 62
     4
100
AcDbLine
 10
738.0242058556189
 20
1453.247086034718
 30
0.0
 11
728.706720231928
 21
1418.473756288311
 31
0.0
  0
LINE
  5
28D
330
6F
100
AcDbEntity
  8
_1-0_
  6
Continuous
 62
     4
100
AcDbLine
 10
738.0242058556189
 20
1333.247086034718
 30
0.0
 11
728.706720231928
 21
1368.020415781124
 31
0.0
  0
LINE
  5
28E
330
6F
100
AcDbEntity
  8
_1-0_
  6
Continuous
 62
     4
100
AcDbLine
 10
738.0242058556189
 20
1333.247086034718
 30
0.0
 11
747.3416914793097
 21
1368.020415781124
 31
0.0
  0
LINE
  5
28F
330
6F
100
AcDbEntity
  8
_1-0_
  6
Continuous
 62
     4
100
AcDbLine
 10
564.6908725222852
 20
1333.247086034718
 30
0.0
 11
555.3733868985943
 21
1368.020415781124
 31
0.0
  0
LINE
  5
290
330
6F
100
AcDbEntity
  8
_1-0_
  6
Continuous
 62
     4
100
AcDbLine
 10
564.6908725222852
 20
1333.247086034718
 30
0.0
 11
574.0083581459759
 21
1368.020415781124
 31
0.0
  0
TEXT
  5
291
330
6F
100
AcDbEntity
  8
_1-0_
 62
     7
100
AcDbText
 10
4592.503238548281
 20
3340.646170018476
 30
0.0
 40
60.0
  1
940
100
AcDbText
  0
TEXT
  5
292
330
6F
100
AcDbEntity
  8
_1-0_
 62
     7
100
AcDbText
 10
4596.129881713351
 20
3168.380619677632
 30
0.0
 40
60.0
  1
800
100
AcDbText
  0
TEXT
  5
293
330
6F
100
AcDbEntity
  8
_1-0_
 62
     7
100
AcDbText
 10
5190.899360784896
 20
3172.007262842703
 30
0.0
 40
60.0
  1
70
100
AcDbText
  0
TEXT
  5
294
330
6F
100
AcDbEntity
  8
_1-0_
 62
     7
100
AcDbText
 10
4032.186869544903
 20
3172.007262842703
 30
0.0
 40
60.0
  1
70
100
AcDbText
  0
TEXT
  5
295
330
6F
100
AcDbEntity
  8
_1-0_
 62
     7
100
AcDbText
 10
4113.78634075899
 20
2997.928390919323
 30
0.0
 40
60.0
  1
50
100
AcDbText
  0
TEXT
  5
296
330
6F
100
AcDbEntity
  8
_1-0_
 62
     7
100
AcDbText
 10
5105.673246405743
 20
2999.741712501858
 30
0.0
 40
60.0
  1
50
100
AcDbText
  0
TEXT
  5
297
330
6F
100
AcDbEntity
  8
_1-0_
 62
     7
100
AcDbText
 10
4460.130763023211
 20
2994.301747754253
 30
0.0
 40
60.0
  1
200
100
AcDbText
  0
TEXT
  5
298
330
6F
100
AcDbEntity
  8
_1-0_
 62
     7
100
AcDbText
 10
4726.689035655885
 20
2994.301747754253
 30
0.0
 40
60.0
  1
200
100
AcDbText
  0
TEXT
  5
299
330
6F
100
AcDbEntity
  8
_1-0_
 62
     7
100
AcDbText
 10
4592.589962623968
 20
1380.295743167194
 30
0.0
 40
60.0
  1
600
100
AcDbText
  0
TEXT
  5
29A
330
6F
100
AcDbEntity
  8
_1-0_
 62
     7
100
AcDbText
 10
5440.464044582573
 20
2126.047583324402
 30
0.0
 40
60.0
  1
600
 50
90.0
100
AcDbText
  0
TEXT
  5
29B
330
6F
100
AcDbEntity
  8
_1-0_
 62
     7
100
AcDbText
 10
3652.575608187761
 20
2723.570035365984
 30
0.0
 40
60.0
  1
70
 50
90.0
100
AcDbText
  0
TEXT
  5
29C
330
6F
100
AcDbEntity
  8
_1-0_
 62
     7
100
AcDbText
 10
3823.319044046725
 20
2640.314971600043
 30
0.0
 40
60.0
  1
50
 50
90.0
100
AcDbText
  0
TEXT
  5
29D
330
6F
100
AcDbEntity
  8
_1-0_
 62
     7
100
AcDbText
 10
3828.963455149501
 20
2260.728324938377
 30
0.0
 40
60.0
  1
200
 50
90.0
100
AcDbText
  0
TEXT
  5
29E
330
6F
100
AcDbEntity
  8
_1-0_
 62
     7
100
AcDbText
 10
3828.496624156039
 20
1995.218197406494
 30
0.0
 40
60.0
  1
200
 50
90.0
100
AcDbText
  0
TEXT
  5
29F
330
6F
100
AcDbEntity
  8
_1-0_
 62
     7
100
AcDbText
 10
3820.592326653093
 20
1650.590826277998
 30
0.0
 40
60.0
  1
50
 50
90.0
100
AcDbText
  0
TEXT
  5
2A0
330
6F
100
AcDbEntity
  8
_1-0_
 62
     7
100
AcDbText
 10
3651.440360090023
 20
1566.805272746758
 30
0.0
 40
60.0
  1
70
 50
90.0
100
AcDbText
  0
TEXT
  5
2A1
330
6F
100
AcDbEntity
  8
_1-0_
 62
     7
100
AcDbText
 10
3654.602079091201
 20
2129.591254956597
 30
0.0
 40
60.0
  1
800
 50
90.0
100
AcDbText
  0
TEXT
  5
2A2
330
6F
100
AcDbEntity
  8
_1-0_
 62
     7
100
AcDbText
 10
3479.126674525775
 20
2128.010395456007
 30
0.0
 40
60.0
  1
940
 50
90.0
100
AcDbText
  0
TEXT
  5
2A3
330
6F
100
AcDbEntity
  8
_1-0_
 62
     7
100
AcDbText
 10
1808.124296544841
 20
3536.295684767143
 30
0.0
 40
60.0
  1
\U+03C6870
100
AcDbText
  0
TEXT
  5
2A4
330
6F
100
AcDbEntity
  8
_1-0_
 62
     7
100
AcDbText
 10
1804.560725434815
 20
3363.462485930897
 30
0.0
 40
60.0
  1
\U+03C6600
100
AcDbText
  0
TEXT
  5
2A5
330
6F
100
AcDbEntity
  8
_1-0_
 62
     7
100
AcDbText
 10
2330.187464163605
 20
3363.462485930897
 30
0.0
 40
60.0
  1
135
100
AcDbText
  0
TEXT
  5
2A6
330
6F
100
AcDbEntity
  8
_1-0_
 62
     7
100
AcDbText
 10
1350.205408906538
 20
3365.244271485909
 30
0.0
 40
60.0
  1
135
100
AcDbText
  0
TEXT
  5
2A7
330
6F
100
AcDbEntity
  8
_1-0_
 62
     7
100
AcDbText
 10
2686.129353767013
 20
2853.996249062266
 30
0.0
 40
60.0
  1
50
 50
90.0
100
AcDbText
  0
TEXT
  5
2A8
330
6F
100
AcDbEntity
  8
_1-0_
 62
     7
100
AcDbText
 10
2686.129353767013
 20
2636.071053477656
 30
0.0
 40
60.0
  1
250
 50
90.0
100
AcDbText
  0
TEXT
  5
2A9
330
6F
100
AcDbEntity
  8
_1-0_
 62
     7
100
AcDbText
 10
2687.805701425356
 20
2235.423963133641
 30
0.0
 40
60.0
  1
350
 50
90.0
100
AcDbText
  0
TEXT
  5
2AA
330
6F
100
AcDbEntity
  8
_1-0_
 62
     7
100
AcDbText
 10
726.266745257743
 20
3054.585039116922
 30
0.0
 40
60.0
  1
100
 50
90.0
100
AcDbText
  0
TEXT
  5
2AB
330
6F
100
AcDbEntity
  8
_1-0_
 62
     7
100
AcDbText
 10
727.5823598756834
 20
2945.389025827886
 30
0.0
 40
60.0
  1
90
 50
90.0
100
AcDbText
  0
TEXT
  5
2AC
330
6F
100
AcDbEntity
  8
_1-0_
 62
     7
100
AcDbText
 10
1070.957775158075
 20
2804.618261708284
 30
0.0
 40
60.0
  1
100
 50
90.0
100
AcDbText
  0
TEXT
  5
2AD
330
6F
100
AcDbEntity
  8
_1-0_
 62
     7
100
AcDbText
 10
903.8747186796696
 20
2667.794341442504
 30
0.0
 40
60.0
  1
300
 50
90.0
100
AcDbText
  0
TEXT
  5
2AE
330
6F
100
AcDbEntity
  8
_1-0_
 62
     7
100
AcDbText
 10
1075.668524273926
 20
2177.579359125496
 30
0.0
 40
60.0
  1
440
 50
90.0
100
AcDbText
  0
TEXT
  5
2AF
330
6F
100
AcDbEntity
  8
_1-0_
 62
     7
100
AcDbText
 10
1077.132676026149
 20
1682.696066873861
 30
0.0
 40
60.0
  1
300
 50
90.0
100
AcDbText
  0
TEXT
  5
2B0
330
6F
100
AcDbEntity
  8
_1-0_
 62
     7
100
AcDbText
 10
899.9703140070732
 20
1935.994320008574
 30
0.0
 40
60.0
  1
800
 50
90.0
100
AcDbText
  0
TEXT
  5
2B1
330
6F
100
AcDbEntity
  8
_1-0_
 62
     7
100
AcDbText
 10
725.7362554924448
 20
2121.941592540993
 30
0.0
 40
60.0
  1
1100
 50
90.0
100
AcDbText
  0
TEXT
  5
2B2
330
6F
100
AcDbEntity
  8
_1-0_
 62
     7
100
AcDbText
 10
554.4305004822636
 20
2183.435966134391
 30
0.0
 40
60.0
  1
1380
 50
90.0
100
AcDbText
  0
TEXT
  5
2B3
330
6F
100
AcDbEntity
  8
_1-0_
 62
     7
100
AcDbText
 10
725.8774342203062
 20
1358.404935335216
 30
0.0
 40
60.0
  1
90
 50
90.0
100
AcDbText
  0
TEXT
  5
2B4
330
6F
100
AcDbEntity
  8
_1-0_
 62
     7
100
AcDbText
 10
1803.512152519697
 20
1166.174000297309
 30
0.0
 40
60.0
  1
\U+03C6180
100
AcDbText
  0
TEXT
  5
2B5
330
6F
100
AcDbEntity
  8
_1-0_
 62
     7
100
AcDbText
 10
2032.984056786085
 20
1164.352794707893
 30
0.0
 40
60.0
  1
10
100
AcDbText
  0
TEXT
  5
2B6
330
6F
100
AcDbEntity
  8
_1-0_
 62
     7
100
AcDbText
 10
1686.954994797086
 20
1164.352794707893
 30
0.0
 40
60.0
  1
10
100
AcDbText
  0
TEXT
  5
2B7
330
6F
100
AcDbEntity
  8
_1-0_
 62
     7
100
AcDbText
 10
1841.757469897428
 20
991.3382637133937
 30
0.0
 40
60.0
  1
600
100
AcDbText
  0
TEXT
  5
2B8
330
6F
100
AcDbEntity
  8
_1-0_
 62
     7
100
AcDbText
 10
1841.757469897428
 20
818.3237327188942
 30
0.0
 40
60.0
  1
800
100
AcDbText
  0
TEXT
  5
2B9
330
6F
100
AcDbEntity
  8
_1-0_
 62
     7
100
AcDbText
 10
2440.934108815222
 20
818.3237327188942
 30
0.0
 40
60.0
  1
70
100
AcDbText
  0
TEXT
  5
2BA
330
6F
100
AcDbEntity
  8
_1-0_
 62
     7
100
AcDbText
 10
1279.00494276795
 20
820.1449383083097
 30
0.0
 40
60.0
  1
70
100
AcDbText
  0
TEXT
  5
2BB
330
6F
100
AcDbEntity
  8
_1-0_
 62
     7
100
AcDbText
 10
1841.757469897428
 20
641.6667905455629
 30
0.0
 40
60.0
  1
940
100
AcDbText
  0
TEXT
  5
2BC
330
6F
100
AcDbEntity
  8
_1-0_
 62
     7
100
AcDbText
 10
1072.273389776015
 20
2536.232879648484
 30
0.0
 40
60.0
  1
100
 50
90.0
100
AcDbText
  0
TEXT
  5
2BD
330
6F
100
AcDbEntity
  8
_1-0_
 62
     7
100
AcDbText
 10
1072.390097524381
 20
2668.070196120459
 30
0.0
 40
60.0
  1
100
 50
90.0
100
AcDbText
  0
CIRCLE
  5
2BE
330
6F
100
AcDbEntity
  8
_1-0_
  6
DASHED1
 62
     6
100
AcDbCircle
 10
1624.691797770479
 20
2053.247361753378
 30
0.0
 40
10.66666740478235
  0
LINE
  5
2BF
330
6F
100
AcDbEntity
  8
_1-0_
  6
Continuous
 62
     4
100
AcDbLine
 10
1623.759837799981
 20
2051.931458778316
 30
0.0
 11
1623.933109935819
 21
2052.254590149037
 31
0.0
  0
LINE
  5
2C0
330
6F
100
AcDbEntity
  8
_1-0_
  6
Continuous
 62
     4
100
AcDbLine
 10
1629.555908801973
 20
2062.740423293131
 30
0.0
 11
1696.817316115784
 21
2188.174732952495
 31
0.0
  0
LINE
  5
2C1
330
6F
100
AcDbEntity
  8
_1-0_
  6
Continuous
 62
     4
100
AcDbLine
 10
1629.555908801973
 20
2062.740423293131
 30
0.0
 11
1637.777434377962
 21
2097.789054039615
 31
0.0
  0
LINE
  5
2C2
330
6F
100
AcDbEntity
  8
_1-0_
  6
Continuous
 62
     4
100
AcDbLine
 10
1629.555908801973
 20
2062.740423293131
 30
0.0
 11
1654.200274181885
 21
2088.982665099452
 31
0.0
  0
TEXT
  5
2C3
330
6F
100
AcDbEntity
  8
_1-0_
 62
     7
100
AcDbText
 10
1714.36768672089
 20
2195.30495444796
 30
0.0
 40
60.0
  1
インサート M12
100
AcDbText
  0
LINE
  5
2C4
330
6F
100
AcDbEntity
  8
_1-0_
  6
Continuous
 62
     4
100
AcDbLine
 10
1696.817316115784
 20
2188.174732952495
 30
0.0
 11
2223.132260188155
 21
2188.174732952495
 31
0.0
  0
TEXT
  5
2C5
330
6F
100
AcDbEntity
  8
_1-0_
 62
     7
100
AcDbText
 10
3592.183558191114
 20
1378.868737921807
 30
0.0
 40
60.0
  1
インサート M12
100
AcDbText
  0
LINE
  5
2C6
330
6F
100
AcDbEntity
  8
_1-0_
  6
Continuous
 62
     4
100
AcDbLine
 10
4129.504244426938
 20
1371.727470007148
 30
0.0
 11
3605.514026630424
 21
1371.727470007148
 31
0.0
  0
LINE
  5
2C7
330
6F
100
AcDbEntity
  8
_1-0_
  6
Continuous
 62
   136
100
AcDbLine
 10
4360.652651266601
 20
2461.23771967608
 30
0.0
 11
4549.214217238666
 21
2272.675694149536
 31
0.0
  0
LINE
  5
2C8
330
6F
100
AcDbEntity
  8
_1-0_
  6
Continuous
 62
   136
100
AcDbLine
 10
4737.77558261057
 20
2272.675694149537
 30
0.0
 11
4926.337148582635
 21
2461.237719676081
 31
0.0
  0
LINE
  5
2C9
330
6F
100
AcDbEntity
  8
_1-0_
  6
Continuous
 62
   136
100
AcDbLine
 10
4737.775845073525
 20
2084.113606760049
 30
0.0
 11
4926.337411045589
 21
1895.551581233505
 31
0.0
  0
LINE
  5
2CA
330
6F
100
AcDbEntity
  8
_1-0_
  6
Continuous
 62
   136
100
AcDbLine
 10
4360.652388803647
 20
1895.551581233505
 30
0.0
 11
4549.213954775712
 21
2084.113606760049
 31
0.0
  0
LINE
  5
2CB
330
6F
100
AcDbEntity
  8
_1-0_
  6
DASHED1
 62
   136
100
AcDbLine
 10
4360.652651266601
 20
2461.23771967608
 30
0.0
 11
4176.828767413758
 21
2645.06205153692
 31
0.0
  0
LINE
  5
2CC
330
6F
100
AcDbEntity
  8
_1-0_
  6
DASHED1
 62
   136
100
AcDbLine
 10
4926.337148582635
 20
2461.237719676081
 30
0.0
 11
5110.161032435478
 21
2645.06205153692
 31
0.0
  0
LINE
  5
2CD
330
6F
100
AcDbEntity
  8
_1-0_
  6
DASHED1
 62
   136
100
AcDbLine
 10
5110.161032435478
 20
1711.72751183626
 30
0.0
 11
4926.337411045589
 21
1895.551581233505
 31
0.0
  0
LINE
  5
2CE
330
6F
100
AcDbEntity
  8
_1-0_
  6
DASHED1
 62
   136
100
AcDbLine
 10
4360.652388803647
 20
1895.551581233505
 30
0.0
 11
4176.828767413758
 21
1711.72751183626
 31
0.0
  0
ENDSEC
  0
SECTION
  2
OBJECTS
  0
DICTIONARY
  5
C
330
0
100
AcDbDictionary
281
     1
  3
ACAD_CIP_PREVIOUS_PRODUCT_INFO
350
2D0
  3
ACAD_COLOR
350
62
  3
ACAD_DETAILVIEWSTYLE
350
69
  3
ACAD_GROUP
350
D
  3
ACAD_LAYOUT
350
61
  3
ACAD_MATERIAL
350
10
  3
ACAD_MLEADERSTYLE
350
65
  3
ACAD_MLINESTYLE
350
5E
  3
ACAD_PLOTSETTINGS
350
60
  3
ACAD_PLOTSTYLENAME
350
E
  3
ACAD_SCALELIST
350
42
  3
ACAD_SECTIONVIEWSTYLE
350
67
  3
ACAD_TABLESTYLE
350
63
  3
ACAD_VISUALSTYLE
350
29
  3
ACDB_RECOMPOSE_DATA
350
2E4
  3
AcDbVariableDictionary
350
2D7
  3
DWGPROPS
350
2E5
  0
DICTIONARY
  5
2D1
330
54
100
AcDbDictionary
280
     1
281
     1
  3
ADSK_XREC_LAYER_RECONCILED
360
2D2
  0
DICTIONARY
  5
2D3
330
96
100
AcDbDictionary
280
     1
281
     1
  3
ADSK_XREC_LAYER_RECONCILED
360
2D4
  0
DICTIONARY
  5
2D5
330
97
100
AcDbDictionary
280
     1
281
     1
  3
ADSK_XREC_LAYER_RECONCILED
360
2D6
  0
XRECORD
  5
2D0
102
{ACAD_REACTORS
330
C
102
}
330
C
100
AcDbXrecord
280
     1
300
ACDLT
300
2015
300
ACDLT_F_S
  0
DICTIONARY
  5
62
102
{ACAD_REACTORS
330
C
102
}
330
C
100
AcDbDictionary
281
     1
  0
DICTIONARY
  5
69
102
{ACAD_REACTORS
330
C
102
}
330
C
100
AcDbDictionary
281
     1
  3
Imperial24
350
6A
  0
DICTIONARY
  5
D
102
{ACAD_REACTORS
330
C
102
}
330
C
100
AcDbDictionary
281
     1
  0
DICTIONARY
  5
61
102
{ACAD_REACTORS
330
C
102
}
330
C
100
AcDbDictionary
281
     1
  3
Model
350
72
  3
レイアウト1
350
6E
  0
DICTIONARY
  5
10
102
{ACAD_REACTORS
330
C
102
}
330
C
100
AcDbDictionary
281
     1
  3
ByBlock
350
19
  3
ByLayer
350
11
  3
Global
350
21
  0
DICTIONARY
  5
65
102
{ACAD_REACTORS
330
C
102
}
330
C
100
AcDbDictionary
281
     1
  3
Standard
350
66
  0
DICTIONARY
  5
5E
102
{ACAD_REACTORS
330
C
102
}
330
C
100
AcDbDictionary
281
     1
  3
Standard
350
5F
  0
DICTIONARY
  5
60
102
{ACAD_REACTORS
330
C
102
}
330
C
100
AcDbDictionary
281
     1
  0
ACDBDICTIONARYWDFLT
  5
E
102
{ACAD_REACTORS
330
C
102
}
330
C
100
AcDbDictionary
281
     1
  3
Normal
350
F
100
AcDbDictionaryWithDefault
340
F
  0
DICTIONARY
  5
42
102
{ACAD_REACTORS
330
C
102
}
330
C
100
AcDbDictionary
281
     1
  3
A0
350
43
  3
A1
350
44
  3
A2
350
45
  3
A3
350
46
  3
A4
350
47
  3
A5
350
48
  3
A6
350
49
  3
A7
350
4A
  3
A8
350
4B
  3
A9
350
4C
  3
B0
350
4D
  3
B1
350
4E
  3
B2
350
4F
  3
B3
350
50
  3
B4
350
51
  3
B5
350
52
  3
B6
350
53
  0
DICTIONARY
  5
67
102
{ACAD_REACTORS
330
C
102
}
330
C
100
AcDbDictionary
281
     1
  3
Imperial24
350
68
  0
DICTIONARY
  5
63
102
{ACAD_REACTORS
330
C
102
}
330
C
100
AcDbDictionary
281
     1
  3
Standard
350
64
  0
DICTIONARY
  5
29
102
{ACAD_REACTORS
330
C
102
}
330
C
100
AcDbDictionary
281
     1
  3
2dWireframe
350
2F
  3
Basic
350
2E
  3
Brighten
350
35
  3
ColorChange
350
39
  3
Conceptual
350
32
  3
Dim
350
34
  3
EdgeColorOff
350
41
  3
Facepattern
350
38
  3
Flat
350
2A
  3
FlatWithEdges
350
2B
  3
Gouraud
350
2C
  3
GouraudWithEdges
350
2D
  3
Hidden
350
31
  3
JitterOff
350
3F
  3
Linepattern
350
37
  3
OverhangOff
350
40
  3
Realistic
350
33
  3
Shaded
350
3E
  3
Shaded with edges
350
3D
  3
Shades of Gray
350
3A
  3
Sketchy
350
3B
  3
Thicken
350
36
  3
Wireframe
350
30
  3
X-Ray
350
3C
  0
XRECORD
  5
2E4
102
{ACAD_REACTORS
330
C
102
}
330
C
100
AcDbXrecord
280
     1
 90
        1
330
64
  0
DICTIONARY
  5
2D7
102
{ACAD_REACTORS
330
C
102
}
330
C
100
AcDbDictionary
281
     1
  3
CANNOSCALE
350
2DC
  3
CMLEADERSTYLE
350
2D9
  3
CTABLESTYLE
350
2D8
  3
CVIEWDETAILSTYLE
350
2DA
  3
CVIEWSECTIONSTYLE
350
2DB
  3
DIMASSOC
350
2DF
  3
INDEXCTL
350
2DE
  3
SORTENTS
350
2DD
  3
XCLIPFRAME
350
2E0
  0
XRECORD
  5
2E5
102
{ACAD_REACTORS
330
C
102
}
330
C
100
AcDbXrecord
280
     1
  1
DWGPROPS COOKIE
  2

  3

  4

  6

  7

  8
kyoko
  9

300
=
301
=
302
=
303
=
304
=
305
=
306
=
307
=
308
=
309
=
 40
0.0006602893518519
 41
2457238.772427315
 42
2457238.773087141
  1

 90
        0
  0
XRECORD
  5
2D2
102
{ACAD_REACTORS
330
2D1
102
}
330
2D1
100
AcDbXrecord
280
     1
290
     1
  0
XRECORD
  5
2D4
102
{ACAD_REACTORS
330
2D3
102
}
330
2D3
100
AcDbXrecord
280
     1
290
     1
  0
XRECORD
  5
2D6
102
{ACAD_REACTORS
330
2D5
102
}
330
2D5
100
AcDbXrecord
280
     1
290
     1
  0
ACDBDETAILVIEWSTYLE
  5
6A
102
{ACAD_XDICTIONARY
360
31D
102
}
102
{ACAD_REACTORS
330
69
102
}
330
69
100
AcDbModelDocViewStyle
 70
     0
  3
Imperial24
290
     0
100
AcDbDetailViewStyle
 70
     0
 71
     0
 90
        3
 71
     1
340
55
 40
0.24
340
0
 40
0.24
300

 40
0.36
280
     3
 71
     2
340
5C
 90
       25
 71
     3
340
55
 40
0.24
 90
        1
 40
0.75
 90
        1
300
%<\AcVar ViewType \f "%tc1">% %<\AcVar ViewDetailId>%\PSCALE %<\AcVar ViewScale \f "%sn">%
 71
     4
340
5C
 90
       25
340
5C
 90
       25
280
     0
  0
LAYOUT
  5
72
102
{ACAD_XDICTIONARY
360
321
102
}
102
{ACAD_REACTORS
330
61
102
}
330
61
100
AcDbPlotSettings
  1

  2
RICOH imagio MP C3300 RPCS
  4

  6

 40
0.0
 41
0.0
 42
0.0
 43
0.0
 44
0.0
 45
0.0
 46
0.0
 47
0.0
 48
0.0
 49
0.0
140
0.0
141
0.0
142
1.0
143
1.0
 70
  1712
 72
     0
 73
     0
 74
     0
  7
monochrome.ctb
 75
     0
147
1.0
148
0.0
149
0.0
100
AcDbLayout
  1
Model
 70
     1
 71
     0
 10
0.0
 20
0.0
 11
12.0
 21
9.0
 12
0.0
 22
0.0
 32
0.0
 14
0.0
 24
0.0
 34
0.0
 15
0.0
 25
0.0
 35
0.0
146
0.0
 13
0.0
 23
0.0
 33
0.0
 16
1.0
 26
0.0
 36
0.0
 17
0.0
 27
1.0
 37
0.0
 76
     0
330
6F
331
9A
  0
LAYOUT
  5
6E
102
{ACAD_XDICTIONARY
360
31F
102
}
102
{ACAD_REACTORS
330
61
102
}
330
61
100
AcDbPlotSettings
  1

  2
RICOH imagio MP C3300 RPCS
  4

  6

 40
0.0
 41
0.0
 42
0.0
 43
0.0
 44
0.0
 45
0.0
 46
0.0
 47
0.0
 48
0.0
 49
0.0
140
0.0
141
0.0
142
1.0
143
1.0
 70
   688
 72
     0
 73
     0
 74
     5
  7
monochrome.ctb
 75
    16
147
1.0
148
0.0
149
0.0
100
AcDbLayout
  1
レイアウト1
 70
     1
 71
     1
 10
0.0
 20
0.0
 11
12.0
 21
9.0
 12
0.0
 22
0.0
 32
0.0
 14
1.000000000000000E+20
 24
1.000000000000000E+20
 34
1.000000000000000E+20
 15
-1.000000000000000E+20
 25
-1.000000000000000E+20
 35
-1.000000000000000E+20
146
0.0
 13
0.0
 23
0.0
 33
0.0
 16
1.0
 26
0.0
 36
0.0
 17
0.0
 27
1.0
 37
0.0
 76
     0
330
6B
  0
MATERIAL
  5
19
102
{ACAD_XDICTIONARY
360
1A
102
}
102
{ACAD_REACTORS
330
10
102
}
330
10
100
AcDbMaterial
  1
ByBlock
 72
     0
 43
0.0208333333333333
 43
0.0
 43
0.0
 43
0.0
 43
0.0
 43
0.0208333333333333
 43
0.0
 43
0.0
 43
0.0
 43
0.0
 43
1.0
 43
0.0
 43
0.0
 43
0.0
 43
0.0
 43
1.0
 77
     0
 47
0.0208333333333333
 47
0.0
 47
0.0
 47
0.0
 47
0.0
 47
0.0208333333333333
 47
0.0
 47
0.0
 47
0.0
 47
0.0
 47
1.0
 47
0.0
 47
0.0
 47
0.0
 47
0.0
 47
1.0
171
     0
 49
0.0208333333333333
 49
0.0
 49
0.0
 49
0.0
 49
0.0
 49
0.0208333333333333
 49
0.0
 49
0.0
 49
0.0
 49
0.0
 49
1.0
 49
0.0
 49
0.0
 49
0.0
 49
0.0
 49
1.0
175
     0
142
0.0208333333333333
142
0.0
142
0.0
142
0.0
142
0.0
142
0.0208333333333333
142
0.0
142
0.0
142
0.0
142
0.0
142
1.0
142
0.0
142
0.0
142
0.0
142
0.0
142
1.0
179
     0
144
0.0208333333333333
144
0.0
144
0.0
144
0.0
144
0.0
144
0.0208333333333333
144
0.0
144
0.0
144
0.0
144
0.0
144
1.0
144
0.0
144
0.0
144
0.0
144
0.0
144
1.0
147
0.0208333333333333
147
0.0
147
0.0
147
0.0
147
0.0
147
0.0208333333333333
147
0.0
147
0.0
147
0.0
147
0.0
147
1.0
147
0.0
147
0.0
147
0.0
147
0.0
147
1.0
  0
MATERIAL
  5
11
102
{ACAD_XDICTIONARY
360
12
102
}
102
{ACAD_REACTORS
330
10
102
}
330
10
100
AcDbMaterial
  1
ByLayer
 72
     0
 43
0.0208333333333333
 43
0.0
 43
0.0
 43
0.0
 43
0.0
 43
0.0208333333333333
 43
0.0
 43
0.0
 43
0.0
 43
0.0
 43
1.0
 43
0.0
 43
0.0
 43
0.0
 43
0.0
 43
1.0
 77
     0
 47
0.0208333333333333
 47
0.0
 47
0.0
 47
0.0
 47
0.0
 47
0.0208333333333333
 47
0.0
 47
0.0
 47
0.0
 47
0.0
 47
1.0
 47
0.0
 47
0.0
 47
0.0
 47
0.0
 47
1.0
171
     0
 49
0.0208333333333333
 49
0.0
 49
0.0
 49
0.0
 49
0.0
 49
0.0208333333333333
 49
0.0
 49
0.0
 49
0.0
 49
0.0
 49
1.0
 49
0.0
 49
0.0
 49
0.0
 49
0.0
 49
1.0
175
     0
142
0.0208333333333333
142
0.0
142
0.0
142
0.0
142
0.0
142
0.0208333333333333
142
0.0
142
0.0
142
0.0
142
0.0
142
1.0
142
0.0
142
0.0
142
0.0
142
0.0
142
1.0
179
     0
144
0.0208333333333333
144
0.0
144
0.0
144
0.0
144
0.0
144
0.0208333333333333
144
0.0
144
0.0
144
0.0
144
0.0
144
1.0
144
0.0
144
0.0
144
0.0
144
0.0
144
1.0
147
0.0208333333333333
147
0.0
147
0.0
147
0.0
147
0.0
147
0.0208333333333333
147
0.0
147
0.0
147
0.0
147
0.0
147
1.0
147
0.0
147
0.0
147
0.0
147
0.0
147
1.0
  0
MATERIAL
  5
21
102
{ACAD_XDICTIONARY
360
22
102
}
102
{ACAD_REACTORS
330
10
102
}
330
10
100
AcDbMaterial
  1
Global
 72
     0
 43
0.0208333333333333
 43
0.0
 43
0.0
 43
0.0
 43
0.0
 43
0.0208333333333333
 43
0.0
 43
0.0
 43
0.0
 43
0.0
 43
1.0
 43
0.0
 43
0.0
 43
0.0
 43
0.0
 43
1.0
 77
     0
 47
0.0208333333333333
 47
0.0
 47
0.0
 47
0.0
 47
0.0
 47
0.0208333333333333
 47
0.0
 47
0.0
 47
0.0
 47
0.0
 47
1.0
 47
0.0
 47
0.0
 47
0.0
 47
0.0
 47
1.0
171
     0
 49
0.0208333333333333
 49
0.0
 49
0.0
 49
0.0
 49
0.0
 49
0.0208333333333333
 49
0.0
 49
0.0
 49
0.0
 49
0.0
 49
1.0
 49
0.0
 49
0.0
 49
0.0
 49
0.0
 49
1.0
175
     0
142
0.0208333333333333
142
0.0
142
0.0
142
0.0
142
0.0
142
0.0208333333333333
142
0.0
142
0.0
142
0.0
142
0.0
142
1.0
142
0.0
142
0.0
142
0.0
142
0.0
142
1.0
179
     0
144
0.0208333333333333
144
0.0
144
0.0
144
0.0
144
0.0
144
0.0208333333333333
144
0.0
144
0.0
144
0.0
144
0.0
144
1.0
144
0.0
144
0.0
144
0.0
144
0.0
144
1.0
147
0.0208333333333333
147
0.0
147
0.0
147
0.0
147
0.0
147
0.0208333333333333
147
0.0
147
0.0
147
0.0
147
0.0
147
1.0
147
0.0
147
0.0
147
0.0
147
0.0
147
1.0
  0
MLEADERSTYLE
  5
66
102
{ACAD_REACTORS
330
65
102
}
330
65
100
AcDbMLeaderStyle
170
     2
171
     1
172
     0
 90
        2
 40
0.0
 41
0.0
173
     1
 91
-1056964608
340
5A
 92
       -2
290
     1
 42
0.09
291
     1
 43
0.36
  3
Standard
 44
0.18
300

342
55
174
     1
178
     6
175
     1
176
     0
 93
-1056964608
 45
0.18
292
     0
297
     0
 46
0.18
 94
-1056964608
 47
1.0
 49
1.0
140
1.0
293
     1
141
0.0
294
     1
177
     0
142
1.0
295
     0
296
     0
143
0.125
1001
ACAD_MLEADERVER
1070
     2
  0
MLINESTYLE
  5
5F
102
{ACAD_REACTORS
330
5E
102
}
330
5E
100
AcDbMlineStyle
  2
STANDARD
 70
     0
  3

 62
   256
 51
90.0
 52
90.0
 71
     2
 49
0.5
 62
   256
  6
BYLAYER
 49
-0.5
 62
   256
  6
BYLAYER
  0
ACDBPLACEHOLDER
  5
F
102
{ACAD_REACTORS
330
E
102
}
330
E
  0
SCALE
  5
43
102
{ACAD_REACTORS
330
42
102
}
330
42
100
AcDbScale
 70
     0
300
1:1
140
1.0
141
1.0
290
     1
  0
SCALE
  5
44
102
{ACAD_REACTORS
330
42
102
}
330
42
100
AcDbScale
 70
     0
300
1/128" = 1'-0"
140
0.0078125
141
12.0
290
     0
  0
SCALE
  5
45
102
{ACAD_REACTORS
330
42
102
}
330
42
100
AcDbScale
 70
     0
300
1/64" = 1'-0"
140
0.015625
141
12.0
290
     0
  0
SCALE
  5
46
102
{ACAD_REACTORS
330
42
102
}
330
42
100
AcDbScale
 70
     0
300
1/32" = 1'-0"
140
0.03125
141
12.0
290
     0
  0
SCALE
  5
47
102
{ACAD_REACTORS
330
42
102
}
330
42
100
AcDbScale
 70
     0
300
1/16" = 1'-0"
140
0.0625
141
12.0
290
     0
  0
SCALE
  5
48
102
{ACAD_REACTORS
330
42
102
}
330
42
100
AcDbScale
 70
     0
300
3/32" = 1'-0"
140
0.09375
141
12.0
290
     0
  0
SCALE
  5
49
102
{ACAD_REACTORS
330
42
102
}
330
42
100
AcDbScale
 70
     0
300
1/8" = 1'-0"
140
0.125
141
12.0
290
     0
  0
SCALE
  5
4A
102
{ACAD_REACTORS
330
42
102
}
330
42
100
AcDbScale
 70
     0
300
3/16" = 1'-0"
140
0.1875
141
12.0
290
     0
  0
SCALE
  5
4B
102
{ACAD_REACTORS
330
42
102
}
330
42
100
AcDbScale
 70
     0
300
1/4" = 1'-0"
140
0.25
141
12.0
290
     0
  0
SCALE
  5
4C
102
{ACAD_REACTORS
330
42
102
}
330
42
100
AcDbScale
 70
     0
300
3/8" = 1'-0"
140
0.375
141
12.0
290
     0
  0
SCALE
  5
4D
102
{ACAD_REACTORS
330
42
102
}
330
42
100
AcDbScale
 70
     0
300
1/2" = 1'-0"
140
0.5
141
12.0
290
     0
  0
SCALE
  5
4E
102
{ACAD_REACTORS
330
42
102
}
330
42
100
AcDbScale
 70
     0
300
3/4" = 1'-0"
140
0.75
141
12.0
290
     0
  0
SCALE
  5
4F
102
{ACAD_REACTORS
330
42
102
}
330
42
100
AcDbScale
 70
     0
300
1" = 1'-0"
140
1.0
141
12.0
290
     0
  0
SCALE
  5
50
102
{ACAD_REACTORS
330
42
102
}
330
42
100
AcDbScale
 70
     0
300
1-1/2" = 1'-0"
140
1.5
141
12.0
290
     0
  0
SCALE
  5
51
102
{ACAD_REACTORS
330
42
102
}
330
42
100
AcDbScale
 70
     0
300
3" = 1'-0"
140
3.0
141
12.0
290
     0
  0
SCALE
  5
52
102
{ACAD_REACTORS
330
42
102
}
330
42
100
AcDbScale
 70
     0
300
6" = 1'-0"
140
6.0
141
12.0
290
     0
  0
SCALE
  5
53
102
{ACAD_REACTORS
330
42
102
}
330
42
100
AcDbScale
 70
     0
300
1'-0" = 1'-0"
140
12.0
141
12.0
290
     0
  0
ACDBSECTIONVIEWSTYLE
  5
68
102
{ACAD_XDICTIONARY
360
31B
102
}
102
{ACAD_REACTORS
330
67
102
}
330
67
100
AcDbModelDocViewStyle
 70
     0
  3
Imperial24
290
     0
100
AcDbSectionViewStyle
 70
     0
 71
     0
 90
       78
 71
     1
340
55
 40
0.24
340
0
340
0
 40
0.24
300
I, O, Q, S, X, Z
 40
0.48
 90
        3
 40
0.18
 90
        1
 71
     2
340
5C
 90
       25
340
5C
 90
       50
 40
0.24
 40
0.0
 40
0.24
 71
     3
340
55
 40
0.24
 90
        1
 40
0.75
 90
        1
300
%<\AcVar ViewType \f "%tc1">% %<\AcVar ViewSectionStartId>%-%<\AcVar ViewSectionEndId>%\PSCALE %<\AcVar ViewScale \f "%sn">%
 71
     4
300
ANSI31
 40
1.0
 90
        0
290
     0
290
     0
 90
        6
 40
0.0
 40
1.570796326794896
 40
0.2617993877991494
 40
1.308996938995747
 40
-0.2617993877991494
 40
1.832595714594046
  0
TABLESTYLE
  5
64
102
{ACAD_XDICTIONARY
360
2E2
102
}
102
{ACAD_REACTORS
330
63
102
}
330
63
100
AcDbTableStyle
  3
Standard
 70
     0
 71
     0
 40
0.06
 41
0.06
280
     0
281
     0
  7
STANDARD
140
0.18
170
     2
 62
     0
 63
     7
283
     0
274
    -2
284
     1
 64
     0
275
    -2
285
     1
 65
     0
276
    -2
286
     1
 66
     0
277
    -2
287
     1
 67
     0
278
    -2
288
     1
 68
     0
279
    -2
289
     1
 69
     0
  7
STANDARD
140
0.25
170
     5
 62
     0
 63
     7
283
     0
274
    -2
284
     1
 64
     0
275
    -2
285
     1
 65
     0
276
    -2
286
     1
 66
     0
277
    -2
287
     1
 67
     0
278
    -2
288
     1
 68
     0
279
    -2
289
     1
 69
     0
  7
STANDARD
140
0.18
170
     5
 62
     0
 63
     7
283
     0
274
    -2
284
     1
 64
     0
275
    -2
285
     1
 65
     0
276
    -2
286
     1
 66
     0
277
    -2
287
     1
 67
     0
278
    -2
288
     1
 68
     0
279
    -2
289
     1
 69
     0
  0
VISUALSTYLE
  5
2F
102
{ACAD_XDICTIONARY
360
2F3
102
}
102
{ACAD_REACTORS
330
29
102
}
330
29
100
AcDbVisualStyle
  2
2dWireframe
 70
     4
 71
     0
 72
     2
 73
     0
 90
        0
 40
-0.6
 41
-30.0
 62
     5
 63
     7
 74
     1
 91
        4
 64
     7
 65
   257
 75
     1
175
     1
 42
1.0
 92
        0
 66
   257
 43
1.0
 76
     1
 77
     6
 78
     2
 67
     7
 79
     5
170
     0
171
     0
290
     0
174
     0
 93
        1
 44
0.0
173
     0
291
     0
 45
0.0
1001
ACAD
1000
AcDbSavedByObjectVersion
1070
     0
  0
VISUALSTYLE
  5
2E
102
{ACAD_XDICTIONARY
360
2F1
102
}
102
{ACAD_REACTORS
330
29
102
}
330
29
100
AcDbVisualStyle
  2
Basic
 70
     7
 71
     1
 72
     0
 73
     1
 90
        0
 40
-0.6
 41
-30.0
 62
     5
 63
     7
 74
     0
 91
        4
 64
     7
 65
   257
 75
     1
175
     1
 42
1.0
 92
        8
 66
     7
 43
1.0
 76
     1
 77
     6
 78
     2
 67
     7
 79
     5
170
     0
171
     0
290
     0
174
     0
 93
        1
 44
0.0
173
     0
291
     1
 45
0.0
1001
ACAD
1000
AcDbSavedByObjectVersion
1070
     0
  0
VISUALSTYLE
  5
35
102
{ACAD_XDICTIONARY
360
2FF
102
}
102
{ACAD_REACTORS
330
29
102
}
330
29
100
AcDbVisualStyle
  2
Brighten
 70
    12
 71
     2
 72
     2
 73
     0
 90
        0
 40
-0.6
 41
-30.0
 62
     5
 63
     7
 74
     1
 91
        4
 64
     7
 65
   257
 75
     1
175
     1
 42
1.0
 92
        8
 66
     7
 43
1.0
 76
     1
 77
     6
 78
     2
 67
     7
 79
     5
170
     0
171
     0
290
     0
174
     0
 93
        1
 44
50.0
173
     0
291
     1
 45
0.0
1001
ACAD
1000
AcDbSavedByObjectVersion
1070
     0
  0
VISUALSTYLE
  5
39
102
{ACAD_XDICTIONARY
360
307
102
}
102
{ACAD_REACTORS
330
29
102
}
330
29
100
AcDbVisualStyle
  2
ColorChange
 70
    16
 71
     2
 72
     2
 73
     3
 90
        0
 40
-0.6
 41
-30.0
 62
     5
 63
     8
 74
     1
 91
        4
 64
     7
 65
   257
 75
     1
175
     1
 42
1.0
 92
        8
 66
     8
 43
1.0
 76
     1
 77
     6
 78
     2
 67
     7
 79
     5
170
     0
171
     0
290
     0
174
     0
 93
        1
 44
0.0
173
     0
291
     1
 45
0.0
1001
ACAD
1000
AcDbSavedByObjectVersion
1070
     0
  0
VISUALSTYLE
  5
32
102
{ACAD_XDICTIONARY
360
2F9
102
}
102
{ACAD_REACTORS
330
29
102
}
330
29
100
AcDbVisualStyle
  2
Conceptual
 70
     9
 71
     3
 72
     2
 73
     0
 90
        0
 40
-0.6
 41
-30.0
 62
     5
 63
     7
 74
     2
 91
        2
 64
     7
 65
   257
 75
     1
175
     1
 42
179.0
 92
        8
 66
     7
 43
1.0
 76
     1
 77
     6
 78
     2
 67
     7
 79
     3
170
     0
171
     0
290
     0
174
     0
 93
        1
 44
0.0
173
     0
291
     0
 45
0.0
1001
ACAD
1000
AcDbSavedByObjectVersion
1070
     0
  0
VISUALSTYLE
  5
34
102
{ACAD_XDICTIONARY
360
2FD
102
}
102
{ACAD_REACTORS
330
29
102
}
330
29
100
AcDbVisualStyle
  2
Dim
 70
    11
 71
     2
 72
     2
 73
     0
 90
        0
 40
-0.6
 41
-30.0
 62
     5
 63
     7
 74
     1
 91
        4
 64
     7
 65
   257
 75
     1
175
     1
 42
1.0
 92
        8
 66
     7
 43
1.0
 76
     1
 77
     6
 78
     2
 67
     7
 79
     5
170
     0
171
     0
290
     0
174
     0
 93
        1
 44
-50.0
173
     0
291
     1
 45
0.0
1001
ACAD
1000
AcDbSavedByObjectVersion
1070
     0
  0
VISUALSTYLE
  5
41
102
{ACAD_XDICTIONARY
360
317
102
}
102
{ACAD_REACTORS
330
29
102
}
330
29
100
AcDbVisualStyle
  2
EdgeColorOff
 70
    22
 71
     2
 72
     2
 73
     0
 90
        0
 40
-0.6
 41
-30.0
 62
     5
 63
     7
 74
     1
 91
        4
 64
     7
 65
   257
 75
     1
175
     1
 42
1.0
 92
        8
 66
     7
 43
1.0
 76
     1
 77
     6
 78
     2
 67
     7
 79
     5
170
     0
171
     0
290
     0
174
     0
 93
        1
 44
0.0
173
     0
291
     1
 45
0.0
1001
ACAD
1000
AcDbSavedByObjectVersion
1070
     0
  0
VISUALSTYLE
  5
38
102
{ACAD_XDICTIONARY
360
305
102
}
102
{ACAD_REACTORS
330
29
102
}
330
29
100
AcDbVisualStyle
  2
Facepattern
 70
    15
 71
     2
 72
     2
 73
     0
 90
        0
 40
-0.6
 41
-30.0
 62
     5
 63
     7
 74
     1
 91
        4
 64
     7
 65
   257
 75
     1
175
     1
 42
1.0
 92
        8
 66
     7
 43
1.0
 76
     1
 77
     6
 78
     2
 67
     7
 79
     5
170
     0
171
     0
290
     0
174
     0
 93
        1
 44
0.0
173
     0
291
     1
 45
0.0
1001
ACAD
1000
AcDbSavedByObjectVersion
1070
     0
  0
VISUALSTYLE
  5
2A
102
{ACAD_XDICTIONARY
360
2E9
102
}
102
{ACAD_REACTORS
330
29
102
}
330
29
100
AcDbVisualStyle
  2
Flat
 70
     0
 71
     2
 72
     1
 73
     1
 90
        2
 40
-0.6
 41
30.0
 62
     5
 63
     7
 74
     0
 91
        0
 64
     7
 65
   257
 75
     1
175
     1
 42
1.0
 92
        8
 66
     7
 43
1.0
 76
     1
 77
     6
 78
     2
 67
     7
 79
     5
170
     0
171
     0
290
     0
174
     0
 93
       13
 44
0.0
173
     0
291
     1
 45
0.0
1001
ACAD
1000
AcDbSavedByObjectVersion
1070
     0
  0
VISUALSTYLE
  5
2B
102
{ACAD_XDICTIONARY
360
2EB
102
}
102
{ACAD_REACTORS
330
29
102
}
330
29
100
AcDbVisualStyle
  2
FlatWithEdges
 70
     1
 71
     2
 72
     1
 73
     1
 90
        2
 40
-0.6
 41
30.0
 62
     5
 63
     7
 74
     1
 91
        0
 64
     7
 65
   257
 75
     1
175
     1
 42
1.0
 92
        0
 66
   257
 43
1.0
 76
     1
 77
     6
 78
     2
 67
     7
 79
     5
170
     0
171
     0
290
     0
174
     0
 93
       13
 44
0.0
173
     0
291
     1
 45
0.0
1001
ACAD
1000
AcDbSavedByObjectVersion
1070
     0
  0
VISUALSTYLE
  5
2C
102
{ACAD_XDICTIONARY
360
2ED
102
}
102
{ACAD_REACTORS
330
29
102
}
330
29
100
AcDbVisualStyle
  2
Gouraud
 70
     2
 71
     2
 72
     2
 73
     1
 90
        2
 40
-0.6
 41
30.0
 62
     5
 63
     7
 74
     0
 91
        0
 64
     7
 65
   257
 75
     1
175
     1
 42
1.0
 92
        0
 66
     7
 43
1.0
 76
     1
 77
     6
 78
     2
 67
     7
 79
     5
170
     0
171
     0
290
     0
174
     0
 93
       13
 44
0.0
173
     0
291
     1
 45
0.0
1001
ACAD
1000
AcDbSavedByObjectVersion
1070
     0
  0
VISUALSTYLE
  5
2D
102
{ACAD_XDICTIONARY
360
2EF
102
}
102
{ACAD_REACTORS
330
29
102
}
330
29
100
AcDbVisualStyle
  2
GouraudWithEdges
 70
     3
 71
     2
 72
     2
 73
     1
 90
        2
 40
-0.6
 41
30.0
 62
     5
 63
     7
 74
     1
 91
        0
 64
     7
 65
   257
 75
     1
175
     1
 42
1.0
 92
        0
 66
   257
 43
1.0
 76
     1
 77
     6
 78
     2
 67
     7
 79
     5
170
     0
171
     0
290
     0
174
     0
 93
       13
 44
0.0
173
     0
291
     1
 45
0.0
1001
ACAD
1000
AcDbSavedByObjectVersion
1070
     0
  0
VISUALSTYLE
  5
31
102
{ACAD_XDICTIONARY
360
2F7
102
}
102
{ACAD_REACTORS
330
29
102
}
330
29
100
AcDbVisualStyle
  2
Hidden
 70
     6
 71
     1
 72
     2
 73
     2
 90
        0
 40
-0.6
 41
-30.0
 62
     5
 63
     7
 74
     2
 91
        2
 64
     7
 65
   257
 75
     2
175
     1
 42
40.0
 92
        0
 66
   257
 43
1.0
 76
     1
 77
     6
 78
     2
 67
     7
 79
     3
170
     0
171
     0
290
     0
174
     0
 93
        1
 44
0.0
173
     0
291
     0
 45
0.0
1001
ACAD
1000
AcDbSavedByObjectVersion
1070
     0
  0
VISUALSTYLE
  5
3F
102
{ACAD_XDICTIONARY
360
313
102
}
102
{ACAD_REACTORS
330
29
102
}
330
29
100
AcDbVisualStyle
  2
JitterOff
 70
    20
 71
     2
 72
     2
 73
     0
 90
        0
 40
-0.6
 41
-30.0
 62
     5
 63
     7
 74
     1
 91
        4
 64
     7
 65
   257
 75
     1
175
     1
 42
1.0
 92
       10
 66
     7
 43
1.0
 76
     1
 77
     6
 78
     2
 67
     7
 79
     5
170
     0
171
     0
290
     0
174
     0
 93
        1
 44
0.0
173
     0
291
     1
 45
0.0
1001
ACAD
1000
AcDbSavedByObjectVersion
1070
     0
  0
VISUALSTYLE
  5
37
102
{ACAD_XDICTIONARY
360
303
102
}
102
{ACAD_REACTORS
330
29
102
}
330
29
100
AcDbVisualStyle
  2
Linepattern
 70
    14
 71
     2
 72
     2
 73
     0
 90
        0
 40
-0.6
 41
-30.0
 62
     5
 63
     7
 74
     1
 91
        4
 64
     7
 65
   257
 75
     7
175
     7
 42
1.0
 92
        8
 66
     7
 43
1.0
 76
     1
 77
     6
 78
     2
 67
     7
 79
     5
170
     0
171
     0
290
     0
174
     0
 93
        1
 44
0.0
173
     0
291
     1
 45
0.0
1001
ACAD
1000
AcDbSavedByObjectVersion
1070
     0
  0
VISUALSTYLE
  5
40
102
{ACAD_XDICTIONARY
360
315
102
}
102
{ACAD_REACTORS
330
29
102
}
330
29
100
AcDbVisualStyle
  2
OverhangOff
 70
    21
 71
     2
 72
     2
 73
     0
 90
        0
 40
-0.6
 41
-30.0
 62
     5
 63
     7
 74
     1
 91
        4
 64
     7
 65
   257
 75
     1
175
     1
 42
1.0
 92
        9
 66
     7
 43
1.0
 76
     1
 77
     6
 78
     2
 67
     7
 79
     5
170
     0
171
     0
290
     0
174
     0
 93
        1
 44
0.0
173
     0
291
     1
 45
0.0
1001
ACAD
1000
AcDbSavedByObjectVersion
1070
     0
  0
VISUALSTYLE
  5
33
102
{ACAD_XDICTIONARY
360
2FB
102
}
102
{ACAD_REACTORS
330
29
102
}
330
29
100
AcDbVisualStyle
  2
Realistic
 70
     8
 71
     2
 72
     3
 73
     0
 90
        2
 40
-0.6
 41
30.0
 62
     5
 63
     7
 74
     0
 91
        0
 64
     7
 65
   257
 75
     1
175
     1
 42
1.0
 92
        8
 66
   257
 43
1.0
 76
     1
 77
     6
 78
     2
 67
     7
 79
     3
170
     0
171
     0
290
     0
174
     0
 93
       13
 44
0.0
173
     0
291
     0
 45
0.0
1001
ACAD
1000
AcDbSavedByObjectVersion
1070
     0
  0
VISUALSTYLE
  5
3E
102
{ACAD_XDICTIONARY
360
311
102
}
102
{ACAD_REACTORS
330
29
102
}
330
29
100
AcDbVisualStyle
  2
Shaded
 70
    27
 71
     2
 72
     2
 73
     1
 90
        2
 40
-0.6
 41
30.0
 62
     5
 63
     7
 74
     0
 91
        4
 64
     7
 65
   257
 75
     1
175
     1
 42
1.0
 92
        8
 66
   257
 43
1.0
 76
     1
 77
     6
 78
     2
 67
     8
 79
     3
170
     0
171
     0
290
     0
174
     0
 93
        5
 44
0.0
173
     0
291
     0
 45
0.0
1001
ACAD
1000
AcDbSavedByObjectVersion
1070
     0
  0
VISUALSTYLE
  5
3D
102
{ACAD_XDICTIONARY
360
30F
102
}
102
{ACAD_REACTORS
330
29
102
}
330
29
100
AcDbVisualStyle
  2
Shaded with edges
 70
    26
 71
     2
 72
     2
 73
     1
 90
        2
 40
-0.6
 41
30.0
 62
     5
 63
     7
 74
     1
 91
       10
 64
     7
 65
   257
 75
     2
175
     1
 42
1.0
 92
        8
 66
   257
 43
1.0
 76
     1
 77
     6
 78
     2
 67
     7
 79
     3
170
     0
171
     0
290
     0
174
     0
 93
        5
 44
0.0
173
     0
291
     0
 45
0.0
1001
ACAD
1000
AcDbSavedByObjectVersion
1070
     0
  0
VISUALSTYLE
  5
3A
102
{ACAD_XDICTIONARY
360
309
102
}
102
{ACAD_REACTORS
330
29
102
}
330
29
100
AcDbVisualStyle
  2
Shades of Gray
 70
    23
 71
     2
 72
     2
 73
     3
 90
        0
 40
-0.6
 41
-30.0
 62
     5
 63
     7
 74
     2
 91
        2
 64
     7
 65
     7
 75
     1
175
     1
 42
40.0
 92
        8
 66
     7
 43
1.0
 76
     1
 77
     6
 78
     2
 67
     7
 79
     3
170
     0
171
     0
290
     0
174
     0
 93
        1
 44
0.0
173
     0
291
     0
 45
0.0
1001
ACAD
1000
AcDbSavedByObjectVersion
1070
     0
  0
VISUALSTYLE
  5
3B
102
{ACAD_XDICTIONARY
360
30B
102
}
102
{ACAD_REACTORS
330
29
102
}
330
29
100
AcDbVisualStyle
  2
Sketchy
 70
    24
 71
     1
 72
     2
 73
     2
 90
        0
 40
-0.6
 41
-30.0
 62
     5
 63
     7
 74
     2
 91
        2
 64
     7
 65
     7
 75
     1
175
     1
 42
40.0
 92
       11
 66
     7
 43
1.0
 76
     1
 77
     6
 78
     2
 67
     7
 79
     6
170
     0
171
     0
290
     0
174
     0
 93
        1
 44
0.0
173
     0
291
     0
 45
0.0
1001
ACAD
1000
AcDbSavedByObjectVersion
1070
     0
  0
VISUALSTYLE
  5
36
102
{ACAD_XDICTIONARY
360
301
102
}
102
{ACAD_REACTORS
330
29
102
}
330
29
100
AcDbVisualStyle
  2
Thicken
 70
    13
 71
     2
 72
     2
 73
     0
 90
        0
 40
-0.6
 41
-30.0
 62
     5
 63
     7
 74
     1
 91
        4
 64
     7
 65
   257
 75
     1
175
     1
 42
1.0
 92
       12
 66
     7
 43
1.0
 76
     1
 77
     6
 78
     2
 67
     7
 79
     5
170
     0
171
     0
290
     0
174
     0
 93
        1
 44
0.0
173
     0
291
     1
 45
0.0
1001
ACAD
1000
AcDbSavedByObjectVersion
1070
     0
  0
VISUALSTYLE
  5
30
102
{ACAD_XDICTIONARY
360
2F5
102
}
102
{ACAD_REACTORS
330
29
102
}
330
29
100
AcDbVisualStyle
  2
Wireframe
 70
     5
 71
     0
 72
     2
 73
     0
 90
        0
 40
-0.6
 41
-30.0
 62
     5
 63
     7
 74
     1
 91
        4
 64
     7
 65
   257
 75
     1
175
     1
 42
1.0
 92
        0
 66
   257
 43
1.0
 76
     1
 77
     6
 78
     2
 67
     7
 79
     3
170
     0
171
     0
290
     0
174
     0
 93
        1
 44
0.0
173
     0
291
     0
 45
0.0
1001
ACAD
1000
AcDbSavedByObjectVersion
1070
     0
  0
VISUALSTYLE
  5
3C
102
{ACAD_XDICTIONARY
360
30D
102
}
102
{ACAD_REACTORS
330
29
102
}
330
29
100
AcDbVisualStyle
  2
X-Ray
 70
    25
 71
     2
 72
     2
 73
     1
 90
        1
 40
0.5
 41
-30.0
 62
     5
 63
     7
 74
     1
 91
        0
 64
     7
 65
   257
 75
     1
175
     1
 42
1.0
 92
        8
 66
     7
 43
1.0
 76
     1
 77
     6
 78
     2
 67
     7
 79
     3
170
     0
171
     0
290
     0
174
     0
 93
       13
 44
0.0
173
     0
291
     0
 45
0.0
1001
ACAD
1000
AcDbSavedByObjectVersion
1070
     0
  0
DICTIONARYVAR
  5
2DC
102
{ACAD_REACTORS
330
2D7
102
}
330
2D7
100
DictionaryVariables
280
     0
  1
1:1
  0
DICTIONARYVAR
  5
2D9
102
{ACAD_REACTORS
330
2D7
102
}
330
2D7
100
DictionaryVariables
280
     0
  1
STANDARD
  0
DICTIONARYVAR
  5
2D8
102
{ACAD_REACTORS
330
2D7
102
}
330
2D7
100
DictionaryVariables
280
     0
  1
STANDARD
  0
DICTIONARYVAR
  5
2DA
102
{ACAD_REACTORS
330
2D7
102
}
330
2D7
100
DictionaryVariables
280
     0
  1
Imperial24
  0
DICTIONARYVAR
  5
2DB
102
{ACAD_REACTORS
330
2D7
102
}
330
2D7
100
DictionaryVariables
280
     0
  1
Imperial24
  0
DICTIONARYVAR
  5
2DF
102
{ACAD_REACTORS
330
2D7
102
}
330
2D7
100
DictionaryVariables
280
     0
  1
1
  0
DICTIONARYVAR
  5
2DE
102
{ACAD_REACTORS
330
2D7
102
}
330
2D7
100
DictionaryVariables
280
     0
  1
0
  0
DICTIONARYVAR
  5
2DD
102
{ACAD_REACTORS
330
2D7
102
}
330
2D7
100
DictionaryVariables
280
     0
  1
127
  0
DICTIONARYVAR
  5
2E0
102
{ACAD_REACTORS
330
2D7
102
}
330
2D7
100
DictionaryVariables
280
     0
  1
2
  0
DICTIONARY
  5
31D
330
6A
100
AcDbDictionary
280
     1
281
     1
  3
ACAD_XREC_ROUNDTRIP
360
31E
  0
DICTIONARY
  5
321
330
72
100
AcDbDictionary
280
     1
281
     1
  3
ACAD_XREC_ROUNDTRIP
360
322
  0
DICTIONARY
  5
31F
330
6E
100
AcDbDictionary
280
     1
281
     1
  3
ACAD_XREC_ROUNDTRIP
360
320
  0
DICTIONARY
  5
1A
330
19
100
AcDbDictionary
280
     1
281
     1
  3
ACAD_XREC_ROUNDTRIP
360
2E7
  3
BUMPTILE
360
1C
  3
DIFFUSETILE
360
1B
  3
OPACITYTILE
360
1F
  3
REFLECTIONTILE
360
1E
  3
REFRACTIONTILE
360
20
  3
SPECULARTILE
360
1D
  0
DICTIONARY
  5
12
330
11
100
AcDbDictionary
280
     1
281
     1
  3
ACAD_XREC_ROUNDTRIP
360
2E6
  3
BUMPTILE
360
14
  3
DIFFUSETILE
360
13
  3
OPACITYTILE
360
17
  3
REFLECTIONTILE
360
16
  3
REFRACTIONTILE
360
18
  3
SPECULARTILE
360
15
  0
DICTIONARY
  5
22
330
21
100
AcDbDictionary
280
     1
281
     1
  3
ACAD_XREC_ROUNDTRIP
360
2E8
  3
BUMPTILE
360
24
  3
DIFFUSETILE
360
23
  3
OPACITYTILE
360
27
  3
REFLECTIONTILE
360
26
  3
REFRACTIONTILE
360
28
  3
SPECULARTILE
360
25
  0
DICTIONARY
  5
31B
330
68
100
AcDbDictionary
280
     1
281
     1
  3
ACAD_XREC_ROUNDTRIP
360
31C
  0
DICTIONARY
  5
2E2
330
64
100
AcDbDictionary
280
     1
281
     1
  3
ACAD_ROUNDTRIP_2008_TABLESTYLE_CELLSTYLEMAP
360
2E3
  3
ACAD_XREC_ROUNDTRIP
360
319
  0
DICTIONARY
  5
2F3
330
2F
100
AcDbDictionary
280
     1
281
     1
  3
ACAD_XREC_ROUNDTRIP
360
2F4
  0
DICTIONARY
  5
2F1
330
2E
100
AcDbDictionary
280
     1
281
     1
  3
ACAD_XREC_ROUNDTRIP
360
2F2
  0
DICTIONARY
  5
2FF
330
35
100
AcDbDictionary
280
     1
281
     1
  3
ACAD_XREC_ROUNDTRIP
360
300
  0
DICTIONARY
  5
307
330
39
100
AcDbDictionary
280
     1
281
     1
  3
ACAD_XREC_ROUNDTRIP
360
308
  0
DICTIONARY
  5
2F9
330
32
100
AcDbDictionary
280
     1
281
     1
  3
ACAD_XREC_ROUNDTRIP
360
2FA
  0
DICTIONARY
  5
2FD
330
34
100
AcDbDictionary
280
     1
281
     1
  3
ACAD_XREC_ROUNDTRIP
360
2FE
  0
DICTIONARY
  5
317
330
41
100
AcDbDictionary
280
     1
281
     1
  3
ACAD_XREC_ROUNDTRIP
360
318
  0
DICTIONARY
  5
305
330
38
100
AcDbDictionary
280
     1
281
     1
  3
ACAD_XREC_ROUNDTRIP
360
306
  0
DICTIONARY
  5
2E9
330
2A
100
AcDbDictionary
280
     1
281
     1
  3
ACAD_XREC_ROUNDTRIP
360
2EA
  0
DICTIONARY
  5
2EB
330
2B
100
AcDbDictionary
280
     1
281
     1
  3
ACAD_XREC_ROUNDTRIP
360
2EC
  0
DICTIONARY
  5
2ED
330
2C
100
AcDbDictionary
280
     1
281
     1
  3
ACAD_XREC_ROUNDTRIP
360
2EE
  0
DICTIONARY
  5
2EF
330
2D
100
AcDbDictionary
280
     1
281
     1
  3
ACAD_XREC_ROUNDTRIP
360
2F0
  0
DICTIONARY
  5
2F7
330
31
100
AcDbDictionary
280
     1
281
     1
  3
ACAD_XREC_ROUNDTRIP
360
2F8
  0
DICTIONARY
  5
313
330
3F
100
AcDbDictionary
280
     1
281
     1
  3
ACAD_XREC_ROUNDTRIP
360
314
  0
DICTIONARY
  5
303
330
37
100
AcDbDictionary
280
     1
281
     1
  3
ACAD_XREC_ROUNDTRIP
360
304
  0
DICTIONARY
  5
315
330
40
100
AcDbDictionary
280
     1
281
     1
  3
ACAD_XREC_ROUNDTRIP
360
316
  0
DICTIONARY
  5
2FB
330
33
100
AcDbDictionary
280
     1
281
     1
  3
ACAD_XREC_ROUNDTRIP
360
2FC
  0
DICTIONARY
  5
311
330
3E
100
AcDbDictionary
280
     1
281
     1
  3
ACAD_XREC_ROUNDTRIP
360
312
  0
DICTIONARY
  5
30F
330
3D
100
AcDbDictionary
280
     1
281
     1
  3
ACAD_XREC_ROUNDTRIP
360
310
  0
DICTIONARY
  5
309
330
3A
100
AcDbDictionary
280
     1
281
     1
  3
ACAD_XREC_ROUNDTRIP
360
30A
  0
DICTIONARY
  5
30B
330
3B
100
AcDbDictionary
280
     1
281
     1
  3
ACAD_XREC_ROUNDTRIP
360
30C
  0
DICTIONARY
  5
301
330
36
100
AcDbDictionary
280
     1
281
     1
  3
ACAD_XREC_ROUNDTRIP
360
302
  0
DICTIONARY
  5
2F5
330
30
100
AcDbDictionary
280
     1
281
     1
  3
ACAD_XREC_ROUNDTRIP
360
2F6
  0
DICTIONARY
  5
30D
330
3C
100
AcDbDictionary
280
     1
281
     1
  3
ACAD_XREC_ROUNDTRIP
360
30E
  0
XRECORD
  5
31E
102
{ACAD_REACTORS
330
31D
102
}
330
31D
100
AcDbXrecord
280
     1
102
DISPLAYNAME
  1
Imperial24
102
FLAGS
 90
        0
  0
XRECORD
  5
322
102
{ACAD_REACTORS
330
321
102
}
330
321
100
AcDbXrecord
280
     1
102
SHADEPLOT
 70
     0
102
SHADEPLOTRESLEVEL
 70
     2
102
SHADEPLOTCUSTOMDPI
 70
   300
  0
XRECORD
  5
320
102
{ACAD_REACTORS
330
31F
102
}
330
31F
100
AcDbXrecord
280
     1
102
SHADEPLOT
 70
     0
102
SHADEPLOTRESLEVEL
 70
     2
102
SHADEPLOTCUSTOMDPI
 70
   300
  0
XRECORD
  5
2E7
102
{ACAD_REACTORS
330
1A
102
}
330
1A
100
AcDbXrecord
280
     1
102
MATERIAL
148
0.0
149
0.0
149
0.0
 93
        0
 94
      127
282
     0
 72
     0
 77
     0
171
     0
175
     0
179
     0
273
     0
  0
XRECORD
  5
1C
102
{ACAD_REACTORS
330
1A
102
}
330
1A
100
AcDbXrecord
280
     1
270
     1
271
     1
  0
XRECORD
  5
1B
102
{ACAD_REACTORS
330
1A
102
}
330
1A
100
AcDbXrecord
280
     1
270
     1
271
     1
  0
XRECORD
  5
1F
102
{ACAD_REACTORS
330
1A
102
}
330
1A
100
AcDbXrecord
280
     1
270
     1
271
     1
  0
XRECORD
  5
1E
102
{ACAD_REACTORS
330
1A
102
}
330
1A
100
AcDbXrecord
280
     1
270
     1
271
     1
  0
XRECORD
  5
20
102
{ACAD_REACTORS
330
1A
102
}
330
1A
100
AcDbXrecord
280
     1
270
     1
271
     1
  0
XRECORD
  5
1D
102
{ACAD_REACTORS
330
1A
102
}
330
1A
100
AcDbXrecord
280
     1
270
     1
271
     1
  0
XRECORD
  5
2E6
102
{ACAD_REACTORS
330
12
102
}
330
12
100
AcDbXrecord
280
     1
102
MATERIAL
148
0.0
149
0.0
149
0.0
 93
        0
 94
      127
282
     0
 72
     0
 77
     0
171
     0
175
     0
179
     0
273
     0
  0
XRECORD
  5
14
102
{ACAD_REACTORS
330
12
102
}
330
12
100
AcDbXrecord
280
     1
270
     1
271
     1
  0
XRECORD
  5
13
102
{ACAD_REACTORS
330
12
102
}
330
12
100
AcDbXrecord
280
     1
270
     1
271
     1
  0
XRECORD
  5
17
102
{ACAD_REACTORS
330
12
102
}
330
12
100
AcDbXrecord
280
     1
270
     1
271
     1
  0
XRECORD
  5
16
102
{ACAD_REACTORS
330
12
102
}
330
12
100
AcDbXrecord
280
     1
270
     1
271
     1
  0
XRECORD
  5
18
102
{ACAD_REACTORS
330
12
102
}
330
12
100
AcDbXrecord
280
     1
270
     1
271
     1
  0
XRECORD
  5
15
102
{ACAD_REACTORS
330
12
102
}
330
12
100
AcDbXrecord
280
     1
270
     1
271
     1
  0
XRECORD
  5
2E8
102
{ACAD_REACTORS
330
22
102
}
330
22
100
AcDbXrecord
280
     1
102
MATERIAL
148
0.0
149
0.0
149
0.0
 93
        0
 94
      127
282
     0
 72
     0
 77
     0
171
     0
175
     0
179
     0
273
     0
  0
XRECORD
  5
24
102
{ACAD_REACTORS
330
22
102
}
330
22
100
AcDbXrecord
280
     1
270
     1
271
     1
  0
XRECORD
  5
23
102
{ACAD_REACTORS
330
22
102
}
330
22
100
AcDbXrecord
280
     1
270
     1
271
     1
  0
XRECORD
  5
27
102
{ACAD_REACTORS
330
22
102
}
330
22
100
AcDbXrecord
280
     1
270
     1
271
     1
  0
XRECORD
  5
26
102
{ACAD_REACTORS
330
22
102
}
330
22
100
AcDbXrecord
280
     1
270
     1
271
     1
  0
XRECORD
  5
28
102
{ACAD_REACTORS
330
22
102
}
330
22
100
AcDbXrecord
280
     1
270
     1
271
     1
  0
XRECORD
  5
25
102
{ACAD_REACTORS
330
22
102
}
330
22
100
AcDbXrecord
280
     1
270
     1
271
     1
  0
XRECORD
  5
31C
102
{ACAD_REACTORS
330
31B
102
}
330
31B
100
AcDbXrecord
280
     1
102
DISPLAYNAME
  1
Imperial24
102
FLAGS
 90
        0
  0
CELLSTYLEMAP
  5
2E3
102
{ACAD_REACTORS
330
2E2
102
}
330
2E2
100
AcDbCellStyleMap
 90
        3
300
CELLSTYLE
  1
TABLEFORMAT_BEGIN
 90
        5
170
     1
 91
        0
 92
    32768
 62
   257
 93
        1
300
CONTENTFORMAT
  1
CONTENTFORMAT_BEGIN
 90
        0
 91
        0
 92
      512
 93
        0
300

 40
0.0
140
1.0
 94
        5
 62
     0
340
55
144
0.25
309
CONTENTFORMAT_END
171
     0
 94
        0
309
TABLEFORMAT_END
  1
CELLSTYLE_BEGIN
 90
        1
 91
        1
300
_TITLE
309
CELLSTYLE_END
300
CELLSTYLE
  1
TABLEFORMAT_BEGIN
 90
        5
170
     1
 91
        0
 92
        0
 62
   257
 93
        1
300
CONTENTFORMAT
  1
CONTENTFORMAT_BEGIN
 90
        0
 91
        0
 92
      512
 93
        0
300

 40
0.0
140
1.0
 94
        5
 62
     0
340
55
144
0.18
309
CONTENTFORMAT_END
171
     0
 94
        0
309
TABLEFORMAT_END
  1
CELLSTYLE_BEGIN
 90
        2
 91
        1
300
_HEADER
309
CELLSTYLE_END
300
CELLSTYLE
  1
TABLEFORMAT_BEGIN
 90
        5
170
     1
 91
        0
 92
        0
 62
   257
 93
        1
300
CONTENTFORMAT
  1
CONTENTFORMAT_BEGIN
 90
        0
 91
        0
 92
      512
 93
        0
300

 40
0.0
140
1.0
 94
        2
 62
     0
340
55
144
0.18
309
CONTENTFORMAT_END
171
     0
 94
        0
309
TABLEFORMAT_END
  1
CELLSTYLE_BEGIN
 90
        3
 91
        2
300
_DATA
309
CELLSTYLE_END
  0
XRECORD
  5
319
102
{ACAD_REACTORS
330
2E2
102
}
330
2E2
100
AcDbXrecord
280
     1
102
ACAD_ROUNDTRIP_PRE2007_TABLESTYLE
 90
      512
 91
        0
  1

 92
      512
 93
        0
  2

 94
      512
 95
        0
  3

  0
XRECORD
  5
2F4
102
{ACAD_REACTORS
330
2F3
102
}
330
2F3
100
AcDbXrecord
280
     1
102
RTVSPost2010Prop28
280
     1
102
RTVSPost2010PropOp28
 70
     1
102
RTVSPost2010Prop29
280
     1
102
RTVSPost2010PropOp29
 70
     1
102
RTVSPost2010Prop30
280
     0
102
RTVSPost2010PropOp30
 70
     1
102
RTVSPost2010Prop31
280
     0
102
RTVSPost2010PropOp31
 70
     1
102
RTVSPost2010Prop32
280
     0
102
RTVSPost2010PropOp32
 70
     1
102
RTVSPost2010Prop33
280
     0
102
RTVSPost2010PropOp33
 70
     1
102
RTVSPost2010Prop34
280
     0
102
RTVSPost2010PropOp34
 70
     1
102
RTVSPost2010Prop35
280
     0
102
RTVSPost2010PropOp35
 70
     1
102
RTVSPost2010Prop36
280
     0
102
RTVSPost2010PropOp36
 70
     1
102
RTVSPost2010Prop37
 90
       50
102
RTVSPost2010PropOp37
 70
     1
102
RTVSPost2010Prop38
140
0.0
102
RTVSPost2010PropOp38
 70
     1
102
RTVSPost2010Prop39
140
1.0
102
RTVSPost2010PropOp39
 70
     1
102
RTVSPost2010Prop40
 90
        0
102
RTVSPost2010PropOp40
 70
     1
102
RTVSPost2010Prop41ColorIndex
 90
       18
102
RTVSPost2010Prop41ColorRGB
 90
        0
102
RTVSPost2010PropOp41
 70
     1
102
RTVSPost2010Prop42
 90
       50
102
RTVSPost2010PropOp42
 70
     1
102
RTVSPost2010Prop43
 90
        3
102
RTVSPost2010PropOp43
 70
     1
102
RTVSPost2010Prop44ColorIndex
 90
        5
102
RTVSPost2010Prop44ColorRGB
 90
      255
102
RTVSPost2010PropOp44
 70
     1
102
RTVSPost2010Prop45
280
     0
102
RTVSPost2010PropOp45
 70
     1
102
RTVSPost2010Prop46
 90
       50
102
RTVSPost2010PropOp46
 70
     1
102
RTVSPost2010Prop47
 90
       50
102
RTVSPost2010PropOp47
 70
     1
102
RTVSPost2010Prop48
 90
       50
102
RTVSPost2010PropOp48
 70
     1
102
RTVSPost2010Prop49
280
     0
102
RTVSPost2010PropOp49
 70
     1
102
RTVSPost2010Prop50
 90
       50
102
RTVSPost2010PropOp50
 70
     1
102
RTVSPost2010Prop51ColorIndex
 90
      256
102
RTVSPost2010Prop51ColorRGB
 90
-16777216
102
RTVSPost2010PropOp51
 70
     0
102
RTVSPost2010Prop52
140
1.0
102
RTVSPost2010PropOp52
 70
     0
102
RTVSPost2010Prop53
 90
        2
102
RTVSPost2010PropOp53
 70
     1
102
RTVSPost2010Prop54
  1
strokes_ogs.tif
102
RTVSPost2010PropOp54
 70
     1
102
RTVSPost2010Prop55
280
     0
102
RTVSPost2010PropOp55
 70
     1
102
RTVSPost2010Prop56
140
1.0
102
RTVSPost2010PropOp56
 70
     1
102
RTVSPost2010Prop57
140
1.0
102
RTVSPost2010PropOp57
 70
     1
102
RTVSPropertyOp0
 70
     1
102
RTVSPropertyOp1
 70
     1
102
RTVSPropertyOp2
 70
     1
102
RTVSPropertyOp3
 70
     1
102
RTVSPropertyOp4
 70
     1
102
RTVSPropertyOp5
 70
     1
102
RTVSPropertyOp6
 70
     1
102
RTVSPropertyOp7
 70
     1
102
RTVSPropertyOp8
 70
     1
102
RTVSPropertyOp9
 70
     1
102
RTVSPropertyOp10
 70
     1
102
RTVSPropertyOp11
 70
     1
102
RTVSPropertyOp12
 70
     1
102
RTVSPropertyOp13
 70
     1
102
RTVSPropertyOp14
 70
     1
102
RTVSPropertyOp15
 70
     1
102
RTVSPropertyOp16
 70
     1
102
RTVSPropertyOp17
 70
     1
102
RTVSPropertyOp18
 70
     1
102
RTVSPropertyOp19
 70
     1
102
RTVSPropertyOp20
 70
     1
102
RTVSPropertyOp21
 70
     1
102
RTVSPropertyOp22
 70
     1
102
RTVSPropertyOp23
 70
     1
102
RTVSPropertyOp24
 70
     1
102
RTVSPropertyOp25
 70
     1
102
RTVSPropertyOp26
 70
     1
102
RTVSPropertyOp27
 70
     1
102
RTVSPropertyOp28
 70
     1
102
RTVSPropertyOp29
 70
     1
102
RTVSPropertyOp30
 70
     1
102
RTVSPropertyOp31
 70
     1
102
RTVSPropertyOp32
 70
     1
102
RTVSPropertyOp33
 70
     1
102
RTVSPropertyOp34
 70
     1
102
RTVSPropertyOp35
 70
     1
102
RTVSPropertyOp36
 70
     1
102
RTVSPropertyOp37
 70
     1
102
RTVSPropertyOp38
 70
     1
102
RTVSPropertyOp39
 70
     1
102
RTVSPropertyOp40
 70
     1
102
RTVSPropertyOp41
 70
     1
102
RTVSPropertyOp42
 70
     1
102
RTVSPropertyOp43
 70
     1
102
RTVSPropertyOp44
 70
     1
102
RTVSPropertyOp45
 70
     1
102
RTVSPropertyOp46
 70
     1
102
RTVSPropertyOp47
 70
     1
102
RTVSPropertyOp48
 70
     1
102
RTVSPropertyOp49
 70
     1
102
RTVSPropertyOp50
 70
     1
102
RTVSPropertyOp51
 70
     0
102
RTVSPropertyOp52
 70
     0
102
RTVSPropertyOp53
 70
     1
102
RTVSPropertyOp54
 70
     1
102
RTVSPropertyOp55
 70
     1
102
RTVSPropertyOp56
 70
     1
102
RTVSPropertyOp57
 70
     1
102
RTVSPropertyOp58
 70
     1
102
RTVSPropertyOp59
 70
     1
102
RTVSPropertyOp60
 70
     1
102
RTVSPropertyOp61
 70
     1
102
RTVSPropertyOp62
 70
     1
  0
XRECORD
  5
2F2
102
{ACAD_REACTORS
330
2F1
102
}
330
2F1
100
AcDbXrecord
280
     1
102
RTVSPost2010Prop28
280
     0
102
RTVSPost2010PropOp28
 70
     1
102
RTVSPost2010Prop29
280
     1
102
RTVSPost2010PropOp29
 70
     1
102
RTVSPost2010Prop30
280
     1
102
RTVSPost2010PropOp30
 70
     1
102
RTVSPost2010Prop31
280
     0
102
RTVSPost2010PropOp31
 70
     1
102
RTVSPost2010Prop32
280
     0
102
RTVSPost2010PropOp32
 70
     1
102
RTVSPost2010Prop33
280
     0
102
RTVSPost2010PropOp33
 70
     1
102
RTVSPost2010Prop34
280
     0
102
RTVSPost2010PropOp34
 70
     1
102
RTVSPost2010Prop35
280
     0
102
RTVSPost2010PropOp35
 70
     1
102
RTVSPost2010Prop36
280
     0
102
RTVSPost2010PropOp36
 70
     1
102
RTVSPost2010Prop37
 90
       50
102
RTVSPost2010PropOp37
 70
     1
102
RTVSPost2010Prop38
140
0.0
102
RTVSPost2010PropOp38
 70
     1
102
RTVSPost2010Prop39
140
1.0
102
RTVSPost2010PropOp39
 70
     1
102
RTVSPost2010Prop40
 90
        0
102
RTVSPost2010PropOp40
 70
     1
102
RTVSPost2010Prop41ColorIndex
 90
       18
102
RTVSPost2010Prop41ColorRGB
 90
        0
102
RTVSPost2010PropOp41
 70
     1
102
RTVSPost2010Prop42
 90
       50
102
RTVSPost2010PropOp42
 70
     1
102
RTVSPost2010Prop43
 90
        3
102
RTVSPost2010PropOp43
 70
     1
102
RTVSPost2010Prop44ColorIndex
 90
        5
102
RTVSPost2010Prop44ColorRGB
 90
      255
102
RTVSPost2010PropOp44
 70
     1
102
RTVSPost2010Prop45
280
     0
102
RTVSPost2010PropOp45
 70
     1
102
RTVSPost2010Prop46
 90
       50
102
RTVSPost2010PropOp46
 70
     1
102
RTVSPost2010Prop47
 90
       50
102
RTVSPost2010PropOp47
 70
     1
102
RTVSPost2010Prop48
 90
       50
102
RTVSPost2010PropOp48
 70
     1
102
RTVSPost2010Prop49
280
     0
102
RTVSPost2010PropOp49
 70
     1
102
RTVSPost2010Prop50
 90
       50
102
RTVSPost2010PropOp50
 70
     1
102
RTVSPost2010Prop51ColorIndex
 90
      256
102
RTVSPost2010Prop51ColorRGB
 90
-16777216
102
RTVSPost2010PropOp51
 70
     0
102
RTVSPost2010Prop52
140
1.0
102
RTVSPost2010PropOp52
 70
     0
102
RTVSPost2010Prop53
 90
        2
102
RTVSPost2010PropOp53
 70
     1
102
RTVSPost2010Prop54
  1
strokes_ogs.tif
102
RTVSPost2010PropOp54
 70
     1
102
RTVSPost2010Prop55
280
     0
102
RTVSPost2010PropOp55
 70
     1
102
RTVSPost2010Prop56
140
1.0
102
RTVSPost2010PropOp56
 70
     1
102
RTVSPost2010Prop57
140
1.0
102
RTVSPost2010PropOp57
 70
     1
102
RTVSPropertyOp0
 70
     1
102
RTVSPropertyOp1
 70
     1
102
RTVSPropertyOp2
 70
     1
102
RTVSPropertyOp3
 70
     1
102
RTVSPropertyOp4
 70
     1
102
RTVSPropertyOp5
 70
     1
102
RTVSPropertyOp6
 70
     1
102
RTVSPropertyOp7
 70
     1
102
RTVSPropertyOp8
 70
     1
102
RTVSPropertyOp9
 70
     1
102
RTVSPropertyOp10
 70
     1
102
RTVSPropertyOp11
 70
     1
102
RTVSPropertyOp12
 70
     1
102
RTVSPropertyOp13
 70
     1
102
RTVSPropertyOp14
 70
     1
102
RTVSPropertyOp15
 70
     1
102
RTVSPropertyOp16
 70
     1
102
RTVSPropertyOp17
 70
     1
102
RTVSPropertyOp18
 70
     1
102
RTVSPropertyOp19
 70
     1
102
RTVSPropertyOp20
 70
     1
102
RTVSPropertyOp21
 70
     1
102
RTVSPropertyOp22
 70
     1
102
RTVSPropertyOp23
 70
     1
102
RTVSPropertyOp24
 70
     1
102
RTVSPropertyOp25
 70
     1
102
RTVSPropertyOp26
 70
     1
102
RTVSPropertyOp27
 70
     1
102
RTVSPropertyOp28
 70
     1
102
RTVSPropertyOp29
 70
     1
102
RTVSPropertyOp30
 70
     1
102
RTVSPropertyOp31
 70
     1
102
RTVSPropertyOp32
 70
     1
102
RTVSPropertyOp33
 70
     1
102
RTVSPropertyOp34
 70
     1
102
RTVSPropertyOp35
 70
     1
102
RTVSPropertyOp36
 70
     1
102
RTVSPropertyOp37
 70
     1
102
RTVSPropertyOp38
 70
     1
102
RTVSPropertyOp39
 70
     1
102
RTVSPropertyOp40
 70
     1
102
RTVSPropertyOp41
 70
     1
102
RTVSPropertyOp42
 70
     1
102
RTVSPropertyOp43
 70
     1
102
RTVSPropertyOp44
 70
     1
102
RTVSPropertyOp45
 70
     1
102
RTVSPropertyOp46
 70
     1
102
RTVSPropertyOp47
 70
     1
102
RTVSPropertyOp48
 70
     1
102
RTVSPropertyOp49
 70
     1
102
RTVSPropertyOp50
 70
     1
102
RTVSPropertyOp51
 70
     0
102
RTVSPropertyOp52
 70
     0
102
RTVSPropertyOp53
 70
     1
102
RTVSPropertyOp54
 70
     1
102
RTVSPropertyOp55
 70
     1
102
RTVSPropertyOp56
 70
     1
102
RTVSPropertyOp57
 70
     1
102
RTVSPropertyOp58
 70
     1
102
RTVSPropertyOp59
 70
     1
102
RTVSPropertyOp60
 70
     1
102
RTVSPropertyOp61
 70
     1
102
RTVSPropertyOp62
 70
     1
  0
XRECORD
  5
300
102
{ACAD_REACTORS
330
2FF
102
}
330
2FF
100
AcDbXrecord
280
     1
102
RTVSPost2010Prop28
280
     0
102
RTVSPost2010PropOp28
 70
     1
102
RTVSPost2010Prop29
280
     1
102
RTVSPost2010PropOp29
 70
     1
102
RTVSPost2010Prop30
280
     1
102
RTVSPost2010PropOp30
 70
     1
102
RTVSPost2010Prop31
280
     0
102
RTVSPost2010PropOp31
 70
     1
102
RTVSPost2010Prop32
280
     0
102
RTVSPost2010PropOp32
 70
     1
102
RTVSPost2010Prop33
280
     0
102
RTVSPost2010PropOp33
 70
     1
102
RTVSPost2010Prop34
280
     0
102
RTVSPost2010PropOp34
 70
     1
102
RTVSPost2010Prop35
280
     0
102
RTVSPost2010PropOp35
 70
     1
102
RTVSPost2010Prop36
280
     0
102
RTVSPost2010PropOp36
 70
     1
102
RTVSPost2010Prop37
 90
       50
102
RTVSPost2010PropOp37
 70
     1
102
RTVSPost2010Prop38
140
0.0
102
RTVSPost2010PropOp38
 70
     1
102
RTVSPost2010Prop39
140
1.0
102
RTVSPost2010PropOp39
 70
     1
102
RTVSPost2010Prop40
 90
        0
102
RTVSPost2010PropOp40
 70
     1
102
RTVSPost2010Prop41ColorIndex
 90
       18
102
RTVSPost2010Prop41ColorRGB
 90
        0
102
RTVSPost2010PropOp41
 70
     1
102
RTVSPost2010Prop42
 90
       50
102
RTVSPost2010PropOp42
 70
     1
102
RTVSPost2010Prop43
 90
        3
102
RTVSPost2010PropOp43
 70
     1
102
RTVSPost2010Prop44ColorIndex
 90
        5
102
RTVSPost2010Prop44ColorRGB
 90
      255
102
RTVSPost2010PropOp44
 70
     1
102
RTVSPost2010Prop45
280
     0
102
RTVSPost2010PropOp45
 70
     1
102
RTVSPost2010Prop46
 90
       50
102
RTVSPost2010PropOp46
 70
     1
102
RTVSPost2010Prop47
 90
       50
102
RTVSPost2010PropOp47
 70
     1
102
RTVSPost2010Prop48
 90
       50
102
RTVSPost2010PropOp48
 70
     1
102
RTVSPost2010Prop49
280
     0
102
RTVSPost2010PropOp49
 70
     1
102
RTVSPost2010Prop50
 90
       50
102
RTVSPost2010PropOp50
 70
     1
102
RTVSPost2010Prop51ColorIndex
 90
      256
102
RTVSPost2010Prop51ColorRGB
 90
-16777216
102
RTVSPost2010PropOp51
 70
     0
102
RTVSPost2010Prop52
140
1.0
102
RTVSPost2010PropOp52
 70
     0
102
RTVSPost2010Prop53
 90
        2
102
RTVSPost2010PropOp53
 70
     1
102
RTVSPost2010Prop54
  1
strokes_ogs.tif
102
RTVSPost2010PropOp54
 70
     1
102
RTVSPost2010Prop55
280
     0
102
RTVSPost2010PropOp55
 70
     1
102
RTVSPost2010Prop56
140
1.0
102
RTVSPost2010PropOp56
 70
     1
102
RTVSPost2010Prop57
140
1.0
102
RTVSPost2010PropOp57
 70
     1
102
RTVSPropertyOp0
 70
     1
102
RTVSPropertyOp1
 70
     1
102
RTVSPropertyOp2
 70
     1
102
RTVSPropertyOp3
 70
     1
102
RTVSPropertyOp4
 70
     1
102
RTVSPropertyOp5
 70
     1
102
RTVSPropertyOp6
 70
     1
102
RTVSPropertyOp7
 70
     1
102
RTVSPropertyOp8
 70
     1
102
RTVSPropertyOp9
 70
     1
102
RTVSPropertyOp10
 70
     1
102
RTVSPropertyOp11
 70
     1
102
RTVSPropertyOp12
 70
     1
102
RTVSPropertyOp13
 70
     1
102
RTVSPropertyOp14
 70
     1
102
RTVSPropertyOp15
 70
     1
102
RTVSPropertyOp16
 70
     1
102
RTVSPropertyOp17
 70
     1
102
RTVSPropertyOp18
 70
     1
102
RTVSPropertyOp19
 70
     1
102
RTVSPropertyOp20
 70
     1
102
RTVSPropertyOp21
 70
     1
102
RTVSPropertyOp22
 70
     1
102
RTVSPropertyOp23
 70
     1
102
RTVSPropertyOp24
 70
     1
102
RTVSPropertyOp25
 70
     1
102
RTVSPropertyOp26
 70
     1
102
RTVSPropertyOp27
 70
     1
102
RTVSPropertyOp28
 70
     1
102
RTVSPropertyOp29
 70
     1
102
RTVSPropertyOp30
 70
     1
102
RTVSPropertyOp31
 70
     1
102
RTVSPropertyOp32
 70
     1
102
RTVSPropertyOp33
 70
     1
102
RTVSPropertyOp34
 70
     1
102
RTVSPropertyOp35
 70
     1
102
RTVSPropertyOp36
 70
     1
102
RTVSPropertyOp37
 70
     1
102
RTVSPropertyOp38
 70
     1
102
RTVSPropertyOp39
 70
     1
102
RTVSPropertyOp40
 70
     1
102
RTVSPropertyOp41
 70
     1
102
RTVSPropertyOp42
 70
     1
102
RTVSPropertyOp43
 70
     1
102
RTVSPropertyOp44
 70
     1
102
RTVSPropertyOp45
 70
     1
102
RTVSPropertyOp46
 70
     1
102
RTVSPropertyOp47
 70
     1
102
RTVSPropertyOp48
 70
     1
102
RTVSPropertyOp49
 70
     1
102
RTVSPropertyOp50
 70
     1
102
RTVSPropertyOp51
 70
     0
102
RTVSPropertyOp52
 70
     0
102
RTVSPropertyOp53
 70
     1
102
RTVSPropertyOp54
 70
     1
102
RTVSPropertyOp55
 70
     1
102
RTVSPropertyOp56
 70
     1
102
RTVSPropertyOp57
 70
     1
102
RTVSPropertyOp58
 70
     1
102
RTVSPropertyOp59
 70
     1
102
RTVSPropertyOp60
 70
     1
102
RTVSPropertyOp61
 70
     1
102
RTVSPropertyOp62
 70
     1
  0
XRECORD
  5
308
102
{ACAD_REACTORS
330
307
102
}
330
307
100
AcDbXrecord
280
     1
102
RTVSPost2010Prop28
280
     0
102
RTVSPost2010PropOp28
 70
     1
102
RTVSPost2010Prop29
280
     1
102
RTVSPost2010PropOp29
 70
     1
102
RTVSPost2010Prop30
280
     1
102
RTVSPost2010PropOp30
 70
     1
102
RTVSPost2010Prop31
280
     0
102
RTVSPost2010PropOp31
 70
     1
102
RTVSPost2010Prop32
280
     0
102
RTVSPost2010PropOp32
 70
     1
102
RTVSPost2010Prop33
280
     0
102
RTVSPost2010PropOp33
 70
     1
102
RTVSPost2010Prop34
280
     0
102
RTVSPost2010PropOp34
 70
     1
102
RTVSPost2010Prop35
280
     0
102
RTVSPost2010PropOp35
 70
     1
102
RTVSPost2010Prop36
280
     0
102
RTVSPost2010PropOp36
 70
     1
102
RTVSPost2010Prop37
 90
       50
102
RTVSPost2010PropOp37
 70
     1
102
RTVSPost2010Prop38
140
0.0
102
RTVSPost2010PropOp38
 70
     1
102
RTVSPost2010Prop39
140
1.0
102
RTVSPost2010PropOp39
 70
     1
102
RTVSPost2010Prop40
 90
        0
102
RTVSPost2010PropOp40
 70
     1
102
RTVSPost2010Prop41ColorIndex
 90
       18
102
RTVSPost2010Prop41ColorRGB
 90
        0
102
RTVSPost2010PropOp41
 70
     1
102
RTVSPost2010Prop42
 90
       50
102
RTVSPost2010PropOp42
 70
     1
102
RTVSPost2010Prop43
 90
        3
102
RTVSPost2010PropOp43
 70
     1
102
RTVSPost2010Prop44ColorIndex
 90
        5
102
RTVSPost2010Prop44ColorRGB
 90
      255
102
RTVSPost2010PropOp44
 70
     1
102
RTVSPost2010Prop45
280
     0
102
RTVSPost2010PropOp45
 70
     1
102
RTVSPost2010Prop46
 90
       50
102
RTVSPost2010PropOp46
 70
     1
102
RTVSPost2010Prop47
 90
       50
102
RTVSPost2010PropOp47
 70
     1
102
RTVSPost2010Prop48
 90
       50
102
RTVSPost2010PropOp48
 70
     1
102
RTVSPost2010Prop49
280
     0
102
RTVSPost2010PropOp49
 70
     1
102
RTVSPost2010Prop50
 90
       50
102
RTVSPost2010PropOp50
 70
     1
102
RTVSPost2010Prop51ColorIndex
 90
      256
102
RTVSPost2010Prop51ColorRGB
 90
-16777216
102
RTVSPost2010PropOp51
 70
     0
102
RTVSPost2010Prop52
140
1.0
102
RTVSPost2010PropOp52
 70
     0
102
RTVSPost2010Prop53
 90
        2
102
RTVSPost2010PropOp53
 70
     1
102
RTVSPost2010Prop54
  1
strokes_ogs.tif
102
RTVSPost2010PropOp54
 70
     1
102
RTVSPost2010Prop55
280
     0
102
RTVSPost2010PropOp55
 70
     1
102
RTVSPost2010Prop56
140
1.0
102
RTVSPost2010PropOp56
 70
     1
102
RTVSPost2010Prop57
140
1.0
102
RTVSPost2010PropOp57
 70
     1
102
RTVSPropertyOp0
 70
     1
102
RTVSPropertyOp1
 70
     1
102
RTVSPropertyOp2
 70
     1
102
RTVSPropertyOp3
 70
     1
102
RTVSPropertyOp4
 70
     1
102
RTVSPropertyOp5
 70
     1
102
RTVSPropertyOp6
 70
     1
102
RTVSPropertyOp7
 70
     1
102
RTVSPropertyOp8
 70
     1
102
RTVSPropertyOp9
 70
     1
102
RTVSPropertyOp10
 70
     1
102
RTVSPropertyOp11
 70
     1
102
RTVSPropertyOp12
 70
     1
102
RTVSPropertyOp13
 70
     1
102
RTVSPropertyOp14
 70
     1
102
RTVSPropertyOp15
 70
     1
102
RTVSPropertyOp16
 70
     1
102
RTVSPropertyOp17
 70
     1
102
RTVSPropertyOp18
 70
     1
102
RTVSPropertyOp19
 70
     1
102
RTVSPropertyOp20
 70
     1
102
RTVSPropertyOp21
 70
     1
102
RTVSPropertyOp22
 70
     1
102
RTVSPropertyOp23
 70
     1
102
RTVSPropertyOp24
 70
     1
102
RTVSPropertyOp25
 70
     1
102
RTVSPropertyOp26
 70
     1
102
RTVSPropertyOp27
 70
     1
102
RTVSPropertyOp28
 70
     1
102
RTVSPropertyOp29
 70
     1
102
RTVSPropertyOp30
 70
     1
102
RTVSPropertyOp31
 70
     1
102
RTVSPropertyOp32
 70
     1
102
RTVSPropertyOp33
 70
     1
102
RTVSPropertyOp34
 70
     1
102
RTVSPropertyOp35
 70
     1
102
RTVSPropertyOp36
 70
     1
102
RTVSPropertyOp37
 70
     1
102
RTVSPropertyOp38
 70
     1
102
RTVSPropertyOp39
 70
     1
102
RTVSPropertyOp40
 70
     1
102
RTVSPropertyOp41
 70
     1
102
RTVSPropertyOp42
 70
     1
102
RTVSPropertyOp43
 70
     1
102
RTVSPropertyOp44
 70
     1
102
RTVSPropertyOp45
 70
     1
102
RTVSPropertyOp46
 70
     1
102
RTVSPropertyOp47
 70
     1
102
RTVSPropertyOp48
 70
     1
102
RTVSPropertyOp49
 70
     1
102
RTVSPropertyOp50
 70
     1
102
RTVSPropertyOp51
 70
     0
102
RTVSPropertyOp52
 70
     0
102
RTVSPropertyOp53
 70
     1
102
RTVSPropertyOp54
 70
     1
102
RTVSPropertyOp55
 70
     1
102
RTVSPropertyOp56
 70
     1
102
RTVSPropertyOp57
 70
     1
102
RTVSPropertyOp58
 70
     1
102
RTVSPropertyOp59
 70
     1
102
RTVSPropertyOp60
 70
     1
102
RTVSPropertyOp61
 70
     1
102
RTVSPropertyOp62
 70
     1
  0
XRECORD
  5
2FA
102
{ACAD_REACTORS
330
2F9
102
}
330
2F9
100
AcDbXrecord
280
     1
102
RTVSPost2010Prop28
280
     0
102
RTVSPost2010PropOp28
 70
     1
102
RTVSPost2010Prop29
280
     1
102
RTVSPost2010PropOp29
 70
     1
102
RTVSPost2010Prop30
280
     1
102
RTVSPost2010PropOp30
 70
     1
102
RTVSPost2010Prop31
280
     0
102
RTVSPost2010PropOp31
 70
     1
102
RTVSPost2010Prop32
280
     0
102
RTVSPost2010PropOp32
 70
     1
102
RTVSPost2010Prop33
280
     0
102
RTVSPost2010PropOp33
 70
     1
102
RTVSPost2010Prop34
280
     0
102
RTVSPost2010PropOp34
 70
     1
102
RTVSPost2010Prop35
280
     0
102
RTVSPost2010PropOp35
 70
     1
102
RTVSPost2010Prop36
280
     0
102
RTVSPost2010PropOp36
 70
     1
102
RTVSPost2010Prop37
 90
       50
102
RTVSPost2010PropOp37
 70
     1
102
RTVSPost2010Prop38
140
0.0
102
RTVSPost2010PropOp38
 70
     1
102
RTVSPost2010Prop39
140
1.0
102
RTVSPost2010PropOp39
 70
     1
102
RTVSPost2010Prop40
 90
        0
102
RTVSPost2010PropOp40
 70
     1
102
RTVSPost2010Prop41ColorIndex
 90
       18
102
RTVSPost2010Prop41ColorRGB
 90
        0
102
RTVSPost2010PropOp41
 70
     1
102
RTVSPost2010Prop42
 90
       50
102
RTVSPost2010PropOp42
 70
     1
102
RTVSPost2010Prop43
 90
        3
102
RTVSPost2010PropOp43
 70
     1
102
RTVSPost2010Prop44ColorIndex
 90
        5
102
RTVSPost2010Prop44ColorRGB
 90
      255
102
RTVSPost2010PropOp44
 70
     1
102
RTVSPost2010Prop45
280
     0
102
RTVSPost2010PropOp45
 70
     1
102
RTVSPost2010Prop46
 90
       50
102
RTVSPost2010PropOp46
 70
     1
102
RTVSPost2010Prop47
 90
       50
102
RTVSPost2010PropOp47
 70
     1
102
RTVSPost2010Prop48
 90
       50
102
RTVSPost2010PropOp48
 70
     1
102
RTVSPost2010Prop49
280
     0
102
RTVSPost2010PropOp49
 70
     1
102
RTVSPost2010Prop50
 90
       50
102
RTVSPost2010PropOp50
 70
     1
102
RTVSPost2010Prop51ColorIndex
 90
      256
102
RTVSPost2010Prop51ColorRGB
 90
-16777216
102
RTVSPost2010PropOp51
 70
     0
102
RTVSPost2010Prop52
140
1.0
102
RTVSPost2010PropOp52
 70
     0
102
RTVSPost2010Prop53
 90
        2
102
RTVSPost2010PropOp53
 70
     1
102
RTVSPost2010Prop54
  1
strokes_ogs.tif
102
RTVSPost2010PropOp54
 70
     1
102
RTVSPost2010Prop55
280
     0
102
RTVSPost2010PropOp55
 70
     1
102
RTVSPost2010Prop56
140
1.0
102
RTVSPost2010PropOp56
 70
     1
102
RTVSPost2010Prop57
140
1.0
102
RTVSPost2010PropOp57
 70
     1
102
RTVSPropertyOp0
 70
     1
102
RTVSPropertyOp1
 70
     1
102
RTVSPropertyOp2
 70
     1
102
RTVSPropertyOp3
 70
     1
102
RTVSPropertyOp4
 70
     1
102
RTVSPropertyOp5
 70
     1
102
RTVSPropertyOp6
 70
     1
102
RTVSPropertyOp7
 70
     1
102
RTVSPropertyOp8
 70
     1
102
RTVSPropertyOp9
 70
     1
102
RTVSPropertyOp10
 70
     1
102
RTVSPropertyOp11
 70
     1
102
RTVSPropertyOp12
 70
     1
102
RTVSPropertyOp13
 70
     1
102
RTVSPropertyOp14
 70
     1
102
RTVSPropertyOp15
 70
     1
102
RTVSPropertyOp16
 70
     1
102
RTVSPropertyOp17
 70
     1
102
RTVSPropertyOp18
 70
     1
102
RTVSPropertyOp19
 70
     1
102
RTVSPropertyOp20
 70
     1
102
RTVSPropertyOp21
 70
     1
102
RTVSPropertyOp22
 70
     1
102
RTVSPropertyOp23
 70
     1
102
RTVSPropertyOp24
 70
     1
102
RTVSPropertyOp25
 70
     1
102
RTVSPropertyOp26
 70
     1
102
RTVSPropertyOp27
 70
     1
102
RTVSPropertyOp28
 70
     1
102
RTVSPropertyOp29
 70
     1
102
RTVSPropertyOp30
 70
     1
102
RTVSPropertyOp31
 70
     1
102
RTVSPropertyOp32
 70
     1
102
RTVSPropertyOp33
 70
     1
102
RTVSPropertyOp34
 70
     1
102
RTVSPropertyOp35
 70
     1
102
RTVSPropertyOp36
 70
     1
102
RTVSPropertyOp37
 70
     1
102
RTVSPropertyOp38
 70
     1
102
RTVSPropertyOp39
 70
     1
102
RTVSPropertyOp40
 70
     1
102
RTVSPropertyOp41
 70
     1
102
RTVSPropertyOp42
 70
     1
102
RTVSPropertyOp43
 70
     1
102
RTVSPropertyOp44
 70
     1
102
RTVSPropertyOp45
 70
     1
102
RTVSPropertyOp46
 70
     1
102
RTVSPropertyOp47
 70
     1
102
RTVSPropertyOp48
 70
     1
102
RTVSPropertyOp49
 70
     1
102
RTVSPropertyOp50
 70
     1
102
RTVSPropertyOp51
 70
     0
102
RTVSPropertyOp52
 70
     0
102
RTVSPropertyOp53
 70
     1
102
RTVSPropertyOp54
 70
     1
102
RTVSPropertyOp55
 70
     1
102
RTVSPropertyOp56
 70
     1
102
RTVSPropertyOp57
 70
     1
102
RTVSPropertyOp58
 70
     1
102
RTVSPropertyOp59
 70
     1
102
RTVSPropertyOp60
 70
     1
102
RTVSPropertyOp61
 70
     1
102
RTVSPropertyOp62
 70
     1
  0
XRECORD
  5
2FE
102
{ACAD_REACTORS
330
2FD
102
}
330
2FD
100
AcDbXrecord
280
     1
102
RTVSPost2010Prop28
280
     0
102
RTVSPost2010PropOp28
 70
     1
102
RTVSPost2010Prop29
280
     1
102
RTVSPost2010PropOp29
 70
     1
102
RTVSPost2010Prop30
280
     1
102
RTVSPost2010PropOp30
 70
     1
102
RTVSPost2010Prop31
280
     0
102
RTVSPost2010PropOp31
 70
     1
102
RTVSPost2010Prop32
280
     0
102
RTVSPost2010PropOp32
 70
     1
102
RTVSPost2010Prop33
280
     0
102
RTVSPost2010PropOp33
 70
     1
102
RTVSPost2010Prop34
280
     0
102
RTVSPost2010PropOp34
 70
     1
102
RTVSPost2010Prop35
280
     0
102
RTVSPost2010PropOp35
 70
     1
102
RTVSPost2010Prop36
280
     0
102
RTVSPost2010PropOp36
 70
     1
102
RTVSPost2010Prop37
 90
       50
102
RTVSPost2010PropOp37
 70
     1
102
RTVSPost2010Prop38
140
0.0
102
RTVSPost2010PropOp38
 70
     1
102
RTVSPost2010Prop39
140
1.0
102
RTVSPost2010PropOp39
 70
     1
102
RTVSPost2010Prop40
 90
        0
102
RTVSPost2010PropOp40
 70
     1
102
RTVSPost2010Prop41ColorIndex
 90
       18
102
RTVSPost2010Prop41ColorRGB
 90
        0
102
RTVSPost2010PropOp41
 70
     1
102
RTVSPost2010Prop42
 90
       50
102
RTVSPost2010PropOp42
 70
     1
102
RTVSPost2010Prop43
 90
        3
102
RTVSPost2010PropOp43
 70
     1
102
RTVSPost2010Prop44ColorIndex
 90
        5
102
RTVSPost2010Prop44ColorRGB
 90
      255
102
RTVSPost2010PropOp44
 70
     1
102
RTVSPost2010Prop45
280
     0
102
RTVSPost2010PropOp45
 70
     1
102
RTVSPost2010Prop46
 90
       50
102
RTVSPost2010PropOp46
 70
     1
102
RTVSPost2010Prop47
 90
       50
102
RTVSPost2010PropOp47
 70
     1
102
RTVSPost2010Prop48
 90
       50
102
RTVSPost2010PropOp48
 70
     1
102
RTVSPost2010Prop49
280
     0
102
RTVSPost2010PropOp49
 70
     1
102
RTVSPost2010Prop50
 90
       50
102
RTVSPost2010PropOp50
 70
     1
102
RTVSPost2010Prop51ColorIndex
 90
      256
102
RTVSPost2010Prop51ColorRGB
 90
-16777216
102
RTVSPost2010PropOp51
 70
     0
102
RTVSPost2010Prop52
140
1.0
102
RTVSPost2010PropOp52
 70
     0
102
RTVSPost2010Prop53
 90
        2
102
RTVSPost2010PropOp53
 70
     1
102
RTVSPost2010Prop54
  1
strokes_ogs.tif
102
RTVSPost2010PropOp54
 70
     1
102
RTVSPost2010Prop55
280
     0
102
RTVSPost2010PropOp55
 70
     1
102
RTVSPost2010Prop56
140
1.0
102
RTVSPost2010PropOp56
 70
     1
102
RTVSPost2010Prop57
140
1.0
102
RTVSPost2010PropOp57
 70
     1
102
RTVSPropertyOp0
 70
     1
102
RTVSPropertyOp1
 70
     1
102
RTVSPropertyOp2
 70
     1
102
RTVSPropertyOp3
 70
     1
102
RTVSPropertyOp4
 70
     1
102
RTVSPropertyOp5
 70
     1
102
RTVSPropertyOp6
 70
     1
102
RTVSPropertyOp7
 70
     1
102
RTVSPropertyOp8
 70
     1
102
RTVSPropertyOp9
 70
     1
102
RTVSPropertyOp10
 70
     1
102
RTVSPropertyOp11
 70
     1
102
RTVSPropertyOp12
 70
     1
102
RTVSPropertyOp13
 70
     1
102
RTVSPropertyOp14
 70
     1
102
RTVSPropertyOp15
 70
     1
102
RTVSPropertyOp16
 70
     1
102
RTVSPropertyOp17
 70
     1
102
RTVSPropertyOp18
 70
     1
102
RTVSPropertyOp19
 70
     1
102
RTVSPropertyOp20
 70
     1
102
RTVSPropertyOp21
 70
     1
102
RTVSPropertyOp22
 70
     1
102
RTVSPropertyOp23
 70
     1
102
RTVSPropertyOp24
 70
     1
102
RTVSPropertyOp25
 70
     1
102
RTVSPropertyOp26
 70
     1
102
RTVSPropertyOp27
 70
     1
102
RTVSPropertyOp28
 70
     1
102
RTVSPropertyOp29
 70
     1
102
RTVSPropertyOp30
 70
     1
102
RTVSPropertyOp31
 70
     1
102
RTVSPropertyOp32
 70
     1
102
RTVSPropertyOp33
 70
     1
102
RTVSPropertyOp34
 70
     1
102
RTVSPropertyOp35
 70
     1
102
RTVSPropertyOp36
 70
     1
102
RTVSPropertyOp37
 70
     1
102
RTVSPropertyOp38
 70
     1
102
RTVSPropertyOp39
 70
     1
102
RTVSPropertyOp40
 70
     1
102
RTVSPropertyOp41
 70
     1
102
RTVSPropertyOp42
 70
     1
102
RTVSPropertyOp43
 70
     1
102
RTVSPropertyOp44
 70
     1
102
RTVSPropertyOp45
 70
     1
102
RTVSPropertyOp46
 70
     1
102
RTVSPropertyOp47
 70
     1
102
RTVSPropertyOp48
 70
     1
102
RTVSPropertyOp49
 70
     1
102
RTVSPropertyOp50
 70
     1
102
RTVSPropertyOp51
 70
     0
102
RTVSPropertyOp52
 70
     0
102
RTVSPropertyOp53
 70
     1
102
RTVSPropertyOp54
 70
     1
102
RTVSPropertyOp55
 70
     1
102
RTVSPropertyOp56
 70
     1
102
RTVSPropertyOp57
 70
     1
102
RTVSPropertyOp58
 70
     1
102
RTVSPropertyOp59
 70
     1
102
RTVSPropertyOp60
 70
     1
102
RTVSPropertyOp61
 70
     1
102
RTVSPropertyOp62
 70
     1
  0
XRECORD
  5
318
102
{ACAD_REACTORS
330
317
102
}
330
317
100
AcDbXrecord
280
     1
102
RTVSPost2010Prop28
280
     0
102
RTVSPost2010PropOp28
 70
     1
102
RTVSPost2010Prop29
280
     1
102
RTVSPost2010PropOp29
 70
     1
102
RTVSPost2010Prop30
280
     1
102
RTVSPost2010PropOp30
 70
     1
102
RTVSPost2010Prop31
280
     0
102
RTVSPost2010PropOp31
 70
     1
102
RTVSPost2010Prop32
280
     0
102
RTVSPost2010PropOp32
 70
     1
102
RTVSPost2010Prop33
280
     0
102
RTVSPost2010PropOp33
 70
     1
102
RTVSPost2010Prop34
280
     0
102
RTVSPost2010PropOp34
 70
     1
102
RTVSPost2010Prop35
280
     0
102
RTVSPost2010PropOp35
 70
     1
102
RTVSPost2010Prop36
280
     0
102
RTVSPost2010PropOp36
 70
     1
102
RTVSPost2010Prop37
 90
       50
102
RTVSPost2010PropOp37
 70
     0
102
RTVSPost2010Prop38
140
0.0
102
RTVSPost2010PropOp38
 70
     0
102
RTVSPost2010Prop39
140
1.0
102
RTVSPost2010PropOp39
 70
     0
102
RTVSPost2010Prop40
 90
        0
102
RTVSPost2010PropOp40
 70
     0
102
RTVSPost2010Prop41ColorIndex
 90
       18
102
RTVSPost2010Prop41ColorRGB
 90
        0
102
RTVSPost2010PropOp41
 70
     0
102
RTVSPost2010Prop42
 90
       50
102
RTVSPost2010PropOp42
 70
     0
102
RTVSPost2010Prop43
 90
        3
102
RTVSPost2010PropOp43
 70
     0
102
RTVSPost2010Prop44ColorIndex
 90
        5
102
RTVSPost2010Prop44ColorRGB
 90
      255
102
RTVSPost2010PropOp44
 70
     0
102
RTVSPost2010Prop45
280
     0
102
RTVSPost2010PropOp45
 70
     1
102
RTVSPost2010Prop46
 90
       50
102
RTVSPost2010PropOp46
 70
     0
102
RTVSPost2010Prop47
 90
       50
102
RTVSPost2010PropOp47
 70
     0
102
RTVSPost2010Prop48
 90
       50
102
RTVSPost2010PropOp48
 70
     0
102
RTVSPost2010Prop49
280
     0
102
RTVSPost2010PropOp49
 70
     1
102
RTVSPost2010Prop50
 90
       50
102
RTVSPost2010PropOp50
 70
     0
102
RTVSPost2010Prop51ColorIndex
 90
      256
102
RTVSPost2010Prop51ColorRGB
 90
-16777216
102
RTVSPost2010PropOp51
 70
     0
102
RTVSPost2010Prop52
140
1.0
102
RTVSPost2010PropOp52
 70
     0
102
RTVSPost2010Prop53
 90
        2
102
RTVSPost2010PropOp53
 70
     0
102
RTVSPost2010Prop54
  1
strokes_ogs.tif
102
RTVSPost2010PropOp54
 70
     0
102
RTVSPost2010Prop55
280
     0
102
RTVSPost2010PropOp55
 70
     1
102
RTVSPost2010Prop56
140
1.0
102
RTVSPost2010PropOp56
 70
     0
102
RTVSPost2010Prop57
140
1.0
102
RTVSPost2010PropOp57
 70
     0
102
RTVSPropertyOp0
 70
     0
102
RTVSPropertyOp1
 70
     0
102
RTVSPropertyOp2
 70
     0
102
RTVSPropertyOp3
 70
     0
102
RTVSPropertyOp4
 70
     0
102
RTVSPropertyOp5
 70
     0
102
RTVSPropertyOp6
 70
     0
102
RTVSPropertyOp7
 70
     0
102
RTVSPropertyOp8
 70
     0
102
RTVSPropertyOp9
 70
     0
102
RTVSPropertyOp10
 70
     0
102
RTVSPropertyOp11
 70
     0
102
RTVSPropertyOp12
 70
     0
102
RTVSPropertyOp13
 70
     0
102
RTVSPropertyOp14
 70
     2
102
RTVSPropertyOp15
 70
     0
102
RTVSPropertyOp16
 70
     0
102
RTVSPropertyOp17
 70
     0
102
RTVSPropertyOp18
 70
     0
102
RTVSPropertyOp19
 70
     0
102
RTVSPropertyOp20
 70
     0
102
RTVSPropertyOp21
 70
     0
102
RTVSPropertyOp22
 70
     0
102
RTVSPropertyOp23
 70
     0
102
RTVSPropertyOp24
 70
     0
102
RTVSPropertyOp25
 70
     0
102
RTVSPropertyOp26
 70
     0
102
RTVSPropertyOp27
 70
     0
102
RTVSPropertyOp28
 70
     1
102
RTVSPropertyOp29
 70
     1
102
RTVSPropertyOp30
 70
     1
102
RTVSPropertyOp31
 70
     1
102
RTVSPropertyOp32
 70
     1
102
RTVSPropertyOp33
 70
     1
102
RTVSPropertyOp34
 70
     1
102
RTVSPropertyOp35
 70
     1
102
RTVSPropertyOp36
 70
     1
102
RTVSPropertyOp37
 70
     0
102
RTVSPropertyOp38
 70
     0
102
RTVSPropertyOp39
 70
     0
102
RTVSPropertyOp40
 70
     0
102
RTVSPropertyOp41
 70
     0
102
RTVSPropertyOp42
 70
     0
102
RTVSPropertyOp43
 70
     0
102
RTVSPropertyOp44
 70
     0
102
RTVSPropertyOp45
 70
     1
102
RTVSPropertyOp46
 70
     0
102
RTVSPropertyOp47
 70
     0
102
RTVSPropertyOp48
 70
     0
102
RTVSPropertyOp49
 70
     1
102
RTVSPropertyOp50
 70
     0
102
RTVSPropertyOp51
 70
     0
102
RTVSPropertyOp52
 70
     0
102
RTVSPropertyOp53
 70
     0
102
RTVSPropertyOp54
 70
     0
102
RTVSPropertyOp55
 70
     1
102
RTVSPropertyOp56
 70
     0
102
RTVSPropertyOp57
 70
     0
102
RTVSPropertyOp58
 70
     0
102
RTVSPropertyOp59
 70
     0
102
RTVSPropertyOp60
 70
     0
102
RTVSPropertyOp61
 70
     0
102
RTVSPropertyOp62
 70
     0
  0
XRECORD
  5
306
102
{ACAD_REACTORS
330
305
102
}
330
305
100
AcDbXrecord
280
     1
102
RTVSPost2010Prop28
280
     0
102
RTVSPost2010PropOp28
 70
     1
102
RTVSPost2010Prop29
280
     1
102
RTVSPost2010PropOp29
 70
     1
102
RTVSPost2010Prop30
280
     1
102
RTVSPost2010PropOp30
 70
     1
102
RTVSPost2010Prop31
280
     0
102
RTVSPost2010PropOp31
 70
     1
102
RTVSPost2010Prop32
280
     0
102
RTVSPost2010PropOp32
 70
     1
102
RTVSPost2010Prop33
280
     0
102
RTVSPost2010PropOp33
 70
     1
102
RTVSPost2010Prop34
280
     0
102
RTVSPost2010PropOp34
 70
     1
102
RTVSPost2010Prop35
280
     0
102
RTVSPost2010PropOp35
 70
     1
102
RTVSPost2010Prop36
280
     0
102
RTVSPost2010PropOp36
 70
     1
102
RTVSPost2010Prop37
 90
       50
102
RTVSPost2010PropOp37
 70
     1
102
RTVSPost2010Prop38
140
0.0
102
RTVSPost2010PropOp38
 70
     1
102
RTVSPost2010Prop39
140
1.0
102
RTVSPost2010PropOp39
 70
     1
102
RTVSPost2010Prop40
 90
        0
102
RTVSPost2010PropOp40
 70
     1
102
RTVSPost2010Prop41ColorIndex
 90
       18
102
RTVSPost2010Prop41ColorRGB
 90
        0
102
RTVSPost2010PropOp41
 70
     1
102
RTVSPost2010Prop42
 90
       50
102
RTVSPost2010PropOp42
 70
     1
102
RTVSPost2010Prop43
 90
        3
102
RTVSPost2010PropOp43
 70
     1
102
RTVSPost2010Prop44ColorIndex
 90
        5
102
RTVSPost2010Prop44ColorRGB
 90
      255
102
RTVSPost2010PropOp44
 70
     1
102
RTVSPost2010Prop45
280
     0
102
RTVSPost2010PropOp45
 70
     1
102
RTVSPost2010Prop46
 90
       50
102
RTVSPost2010PropOp46
 70
     1
102
RTVSPost2010Prop47
 90
       50
102
RTVSPost2010PropOp47
 70
     1
102
RTVSPost2010Prop48
 90
       50
102
RTVSPost2010PropOp48
 70
     1
102
RTVSPost2010Prop49
280
     0
102
RTVSPost2010PropOp49
 70
     1
102
RTVSPost2010Prop50
 90
       50
102
RTVSPost2010PropOp50
 70
     1
102
RTVSPost2010Prop51ColorIndex
 90
      256
102
RTVSPost2010Prop51ColorRGB
 90
-16777216
102
RTVSPost2010PropOp51
 70
     0
102
RTVSPost2010Prop52
140
1.0
102
RTVSPost2010PropOp52
 70
     0
102
RTVSPost2010Prop53
 90
        2
102
RTVSPost2010PropOp53
 70
     1
102
RTVSPost2010Prop54
  1
strokes_ogs.tif
102
RTVSPost2010PropOp54
 70
     1
102
RTVSPost2010Prop55
280
     0
102
RTVSPost2010PropOp55
 70
     1
102
RTVSPost2010Prop56
140
1.0
102
RTVSPost2010PropOp56
 70
     1
102
RTVSPost2010Prop57
140
1.0
102
RTVSPost2010PropOp57
 70
     1
102
RTVSPropertyOp0
 70
     1
102
RTVSPropertyOp1
 70
     1
102
RTVSPropertyOp2
 70
     1
102
RTVSPropertyOp3
 70
     1
102
RTVSPropertyOp4
 70
     1
102
RTVSPropertyOp5
 70
     1
102
RTVSPropertyOp6
 70
     1
102
RTVSPropertyOp7
 70
     1
102
RTVSPropertyOp8
 70
     1
102
RTVSPropertyOp9
 70
     1
102
RTVSPropertyOp10
 70
     1
102
RTVSPropertyOp11
 70
     1
102
RTVSPropertyOp12
 70
     1
102
RTVSPropertyOp13
 70
     1
102
RTVSPropertyOp14
 70
     1
102
RTVSPropertyOp15
 70
     1
102
RTVSPropertyOp16
 70
     1
102
RTVSPropertyOp17
 70
     1
102
RTVSPropertyOp18
 70
     1
102
RTVSPropertyOp19
 70
     1
102
RTVSPropertyOp20
 70
     1
102
RTVSPropertyOp21
 70
     1
102
RTVSPropertyOp22
 70
     1
102
RTVSPropertyOp23
 70
     1
102
RTVSPropertyOp24
 70
     1
102
RTVSPropertyOp25
 70
     1
102
RTVSPropertyOp26
 70
     1
102
RTVSPropertyOp27
 70
     1
102
RTVSPropertyOp28
 70
     1
102
RTVSPropertyOp29
 70
     1
102
RTVSPropertyOp30
 70
     1
102
RTVSPropertyOp31
 70
     1
102
RTVSPropertyOp32
 70
     1
102
RTVSPropertyOp33
 70
     1
102
RTVSPropertyOp34
 70
     1
102
RTVSPropertyOp35
 70
     1
102
RTVSPropertyOp36
 70
     1
102
RTVSPropertyOp37
 70
     1
102
RTVSPropertyOp38
 70
     1
102
RTVSPropertyOp39
 70
     1
102
RTVSPropertyOp40
 70
     1
102
RTVSPropertyOp41
 70
     1
102
RTVSPropertyOp42
 70
     1
102
RTVSPropertyOp43
 70
     1
102
RTVSPropertyOp44
 70
     1
102
RTVSPropertyOp45
 70
     1
102
RTVSPropertyOp46
 70
     1
102
RTVSPropertyOp47
 70
     1
102
RTVSPropertyOp48
 70
     1
102
RTVSPropertyOp49
 70
     1
102
RTVSPropertyOp50
 70
     1
102
RTVSPropertyOp51
 70
     0
102
RTVSPropertyOp52
 70
     0
102
RTVSPropertyOp53
 70
     1
102
RTVSPropertyOp54
 70
     1
102
RTVSPropertyOp55
 70
     1
102
RTVSPropertyOp56
 70
     1
102
RTVSPropertyOp57
 70
     1
102
RTVSPropertyOp58
 70
     1
102
RTVSPropertyOp59
 70
     1
102
RTVSPropertyOp60
 70
     1
102
RTVSPropertyOp61
 70
     1
102
RTVSPropertyOp62
 70
     1
  0
XRECORD
  5
2EA
102
{ACAD_REACTORS
330
2E9
102
}
330
2E9
100
AcDbXrecord
280
     1
102
RTVSPost2010Prop28
280
     0
102
RTVSPost2010PropOp28
 70
     1
102
RTVSPost2010Prop29
280
     1
102
RTVSPost2010PropOp29
 70
     1
102
RTVSPost2010Prop30
280
     1
102
RTVSPost2010PropOp30
 70
     1
102
RTVSPost2010Prop31
280
     0
102
RTVSPost2010PropOp31
 70
     1
102
RTVSPost2010Prop32
280
     0
102
RTVSPost2010PropOp32
 70
     1
102
RTVSPost2010Prop33
280
     0
102
RTVSPost2010PropOp33
 70
     1
102
RTVSPost2010Prop34
280
     0
102
RTVSPost2010PropOp34
 70
     1
102
RTVSPost2010Prop35
280
     0
102
RTVSPost2010PropOp35
 70
     1
102
RTVSPost2010Prop36
280
     0
102
RTVSPost2010PropOp36
 70
     1
102
RTVSPost2010Prop37
 90
       50
102
RTVSPost2010PropOp37
 70
     1
102
RTVSPost2010Prop38
140
0.0
102
RTVSPost2010PropOp38
 70
     1
102
RTVSPost2010Prop39
140
1.0
102
RTVSPost2010PropOp39
 70
     1
102
RTVSPost2010Prop40
 90
        0
102
RTVSPost2010PropOp40
 70
     1
102
RTVSPost2010Prop41ColorIndex
 90
       18
102
RTVSPost2010Prop41ColorRGB
 90
        0
102
RTVSPost2010PropOp41
 70
     1
102
RTVSPost2010Prop42
 90
       50
102
RTVSPost2010PropOp42
 70
     1
102
RTVSPost2010Prop43
 90
        3
102
RTVSPost2010PropOp43
 70
     1
102
RTVSPost2010Prop44ColorIndex
 90
        5
102
RTVSPost2010Prop44ColorRGB
 90
      255
102
RTVSPost2010PropOp44
 70
     1
102
RTVSPost2010Prop45
280
     0
102
RTVSPost2010PropOp45
 70
     1
102
RTVSPost2010Prop46
 90
       50
102
RTVSPost2010PropOp46
 70
     1
102
RTVSPost2010Prop47
 90
       50
102
RTVSPost2010PropOp47
 70
     1
102
RTVSPost2010Prop48
 90
       50
102
RTVSPost2010PropOp48
 70
     1
102
RTVSPost2010Prop49
280
     0
102
RTVSPost2010PropOp49
 70
     1
102
RTVSPost2010Prop50
 90
       50
102
RTVSPost2010PropOp50
 70
     1
102
RTVSPost2010Prop51ColorIndex
 90
      256
102
RTVSPost2010Prop51ColorRGB
 90
-16777216
102
RTVSPost2010PropOp51
 70
     0
102
RTVSPost2010Prop52
140
1.0
102
RTVSPost2010PropOp52
 70
     0
102
RTVSPost2010Prop53
 90
        2
102
RTVSPost2010PropOp53
 70
     1
102
RTVSPost2010Prop54
  1
strokes_ogs.tif
102
RTVSPost2010PropOp54
 70
     1
102
RTVSPost2010Prop55
280
     0
102
RTVSPost2010PropOp55
 70
     1
102
RTVSPost2010Prop56
140
1.0
102
RTVSPost2010PropOp56
 70
     1
102
RTVSPost2010Prop57
140
1.0
102
RTVSPost2010PropOp57
 70
     1
102
RTVSPropertyOp0
 70
     1
102
RTVSPropertyOp1
 70
     1
102
RTVSPropertyOp2
 70
     1
102
RTVSPropertyOp3
 70
     1
102
RTVSPropertyOp4
 70
     1
102
RTVSPropertyOp5
 70
     1
102
RTVSPropertyOp6
 70
     1
102
RTVSPropertyOp7
 70
     1
102
RTVSPropertyOp8
 70
     1
102
RTVSPropertyOp9
 70
     1
102
RTVSPropertyOp10
 70
     1
102
RTVSPropertyOp11
 70
     1
102
RTVSPropertyOp12
 70
     1
102
RTVSPropertyOp13
 70
     1
102
RTVSPropertyOp14
 70
     1
102
RTVSPropertyOp15
 70
     1
102
RTVSPropertyOp16
 70
     1
102
RTVSPropertyOp17
 70
     1
102
RTVSPropertyOp18
 70
     1
102
RTVSPropertyOp19
 70
     1
102
RTVSPropertyOp20
 70
     1
102
RTVSPropertyOp21
 70
     1
102
RTVSPropertyOp22
 70
     1
102
RTVSPropertyOp23
 70
     1
102
RTVSPropertyOp24
 70
     1
102
RTVSPropertyOp25
 70
     1
102
RTVSPropertyOp26
 70
     1
102
RTVSPropertyOp27
 70
     1
102
RTVSPropertyOp28
 70
     1
102
RTVSPropertyOp29
 70
     1
102
RTVSPropertyOp30
 70
     1
102
RTVSPropertyOp31
 70
     1
102
RTVSPropertyOp32
 70
     1
102
RTVSPropertyOp33
 70
     1
102
RTVSPropertyOp34
 70
     1
102
RTVSPropertyOp35
 70
     1
102
RTVSPropertyOp36
 70
     1
102
RTVSPropertyOp37
 70
     1
102
RTVSPropertyOp38
 70
     1
102
RTVSPropertyOp39
 70
     1
102
RTVSPropertyOp40
 70
     1
102
RTVSPropertyOp41
 70
     1
102
RTVSPropertyOp42
 70
     1
102
RTVSPropertyOp43
 70
     1
102
RTVSPropertyOp44
 70
     1
102
RTVSPropertyOp45
 70
     1
102
RTVSPropertyOp46
 70
     1
102
RTVSPropertyOp47
 70
     1
102
RTVSPropertyOp48
 70
     1
102
RTVSPropertyOp49
 70
     1
102
RTVSPropertyOp50
 70
     1
102
RTVSPropertyOp51
 70
     0
102
RTVSPropertyOp52
 70
     0
102
RTVSPropertyOp53
 70
     1
102
RTVSPropertyOp54
 70
     1
102
RTVSPropertyOp55
 70
     1
102
RTVSPropertyOp56
 70
     1
102
RTVSPropertyOp57
 70
     1
102
RTVSPropertyOp58
 70
     1
102
RTVSPropertyOp59
 70
     1
102
RTVSPropertyOp60
 70
     1
102
RTVSPropertyOp61
 70
     1
102
RTVSPropertyOp62
 70
     1
  0
XRECORD
  5
2EC
102
{ACAD_REACTORS
330
2EB
102
}
330
2EB
100
AcDbXrecord
280
     1
102
RTVSPost2010Prop28
280
     0
102
RTVSPost2010PropOp28
 70
     1
102
RTVSPost2010Prop29
280
     1
102
RTVSPost2010PropOp29
 70
     1
102
RTVSPost2010Prop30
280
     1
102
RTVSPost2010PropOp30
 70
     1
102
RTVSPost2010Prop31
280
     0
102
RTVSPost2010PropOp31
 70
     1
102
RTVSPost2010Prop32
280
     0
102
RTVSPost2010PropOp32
 70
     1
102
RTVSPost2010Prop33
280
     0
102
RTVSPost2010PropOp33
 70
     1
102
RTVSPost2010Prop34
280
     0
102
RTVSPost2010PropOp34
 70
     1
102
RTVSPost2010Prop35
280
     0
102
RTVSPost2010PropOp35
 70
     1
102
RTVSPost2010Prop36
280
     0
102
RTVSPost2010PropOp36
 70
     1
102
RTVSPost2010Prop37
 90
       50
102
RTVSPost2010PropOp37
 70
     1
102
RTVSPost2010Prop38
140
0.0
102
RTVSPost2010PropOp38
 70
     1
102
RTVSPost2010Prop39
140
1.0
102
RTVSPost2010PropOp39
 70
     1
102
RTVSPost2010Prop40
 90
        0
102
RTVSPost2010PropOp40
 70
     1
102
RTVSPost2010Prop41ColorIndex
 90
       18
102
RTVSPost2010Prop41ColorRGB
 90
        0
102
RTVSPost2010PropOp41
 70
     1
102
RTVSPost2010Prop42
 90
       50
102
RTVSPost2010PropOp42
 70
     1
102
RTVSPost2010Prop43
 90
        3
102
RTVSPost2010PropOp43
 70
     1
102
RTVSPost2010Prop44ColorIndex
 90
        5
102
RTVSPost2010Prop44ColorRGB
 90
      255
102
RTVSPost2010PropOp44
 70
     1
102
RTVSPost2010Prop45
280
     0
102
RTVSPost2010PropOp45
 70
     1
102
RTVSPost2010Prop46
 90
       50
102
RTVSPost2010PropOp46
 70
     1
102
RTVSPost2010Prop47
 90
       50
102
RTVSPost2010PropOp47
 70
     1
102
RTVSPost2010Prop48
 90
       50
102
RTVSPost2010PropOp48
 70
     1
102
RTVSPost2010Prop49
280
     0
102
RTVSPost2010PropOp49
 70
     1
102
RTVSPost2010Prop50
 90
       50
102
RTVSPost2010PropOp50
 70
     1
102
RTVSPost2010Prop51ColorIndex
 90
      256
102
RTVSPost2010Prop51ColorRGB
 90
-16777216
102
RTVSPost2010PropOp51
 70
     0
102
RTVSPost2010Prop52
140
1.0
102
RTVSPost2010PropOp52
 70
     0
102
RTVSPost2010Prop53
 90
        2
102
RTVSPost2010PropOp53
 70
     1
102
RTVSPost2010Prop54
  1
strokes_ogs.tif
102
RTVSPost2010PropOp54
 70
     1
102
RTVSPost2010Prop55
280
     0
102
RTVSPost2010PropOp55
 70
     1
102
RTVSPost2010Prop56
140
1.0
102
RTVSPost2010PropOp56
 70
     1
102
RTVSPost2010Prop57
140
1.0
102
RTVSPost2010PropOp57
 70
     1
102
RTVSPropertyOp0
 70
     1
102
RTVSPropertyOp1
 70
     1
102
RTVSPropertyOp2
 70
     1
102
RTVSPropertyOp3
 70
     1
102
RTVSPropertyOp4
 70
     1
102
RTVSPropertyOp5
 70
     1
102
RTVSPropertyOp6
 70
     1
102
RTVSPropertyOp7
 70
     1
102
RTVSPropertyOp8
 70
     1
102
RTVSPropertyOp9
 70
     1
102
RTVSPropertyOp10
 70
     1
102
RTVSPropertyOp11
 70
     1
102
RTVSPropertyOp12
 70
     1
102
RTVSPropertyOp13
 70
     1
102
RTVSPropertyOp14
 70
     1
102
RTVSPropertyOp15
 70
     1
102
RTVSPropertyOp16
 70
     1
102
RTVSPropertyOp17
 70
     1
102
RTVSPropertyOp18
 70
     1
102
RTVSPropertyOp19
 70
     1
102
RTVSPropertyOp20
 70
     1
102
RTVSPropertyOp21
 70
     1
102
RTVSPropertyOp22
 70
     1
102
RTVSPropertyOp23
 70
     1
102
RTVSPropertyOp24
 70
     1
102
RTVSPropertyOp25
 70
     1
102
RTVSPropertyOp26
 70
     1
102
RTVSPropertyOp27
 70
     1
102
RTVSPropertyOp28
 70
     1
102
RTVSPropertyOp29
 70
     1
102
RTVSPropertyOp30
 70
     1
102
RTVSPropertyOp31
 70
     1
102
RTVSPropertyOp32
 70
     1
102
RTVSPropertyOp33
 70
     1
102
RTVSPropertyOp34
 70
     1
102
RTVSPropertyOp35
 70
     1
102
RTVSPropertyOp36
 70
     1
102
RTVSPropertyOp37
 70
     1
102
RTVSPropertyOp38
 70
     1
102
RTVSPropertyOp39
 70
     1
102
RTVSPropertyOp40
 70
     1
102
RTVSPropertyOp41
 70
     1
102
RTVSPropertyOp42
 70
     1
102
RTVSPropertyOp43
 70
     1
102
RTVSPropertyOp44
 70
     1
102
RTVSPropertyOp45
 70
     1
102
RTVSPropertyOp46
 70
     1
102
RTVSPropertyOp47
 70
     1
102
RTVSPropertyOp48
 70
     1
102
RTVSPropertyOp49
 70
     1
102
RTVSPropertyOp50
 70
     1
102
RTVSPropertyOp51
 70
     0
102
RTVSPropertyOp52
 70
     0
102
RTVSPropertyOp53
 70
     1
102
RTVSPropertyOp54
 70
     1
102
RTVSPropertyOp55
 70
     1
102
RTVSPropertyOp56
 70
     1
102
RTVSPropertyOp57
 70
     1
102
RTVSPropertyOp58
 70
     1
102
RTVSPropertyOp59
 70
     1
102
RTVSPropertyOp60
 70
     1
102
RTVSPropertyOp61
 70
     1
102
RTVSPropertyOp62
 70
     1
  0
XRECORD
  5
2EE
102
{ACAD_REACTORS
330
2ED
102
}
330
2ED
100
AcDbXrecord
280
     1
102
RTVSPost2010Prop28
280
     0
102
RTVSPost2010PropOp28
 70
     1
102
RTVSPost2010Prop29
280
     1
102
RTVSPost2010PropOp29
 70
     1
102
RTVSPost2010Prop30
280
     1
102
RTVSPost2010PropOp30
 70
     1
102
RTVSPost2010Prop31
280
     0
102
RTVSPost2010PropOp31
 70
     1
102
RTVSPost2010Prop32
280
     0
102
RTVSPost2010PropOp32
 70
     1
102
RTVSPost2010Prop33
280
     0
102
RTVSPost2010PropOp33
 70
     1
102
RTVSPost2010Prop34
280
     0
102
RTVSPost2010PropOp34
 70
     1
102
RTVSPost2010Prop35
280
     0
102
RTVSPost2010PropOp35
 70
     1
102
RTVSPost2010Prop36
280
     0
102
RTVSPost2010PropOp36
 70
     1
102
RTVSPost2010Prop37
 90
       50
102
RTVSPost2010PropOp37
 70
     1
102
RTVSPost2010Prop38
140
0.0
102
RTVSPost2010PropOp38
 70
     1
102
RTVSPost2010Prop39
140
1.0
102
RTVSPost2010PropOp39
 70
     1
102
RTVSPost2010Prop40
 90
        0
102
RTVSPost2010PropOp40
 70
     1
102
RTVSPost2010Prop41ColorIndex
 90
       18
102
RTVSPost2010Prop41ColorRGB
 90
        0
102
RTVSPost2010PropOp41
 70
     1
102
RTVSPost2010Prop42
 90
       50
102
RTVSPost2010PropOp42
 70
     1
102
RTVSPost2010Prop43
 90
        3
102
RTVSPost2010PropOp43
 70
     1
102
RTVSPost2010Prop44ColorIndex
 90
        5
102
RTVSPost2010Prop44ColorRGB
 90
      255
102
RTVSPost2010PropOp44
 70
     1
102
RTVSPost2010Prop45
280
     0
102
RTVSPost2010PropOp45
 70
     1
102
RTVSPost2010Prop46
 90
       50
102
RTVSPost2010PropOp46
 70
     1
102
RTVSPost2010Prop47
 90
       50
102
RTVSPost2010PropOp47
 70
     1
102
RTVSPost2010Prop48
 90
       50
102
RTVSPost2010PropOp48
 70
     1
102
RTVSPost2010Prop49
280
     0
102
RTVSPost2010PropOp49
 70
     1
102
RTVSPost2010Prop50
 90
       50
102
RTVSPost2010PropOp50
 70
     1
102
RTVSPost2010Prop51ColorIndex
 90
      256
102
RTVSPost2010Prop51ColorRGB
 90
-16777216
102
RTVSPost2010PropOp51
 70
     0
102
RTVSPost2010Prop52
140
1.0
102
RTVSPost2010PropOp52
 70
     0
102
RTVSPost2010Prop53
 90
        2
102
RTVSPost2010PropOp53
 70
     1
102
RTVSPost2010Prop54
  1
strokes_ogs.tif
102
RTVSPost2010PropOp54
 70
     1
102
RTVSPost2010Prop55
280
     0
102
RTVSPost2010PropOp55
 70
     1
102
RTVSPost2010Prop56
140
1.0
102
RTVSPost2010PropOp56
 70
     1
102
RTVSPost2010Prop57
140
1.0
102
RTVSPost2010PropOp57
 70
     1
102
RTVSPropertyOp0
 70
     1
102
RTVSPropertyOp1
 70
     1
102
RTVSPropertyOp2
 70
     1
102
RTVSPropertyOp3
 70
     1
102
RTVSPropertyOp4
 70
     1
102
RTVSPropertyOp5
 70
     1
102
RTVSPropertyOp6
 70
     1
102
RTVSPropertyOp7
 70
     1
102
RTVSPropertyOp8
 70
     1
102
RTVSPropertyOp9
 70
     1
102
RTVSPropertyOp10
 70
     1
102
RTVSPropertyOp11
 70
     1
102
RTVSPropertyOp12
 70
     1
102
RTVSPropertyOp13
 70
     1
102
RTVSPropertyOp14
 70
     1
102
RTVSPropertyOp15
 70
     1
102
RTVSPropertyOp16
 70
     1
102
RTVSPropertyOp17
 70
     1
102
RTVSPropertyOp18
 70
     1
102
RTVSPropertyOp19
 70
     1
102
RTVSPropertyOp20
 70
     1
102
RTVSPropertyOp21
 70
     1
102
RTVSPropertyOp22
 70
     1
102
RTVSPropertyOp23
 70
     1
102
RTVSPropertyOp24
 70
     1
102
RTVSPropertyOp25
 70
     1
102
RTVSPropertyOp26
 70
     1
102
RTVSPropertyOp27
 70
     1
102
RTVSPropertyOp28
 70
     1
102
RTVSPropertyOp29
 70
     1
102
RTVSPropertyOp30
 70
     1
102
RTVSPropertyOp31
 70
     1
102
RTVSPropertyOp32
 70
     1
102
RTVSPropertyOp33
 70
     1
102
RTVSPropertyOp34
 70
     1
102
RTVSPropertyOp35
 70
     1
102
RTVSPropertyOp36
 70
     1
102
RTVSPropertyOp37
 70
     1
102
RTVSPropertyOp38
 70
     1
102
RTVSPropertyOp39
 70
     1
102
RTVSPropertyOp40
 70
     1
102
RTVSPropertyOp41
 70
     1
102
RTVSPropertyOp42
 70
     1
102
RTVSPropertyOp43
 70
     1
102
RTVSPropertyOp44
 70
     1
102
RTVSPropertyOp45
 70
     1
102
RTVSPropertyOp46
 70
     1
102
RTVSPropertyOp47
 70
     1
102
RTVSPropertyOp48
 70
     1
102
RTVSPropertyOp49
 70
     1
102
RTVSPropertyOp50
 70
     1
102
RTVSPropertyOp51
 70
     0
102
RTVSPropertyOp52
 70
     0
102
RTVSPropertyOp53
 70
     1
102
RTVSPropertyOp54
 70
     1
102
RTVSPropertyOp55
 70
     1
102
RTVSPropertyOp56
 70
     1
102
RTVSPropertyOp57
 70
     1
102
RTVSPropertyOp58
 70
     1
102
RTVSPropertyOp59
 70
     1
102
RTVSPropertyOp60
 70
     1
102
RTVSPropertyOp61
 70
     1
102
RTVSPropertyOp62
 70
     1
  0
XRECORD
  5
2F0
102
{ACAD_REACTORS
330
2EF
102
}
330
2EF
100
AcDbXrecord
280
     1
102
RTVSPost2010Prop28
280
     0
102
RTVSPost2010PropOp28
 70
     1
102
RTVSPost2010Prop29
280
     1
102
RTVSPost2010PropOp29
 70
     1
102
RTVSPost2010Prop30
280
     1
102
RTVSPost2010PropOp30
 70
     1
102
RTVSPost2010Prop31
280
     0
102
RTVSPost2010PropOp31
 70
     1
102
RTVSPost2010Prop32
280
     0
102
RTVSPost2010PropOp32
 70
     1
102
RTVSPost2010Prop33
280
     0
102
RTVSPost2010PropOp33
 70
     1
102
RTVSPost2010Prop34
280
     0
102
RTVSPost2010PropOp34
 70
     1
102
RTVSPost2010Prop35
280
     0
102
RTVSPost2010PropOp35
 70
     1
102
RTVSPost2010Prop36
280
     0
102
RTVSPost2010PropOp36
 70
     1
102
RTVSPost2010Prop37
 90
       50
102
RTVSPost2010PropOp37
 70
     1
102
RTVSPost2010Prop38
140
0.0
102
RTVSPost2010PropOp38
 70
     1
102
RTVSPost2010Prop39
140
1.0
102
RTVSPost2010PropOp39
 70
     1
102
RTVSPost2010Prop40
 90
        0
102
RTVSPost2010PropOp40
 70
     1
102
RTVSPost2010Prop41ColorIndex
 90
       18
102
RTVSPost2010Prop41ColorRGB
 90
        0
102
RTVSPost2010PropOp41
 70
     1
102
RTVSPost2010Prop42
 90
       50
102
RTVSPost2010PropOp42
 70
     1
102
RTVSPost2010Prop43
 90
        3
102
RTVSPost2010PropOp43
 70
     1
102
RTVSPost2010Prop44ColorIndex
 90
        5
102
RTVSPost2010Prop44ColorRGB
 90
      255
102
RTVSPost2010PropOp44
 70
     1
102
RTVSPost2010Prop45
280
     0
102
RTVSPost2010PropOp45
 70
     1
102
RTVSPost2010Prop46
 90
       50
102
RTVSPost2010PropOp46
 70
     1
102
RTVSPost2010Prop47
 90
       50
102
RTVSPost2010PropOp47
 70
     1
102
RTVSPost2010Prop48
 90
       50
102
RTVSPost2010PropOp48
 70
     1
102
RTVSPost2010Prop49
280
     0
102
RTVSPost2010PropOp49
 70
     1
102
RTVSPost2010Prop50
 90
       50
102
RTVSPost2010PropOp50
 70
     1
102
RTVSPost2010Prop51ColorIndex
 90
      256
102
RTVSPost2010Prop51ColorRGB
 90
-16777216
102
RTVSPost2010PropOp51
 70
     0
102
RTVSPost2010Prop52
140
1.0
102
RTVSPost2010PropOp52
 70
     0
102
RTVSPost2010Prop53
 90
        2
102
RTVSPost2010PropOp53
 70
     1
102
RTVSPost2010Prop54
  1
strokes_ogs.tif
102
RTVSPost2010PropOp54
 70
     1
102
RTVSPost2010Prop55
280
     0
102
RTVSPost2010PropOp55
 70
     1
102
RTVSPost2010Prop56
140
1.0
102
RTVSPost2010PropOp56
 70
     1
102
RTVSPost2010Prop57
140
1.0
102
RTVSPost2010PropOp57
 70
     1
102
RTVSPropertyOp0
 70
     1
102
RTVSPropertyOp1
 70
     1
102
RTVSPropertyOp2
 70
     1
102
RTVSPropertyOp3
 70
     1
102
RTVSPropertyOp4
 70
     1
102
RTVSPropertyOp5
 70
     1
102
RTVSPropertyOp6
 70
     1
102
RTVSPropertyOp7
 70
     1
102
RTVSPropertyOp8
 70
     1
102
RTVSPropertyOp9
 70
     1
102
RTVSPropertyOp10
 70
     1
102
RTVSPropertyOp11
 70
     1
102
RTVSPropertyOp12
 70
     1
102
RTVSPropertyOp13
 70
     1
102
RTVSPropertyOp14
 70
     1
102
RTVSPropertyOp15
 70
     1
102
RTVSPropertyOp16
 70
     1
102
RTVSPropertyOp17
 70
     1
102
RTVSPropertyOp18
 70
     1
102
RTVSPropertyOp19
 70
     1
102
RTVSPropertyOp20
 70
     1
102
RTVSPropertyOp21
 70
     1
102
RTVSPropertyOp22
 70
     1
102
RTVSPropertyOp23
 70
     1
102
RTVSPropertyOp24
 70
     1
102
RTVSPropertyOp25
 70
     1
102
RTVSPropertyOp26
 70
     1
102
RTVSPropertyOp27
 70
     1
102
RTVSPropertyOp28
 70
     1
102
RTVSPropertyOp29
 70
     1
102
RTVSPropertyOp30
 70
     1
102
RTVSPropertyOp31
 70
     1
102
RTVSPropertyOp32
 70
     1
102
RTVSPropertyOp33
 70
     1
102
RTVSPropertyOp34
 70
     1
102
RTVSPropertyOp35
 70
     1
102
RTVSPropertyOp36
 70
     1
102
RTVSPropertyOp37
 70
     1
102
RTVSPropertyOp38
 70
     1
102
RTVSPropertyOp39
 70
     1
102
RTVSPropertyOp40
 70
     1
102
RTVSPropertyOp41
 70
     1
102
RTVSPropertyOp42
 70
     1
102
RTVSPropertyOp43
 70
     1
102
RTVSPropertyOp44
 70
     1
102
RTVSPropertyOp45
 70
     1
102
RTVSPropertyOp46
 70
     1
102
RTVSPropertyOp47
 70
     1
102
RTVSPropertyOp48
 70
     1
102
RTVSPropertyOp49
 70
     1
102
RTVSPropertyOp50
 70
     1
102
RTVSPropertyOp51
 70
     0
102
RTVSPropertyOp52
 70
     0
102
RTVSPropertyOp53
 70
     1
102
RTVSPropertyOp54
 70
     1
102
RTVSPropertyOp55
 70
     1
102
RTVSPropertyOp56
 70
     1
102
RTVSPropertyOp57
 70
     1
102
RTVSPropertyOp58
 70
     1
102
RTVSPropertyOp59
 70
     1
102
RTVSPropertyOp60
 70
     1
102
RTVSPropertyOp61
 70
     1
102
RTVSPropertyOp62
 70
     1
  0
XRECORD
  5
2F8
102
{ACAD_REACTORS
330
2F7
102
}
330
2F7
100
AcDbXrecord
280
     1
102
RTVSPost2010Prop28
280
     0
102
RTVSPost2010PropOp28
 70
     1
102
RTVSPost2010Prop29
280
     1
102
RTVSPost2010PropOp29
 70
     1
102
RTVSPost2010Prop30
280
     1
102
RTVSPost2010PropOp30
 70
     1
102
RTVSPost2010Prop31
280
     0
102
RTVSPost2010PropOp31
 70
     1
102
RTVSPost2010Prop32
280
     0
102
RTVSPost2010PropOp32
 70
     1
102
RTVSPost2010Prop33
280
     0
102
RTVSPost2010PropOp33
 70
     1
102
RTVSPost2010Prop34
280
     0
102
RTVSPost2010PropOp34
 70
     1
102
RTVSPost2010Prop35
280
     0
102
RTVSPost2010PropOp35
 70
     1
102
RTVSPost2010Prop36
280
     0
102
RTVSPost2010PropOp36
 70
     1
102
RTVSPost2010Prop37
 90
       50
102
RTVSPost2010PropOp37
 70
     1
102
RTVSPost2010Prop38
140
0.0
102
RTVSPost2010PropOp38
 70
     1
102
RTVSPost2010Prop39
140
1.0
102
RTVSPost2010PropOp39
 70
     1
102
RTVSPost2010Prop40
 90
        0
102
RTVSPost2010PropOp40
 70
     1
102
RTVSPost2010Prop41ColorIndex
 90
       18
102
RTVSPost2010Prop41ColorRGB
 90
        0
102
RTVSPost2010PropOp41
 70
     1
102
RTVSPost2010Prop42
 90
       50
102
RTVSPost2010PropOp42
 70
     1
102
RTVSPost2010Prop43
 90
        3
102
RTVSPost2010PropOp43
 70
     1
102
RTVSPost2010Prop44ColorIndex
 90
        5
102
RTVSPost2010Prop44ColorRGB
 90
      255
102
RTVSPost2010PropOp44
 70
     1
102
RTVSPost2010Prop45
280
     0
102
RTVSPost2010PropOp45
 70
     1
102
RTVSPost2010Prop46
 90
       50
102
RTVSPost2010PropOp46
 70
     1
102
RTVSPost2010Prop47
 90
       50
102
RTVSPost2010PropOp47
 70
     1
102
RTVSPost2010Prop48
 90
       50
102
RTVSPost2010PropOp48
 70
     1
102
RTVSPost2010Prop49
280
     0
102
RTVSPost2010PropOp49
 70
     1
102
RTVSPost2010Prop50
 90
       50
102
RTVSPost2010PropOp50
 70
     1
102
RTVSPost2010Prop51ColorIndex
 90
      256
102
RTVSPost2010Prop51ColorRGB
 90
-16777216
102
RTVSPost2010PropOp51
 70
     0
102
RTVSPost2010Prop52
140
1.0
102
RTVSPost2010PropOp52
 70
     0
102
RTVSPost2010Prop53
 90
        2
102
RTVSPost2010PropOp53
 70
     1
102
RTVSPost2010Prop54
  1
strokes_ogs.tif
102
RTVSPost2010PropOp54
 70
     1
102
RTVSPost2010Prop55
280
     0
102
RTVSPost2010PropOp55
 70
     1
102
RTVSPost2010Prop56
140
1.0
102
RTVSPost2010PropOp56
 70
     1
102
RTVSPost2010Prop57
140
1.0
102
RTVSPost2010PropOp57
 70
     1
102
RTVSPropertyOp0
 70
     1
102
RTVSPropertyOp1
 70
     1
102
RTVSPropertyOp2
 70
     1
102
RTVSPropertyOp3
 70
     1
102
RTVSPropertyOp4
 70
     1
102
RTVSPropertyOp5
 70
     1
102
RTVSPropertyOp6
 70
     1
102
RTVSPropertyOp7
 70
     1
102
RTVSPropertyOp8
 70
     1
102
RTVSPropertyOp9
 70
     1
102
RTVSPropertyOp10
 70
     1
102
RTVSPropertyOp11
 70
     1
102
RTVSPropertyOp12
 70
     1
102
RTVSPropertyOp13
 70
     1
102
RTVSPropertyOp14
 70
     1
102
RTVSPropertyOp15
 70
     1
102
RTVSPropertyOp16
 70
     1
102
RTVSPropertyOp17
 70
     1
102
RTVSPropertyOp18
 70
     1
102
RTVSPropertyOp19
 70
     1
102
RTVSPropertyOp20
 70
     1
102
RTVSPropertyOp21
 70
     1
102
RTVSPropertyOp22
 70
     1
102
RTVSPropertyOp23
 70
     1
102
RTVSPropertyOp24
 70
     1
102
RTVSPropertyOp25
 70
     1
102
RTVSPropertyOp26
 70
     1
102
RTVSPropertyOp27
 70
     1
102
RTVSPropertyOp28
 70
     1
102
RTVSPropertyOp29
 70
     1
102
RTVSPropertyOp30
 70
     1
102
RTVSPropertyOp31
 70
     1
102
RTVSPropertyOp32
 70
     1
102
RTVSPropertyOp33
 70
     1
102
RTVSPropertyOp34
 70
     1
102
RTVSPropertyOp35
 70
     1
102
RTVSPropertyOp36
 70
     1
102
RTVSPropertyOp37
 70
     1
102
RTVSPropertyOp38
 70
     1
102
RTVSPropertyOp39
 70
     1
102
RTVSPropertyOp40
 70
     1
102
RTVSPropertyOp41
 70
     1
102
RTVSPropertyOp42
 70
     1
102
RTVSPropertyOp43
 70
     1
102
RTVSPropertyOp44
 70
     1
102
RTVSPropertyOp45
 70
     1
102
RTVSPropertyOp46
 70
     1
102
RTVSPropertyOp47
 70
     1
102
RTVSPropertyOp48
 70
     1
102
RTVSPropertyOp49
 70
     1
102
RTVSPropertyOp50
 70
     1
102
RTVSPropertyOp51
 70
     0
102
RTVSPropertyOp52
 70
     0
102
RTVSPropertyOp53
 70
     1
102
RTVSPropertyOp54
 70
     1
102
RTVSPropertyOp55
 70
     1
102
RTVSPropertyOp56
 70
     1
102
RTVSPropertyOp57
 70
     1
102
RTVSPropertyOp58
 70
     1
102
RTVSPropertyOp59
 70
     1
102
RTVSPropertyOp60
 70
     1
102
RTVSPropertyOp61
 70
     1
102
RTVSPropertyOp62
 70
     1
  0
XRECORD
  5
314
102
{ACAD_REACTORS
330
313
102
}
330
313
100
AcDbXrecord
280
     1
102
RTVSPost2010Prop28
280
     0
102
RTVSPost2010PropOp28
 70
     1
102
RTVSPost2010Prop29
280
     1
102
RTVSPost2010PropOp29
 70
     1
102
RTVSPost2010Prop30
280
     1
102
RTVSPost2010PropOp30
 70
     1
102
RTVSPost2010Prop31
280
     0
102
RTVSPost2010PropOp31
 70
     1
102
RTVSPost2010Prop32
280
     0
102
RTVSPost2010PropOp32
 70
     1
102
RTVSPost2010Prop33
280
     0
102
RTVSPost2010PropOp33
 70
     1
102
RTVSPost2010Prop34
280
     0
102
RTVSPost2010PropOp34
 70
     1
102
RTVSPost2010Prop35
280
     0
102
RTVSPost2010PropOp35
 70
     1
102
RTVSPost2010Prop36
280
     0
102
RTVSPost2010PropOp36
 70
     1
102
RTVSPost2010Prop37
 90
       50
102
RTVSPost2010PropOp37
 70
     0
102
RTVSPost2010Prop38
140
0.0
102
RTVSPost2010PropOp38
 70
     0
102
RTVSPost2010Prop39
140
1.0
102
RTVSPost2010PropOp39
 70
     0
102
RTVSPost2010Prop40
 90
        0
102
RTVSPost2010PropOp40
 70
     0
102
RTVSPost2010Prop41ColorIndex
 90
       18
102
RTVSPost2010Prop41ColorRGB
 90
        0
102
RTVSPost2010PropOp41
 70
     0
102
RTVSPost2010Prop42
 90
       50
102
RTVSPost2010PropOp42
 70
     0
102
RTVSPost2010Prop43
 90
        3
102
RTVSPost2010PropOp43
 70
     0
102
RTVSPost2010Prop44ColorIndex
 90
        5
102
RTVSPost2010Prop44ColorRGB
 90
      255
102
RTVSPost2010PropOp44
 70
     0
102
RTVSPost2010Prop45
280
     0
102
RTVSPost2010PropOp45
 70
     1
102
RTVSPost2010Prop46
 90
       50
102
RTVSPost2010PropOp46
 70
     0
102
RTVSPost2010Prop47
 90
       50
102
RTVSPost2010PropOp47
 70
     0
102
RTVSPost2010Prop48
 90
       50
102
RTVSPost2010PropOp48
 70
     0
102
RTVSPost2010Prop49
280
     0
102
RTVSPost2010PropOp49
 70
     1
102
RTVSPost2010Prop50
 90
       50
102
RTVSPost2010PropOp50
 70
     0
102
RTVSPost2010Prop51ColorIndex
 90
      256
102
RTVSPost2010Prop51ColorRGB
 90
-16777216
102
RTVSPost2010PropOp51
 70
     0
102
RTVSPost2010Prop52
140
1.0
102
RTVSPost2010PropOp52
 70
     0
102
RTVSPost2010Prop53
 90
        2
102
RTVSPost2010PropOp53
 70
     0
102
RTVSPost2010Prop54
  1
strokes_ogs.tif
102
RTVSPost2010PropOp54
 70
     0
102
RTVSPost2010Prop55
280
     0
102
RTVSPost2010PropOp55
 70
     1
102
RTVSPost2010Prop56
140
1.0
102
RTVSPost2010PropOp56
 70
     0
102
RTVSPost2010Prop57
140
1.0
102
RTVSPost2010PropOp57
 70
     0
102
RTVSPropertyOp0
 70
     0
102
RTVSPropertyOp1
 70
     0
102
RTVSPropertyOp2
 70
     0
102
RTVSPropertyOp3
 70
     0
102
RTVSPropertyOp4
 70
     0
102
RTVSPropertyOp5
 70
     0
102
RTVSPropertyOp6
 70
     0
102
RTVSPropertyOp7
 70
     0
102
RTVSPropertyOp8
 70
     0
102
RTVSPropertyOp9
 70
     0
102
RTVSPropertyOp10
 70
     0
102
RTVSPropertyOp11
 70
     0
102
RTVSPropertyOp12
 70
     0
102
RTVSPropertyOp13
 70
     0
102
RTVSPropertyOp14
 70
     2
102
RTVSPropertyOp15
 70
     0
102
RTVSPropertyOp16
 70
     0
102
RTVSPropertyOp17
 70
     0
102
RTVSPropertyOp18
 70
     0
102
RTVSPropertyOp19
 70
     0
102
RTVSPropertyOp20
 70
     0
102
RTVSPropertyOp21
 70
     0
102
RTVSPropertyOp22
 70
     0
102
RTVSPropertyOp23
 70
     0
102
RTVSPropertyOp24
 70
     0
102
RTVSPropertyOp25
 70
     0
102
RTVSPropertyOp26
 70
     0
102
RTVSPropertyOp27
 70
     0
102
RTVSPropertyOp28
 70
     1
102
RTVSPropertyOp29
 70
     1
102
RTVSPropertyOp30
 70
     1
102
RTVSPropertyOp31
 70
     1
102
RTVSPropertyOp32
 70
     1
102
RTVSPropertyOp33
 70
     1
102
RTVSPropertyOp34
 70
     1
102
RTVSPropertyOp35
 70
     1
102
RTVSPropertyOp36
 70
     1
102
RTVSPropertyOp37
 70
     0
102
RTVSPropertyOp38
 70
     0
102
RTVSPropertyOp39
 70
     0
102
RTVSPropertyOp40
 70
     0
102
RTVSPropertyOp41
 70
     0
102
RTVSPropertyOp42
 70
     0
102
RTVSPropertyOp43
 70
     0
102
RTVSPropertyOp44
 70
     0
102
RTVSPropertyOp45
 70
     1
102
RTVSPropertyOp46
 70
     0
102
RTVSPropertyOp47
 70
     0
102
RTVSPropertyOp48
 70
     0
102
RTVSPropertyOp49
 70
     1
102
RTVSPropertyOp50
 70
     0
102
RTVSPropertyOp51
 70
     0
102
RTVSPropertyOp52
 70
     0
102
RTVSPropertyOp53
 70
     0
102
RTVSPropertyOp54
 70
     0
102
RTVSPropertyOp55
 70
     1
102
RTVSPropertyOp56
 70
     0
102
RTVSPropertyOp57
 70
     0
102
RTVSPropertyOp58
 70
     0
102
RTVSPropertyOp59
 70
     0
102
RTVSPropertyOp60
 70
     0
102
RTVSPropertyOp61
 70
     0
102
RTVSPropertyOp62
 70
     0
  0
XRECORD
  5
304
102
{ACAD_REACTORS
330
303
102
}
330
303
100
AcDbXrecord
280
     1
102
RTVSPost2010Prop28
280
     0
102
RTVSPost2010PropOp28
 70
     1
102
RTVSPost2010Prop29
280
     1
102
RTVSPost2010PropOp29
 70
     1
102
RTVSPost2010Prop30
280
     1
102
RTVSPost2010PropOp30
 70
     1
102
RTVSPost2010Prop31
280
     0
102
RTVSPost2010PropOp31
 70
     1
102
RTVSPost2010Prop32
280
     0
102
RTVSPost2010PropOp32
 70
     1
102
RTVSPost2010Prop33
280
     0
102
RTVSPost2010PropOp33
 70
     1
102
RTVSPost2010Prop34
280
     0
102
RTVSPost2010PropOp34
 70
     1
102
RTVSPost2010Prop35
280
     0
102
RTVSPost2010PropOp35
 70
     1
102
RTVSPost2010Prop36
280
     0
102
RTVSPost2010PropOp36
 70
     1
102
RTVSPost2010Prop37
 90
       50
102
RTVSPost2010PropOp37
 70
     1
102
RTVSPost2010Prop38
140
0.0
102
RTVSPost2010PropOp38
 70
     1
102
RTVSPost2010Prop39
140
1.0
102
RTVSPost2010PropOp39
 70
     1
102
RTVSPost2010Prop40
 90
        0
102
RTVSPost2010PropOp40
 70
     1
102
RTVSPost2010Prop41ColorIndex
 90
       18
102
RTVSPost2010Prop41ColorRGB
 90
        0
102
RTVSPost2010PropOp41
 70
     1
102
RTVSPost2010Prop42
 90
       50
102
RTVSPost2010PropOp42
 70
     1
102
RTVSPost2010Prop43
 90
        3
102
RTVSPost2010PropOp43
 70
     1
102
RTVSPost2010Prop44ColorIndex
 90
        5
102
RTVSPost2010Prop44ColorRGB
 90
      255
102
RTVSPost2010PropOp44
 70
     1
102
RTVSPost2010Prop45
280
     0
102
RTVSPost2010PropOp45
 70
     1
102
RTVSPost2010Prop46
 90
       50
102
RTVSPost2010PropOp46
 70
     1
102
RTVSPost2010Prop47
 90
       50
102
RTVSPost2010PropOp47
 70
     1
102
RTVSPost2010Prop48
 90
       50
102
RTVSPost2010PropOp48
 70
     1
102
RTVSPost2010Prop49
280
     0
102
RTVSPost2010PropOp49
 70
     1
102
RTVSPost2010Prop50
 90
       50
102
RTVSPost2010PropOp50
 70
     1
102
RTVSPost2010Prop51ColorIndex
 90
      256
102
RTVSPost2010Prop51ColorRGB
 90
-16777216
102
RTVSPost2010PropOp51
 70
     0
102
RTVSPost2010Prop52
140
1.0
102
RTVSPost2010PropOp52
 70
     0
102
RTVSPost2010Prop53
 90
        2
102
RTVSPost2010PropOp53
 70
     1
102
RTVSPost2010Prop54
  1
strokes_ogs.tif
102
RTVSPost2010PropOp54
 70
     1
102
RTVSPost2010Prop55
280
     0
102
RTVSPost2010PropOp55
 70
     1
102
RTVSPost2010Prop56
140
1.0
102
RTVSPost2010PropOp56
 70
     1
102
RTVSPost2010Prop57
140
1.0
102
RTVSPost2010PropOp57
 70
     1
102
RTVSPropertyOp0
 70
     1
102
RTVSPropertyOp1
 70
     1
102
RTVSPropertyOp2
 70
     1
102
RTVSPropertyOp3
 70
     1
102
RTVSPropertyOp4
 70
     1
102
RTVSPropertyOp5
 70
     1
102
RTVSPropertyOp6
 70
     1
102
RTVSPropertyOp7
 70
     1
102
RTVSPropertyOp8
 70
     1
102
RTVSPropertyOp9
 70
     1
102
RTVSPropertyOp10
 70
     1
102
RTVSPropertyOp11
 70
     1
102
RTVSPropertyOp12
 70
     1
102
RTVSPropertyOp13
 70
     1
102
RTVSPropertyOp14
 70
     1
102
RTVSPropertyOp15
 70
     1
102
RTVSPropertyOp16
 70
     1
102
RTVSPropertyOp17
 70
     1
102
RTVSPropertyOp18
 70
     1
102
RTVSPropertyOp19
 70
     1
102
RTVSPropertyOp20
 70
     1
102
RTVSPropertyOp21
 70
     1
102
RTVSPropertyOp22
 70
     1
102
RTVSPropertyOp23
 70
     1
102
RTVSPropertyOp24
 70
     1
102
RTVSPropertyOp25
 70
     1
102
RTVSPropertyOp26
 70
     1
102
RTVSPropertyOp27
 70
     1
102
RTVSPropertyOp28
 70
     1
102
RTVSPropertyOp29
 70
     1
102
RTVSPropertyOp30
 70
     1
102
RTVSPropertyOp31
 70
     1
102
RTVSPropertyOp32
 70
     1
102
RTVSPropertyOp33
 70
     1
102
RTVSPropertyOp34
 70
     1
102
RTVSPropertyOp35
 70
     1
102
RTVSPropertyOp36
 70
     1
102
RTVSPropertyOp37
 70
     1
102
RTVSPropertyOp38
 70
     1
102
RTVSPropertyOp39
 70
     1
102
RTVSPropertyOp40
 70
     1
102
RTVSPropertyOp41
 70
     1
102
RTVSPropertyOp42
 70
     1
102
RTVSPropertyOp43
 70
     1
102
RTVSPropertyOp44
 70
     1
102
RTVSPropertyOp45
 70
     1
102
RTVSPropertyOp46
 70
     1
102
RTVSPropertyOp47
 70
     1
102
RTVSPropertyOp48
 70
     1
102
RTVSPropertyOp49
 70
     1
102
RTVSPropertyOp50
 70
     1
102
RTVSPropertyOp51
 70
     0
102
RTVSPropertyOp52
 70
     0
102
RTVSPropertyOp53
 70
     1
102
RTVSPropertyOp54
 70
     1
102
RTVSPropertyOp55
 70
     1
102
RTVSPropertyOp56
 70
     1
102
RTVSPropertyOp57
 70
     1
102
RTVSPropertyOp58
 70
     1
102
RTVSPropertyOp59
 70
     1
102
RTVSPropertyOp60
 70
     1
102
RTVSPropertyOp61
 70
     1
102
RTVSPropertyOp62
 70
     1
  0
XRECORD
  5
316
102
{ACAD_REACTORS
330
315
102
}
330
315
100
AcDbXrecord
280
     1
102
RTVSPost2010Prop28
280
     0
102
RTVSPost2010PropOp28
 70
     1
102
RTVSPost2010Prop29
280
     1
102
RTVSPost2010PropOp29
 70
     1
102
RTVSPost2010Prop30
280
     1
102
RTVSPost2010PropOp30
 70
     1
102
RTVSPost2010Prop31
280
     0
102
RTVSPost2010PropOp31
 70
     1
102
RTVSPost2010Prop32
280
     0
102
RTVSPost2010PropOp32
 70
     1
102
RTVSPost2010Prop33
280
     0
102
RTVSPost2010PropOp33
 70
     1
102
RTVSPost2010Prop34
280
     0
102
RTVSPost2010PropOp34
 70
     1
102
RTVSPost2010Prop35
280
     0
102
RTVSPost2010PropOp35
 70
     1
102
RTVSPost2010Prop36
280
     0
102
RTVSPost2010PropOp36
 70
     1
102
RTVSPost2010Prop37
 90
       50
102
RTVSPost2010PropOp37
 70
     0
102
RTVSPost2010Prop38
140
0.0
102
RTVSPost2010PropOp38
 70
     0
102
RTVSPost2010Prop39
140
1.0
102
RTVSPost2010PropOp39
 70
     0
102
RTVSPost2010Prop40
 90
        0
102
RTVSPost2010PropOp40
 70
     0
102
RTVSPost2010Prop41ColorIndex
 90
       18
102
RTVSPost2010Prop41ColorRGB
 90
        0
102
RTVSPost2010PropOp41
 70
     0
102
RTVSPost2010Prop42
 90
       50
102
RTVSPost2010PropOp42
 70
     0
102
RTVSPost2010Prop43
 90
        3
102
RTVSPost2010PropOp43
 70
     0
102
RTVSPost2010Prop44ColorIndex
 90
        5
102
RTVSPost2010Prop44ColorRGB
 90
      255
102
RTVSPost2010PropOp44
 70
     0
102
RTVSPost2010Prop45
280
     0
102
RTVSPost2010PropOp45
 70
     1
102
RTVSPost2010Prop46
 90
       50
102
RTVSPost2010PropOp46
 70
     0
102
RTVSPost2010Prop47
 90
       50
102
RTVSPost2010PropOp47
 70
     0
102
RTVSPost2010Prop48
 90
       50
102
RTVSPost2010PropOp48
 70
     0
102
RTVSPost2010Prop49
280
     0
102
RTVSPost2010PropOp49
 70
     1
102
RTVSPost2010Prop50
 90
       50
102
RTVSPost2010PropOp50
 70
     0
102
RTVSPost2010Prop51ColorIndex
 90
      256
102
RTVSPost2010Prop51ColorRGB
 90
-16777216
102
RTVSPost2010PropOp51
 70
     0
102
RTVSPost2010Prop52
140
1.0
102
RTVSPost2010PropOp52
 70
     0
102
RTVSPost2010Prop53
 90
        2
102
RTVSPost2010PropOp53
 70
     0
102
RTVSPost2010Prop54
  1
strokes_ogs.tif
102
RTVSPost2010PropOp54
 70
     0
102
RTVSPost2010Prop55
280
     0
102
RTVSPost2010PropOp55
 70
     1
102
RTVSPost2010Prop56
140
1.0
102
RTVSPost2010PropOp56
 70
     0
102
RTVSPost2010Prop57
140
1.0
102
RTVSPost2010PropOp57
 70
     0
102
RTVSPropertyOp0
 70
     0
102
RTVSPropertyOp1
 70
     0
102
RTVSPropertyOp2
 70
     0
102
RTVSPropertyOp3
 70
     0
102
RTVSPropertyOp4
 70
     0
102
RTVSPropertyOp5
 70
     0
102
RTVSPropertyOp6
 70
     0
102
RTVSPropertyOp7
 70
     0
102
RTVSPropertyOp8
 70
     0
102
RTVSPropertyOp9
 70
     0
102
RTVSPropertyOp10
 70
     0
102
RTVSPropertyOp11
 70
     0
102
RTVSPropertyOp12
 70
     0
102
RTVSPropertyOp13
 70
     0
102
RTVSPropertyOp14
 70
     2
102
RTVSPropertyOp15
 70
     0
102
RTVSPropertyOp16
 70
     0
102
RTVSPropertyOp17
 70
     0
102
RTVSPropertyOp18
 70
     0
102
RTVSPropertyOp19
 70
     0
102
RTVSPropertyOp20
 70
     0
102
RTVSPropertyOp21
 70
     0
102
RTVSPropertyOp22
 70
     0
102
RTVSPropertyOp23
 70
     0
102
RTVSPropertyOp24
 70
     0
102
RTVSPropertyOp25
 70
     0
102
RTVSPropertyOp26
 70
     0
102
RTVSPropertyOp27
 70
     0
102
RTVSPropertyOp28
 70
     1
102
RTVSPropertyOp29
 70
     1
102
RTVSPropertyOp30
 70
     1
102
RTVSPropertyOp31
 70
     1
102
RTVSPropertyOp32
 70
     1
102
RTVSPropertyOp33
 70
     1
102
RTVSPropertyOp34
 70
     1
102
RTVSPropertyOp35
 70
     1
102
RTVSPropertyOp36
 70
     1
102
RTVSPropertyOp37
 70
     0
102
RTVSPropertyOp38
 70
     0
102
RTVSPropertyOp39
 70
     0
102
RTVSPropertyOp40
 70
     0
102
RTVSPropertyOp41
 70
     0
102
RTVSPropertyOp42
 70
     0
102
RTVSPropertyOp43
 70
     0
102
RTVSPropertyOp44
 70
     0
102
RTVSPropertyOp45
 70
     1
102
RTVSPropertyOp46
 70
     0
102
RTVSPropertyOp47
 70
     0
102
RTVSPropertyOp48
 70
     0
102
RTVSPropertyOp49
 70
     1
102
RTVSPropertyOp50
 70
     0
102
RTVSPropertyOp51
 70
     0
102
RTVSPropertyOp52
 70
     0
102
RTVSPropertyOp53
 70
     0
102
RTVSPropertyOp54
 70
     0
102
RTVSPropertyOp55
 70
     1
102
RTVSPropertyOp56
 70
     0
102
RTVSPropertyOp57
 70
     0
102
RTVSPropertyOp58
 70
     0
102
RTVSPropertyOp59
 70
     0
102
RTVSPropertyOp60
 70
     0
102
RTVSPropertyOp61
 70
     0
102
RTVSPropertyOp62
 70
     0
  0
XRECORD
  5
2FC
102
{ACAD_REACTORS
330
2FB
102
}
330
2FB
100
AcDbXrecord
280
     1
102
RTVSPost2010Prop28
280
     0
102
RTVSPost2010PropOp28
 70
     1
102
RTVSPost2010Prop29
280
     1
102
RTVSPost2010PropOp29
 70
     1
102
RTVSPost2010Prop30
280
     1
102
RTVSPost2010PropOp30
 70
     1
102
RTVSPost2010Prop31
280
     0
102
RTVSPost2010PropOp31
 70
     1
102
RTVSPost2010Prop32
280
     0
102
RTVSPost2010PropOp32
 70
     1
102
RTVSPost2010Prop33
280
     0
102
RTVSPost2010PropOp33
 70
     1
102
RTVSPost2010Prop34
280
     0
102
RTVSPost2010PropOp34
 70
     1
102
RTVSPost2010Prop35
280
     0
102
RTVSPost2010PropOp35
 70
     1
102
RTVSPost2010Prop36
280
     0
102
RTVSPost2010PropOp36
 70
     1
102
RTVSPost2010Prop37
 90
       50
102
RTVSPost2010PropOp37
 70
     1
102
RTVSPost2010Prop38
140
0.0
102
RTVSPost2010PropOp38
 70
     1
102
RTVSPost2010Prop39
140
1.0
102
RTVSPost2010PropOp39
 70
     1
102
RTVSPost2010Prop40
 90
        0
102
RTVSPost2010PropOp40
 70
     1
102
RTVSPost2010Prop41ColorIndex
 90
       18
102
RTVSPost2010Prop41ColorRGB
 90
        0
102
RTVSPost2010PropOp41
 70
     1
102
RTVSPost2010Prop42
 90
       50
102
RTVSPost2010PropOp42
 70
     1
102
RTVSPost2010Prop43
 90
        3
102
RTVSPost2010PropOp43
 70
     1
102
RTVSPost2010Prop44ColorIndex
 90
        5
102
RTVSPost2010Prop44ColorRGB
 90
      255
102
RTVSPost2010PropOp44
 70
     1
102
RTVSPost2010Prop45
280
     0
102
RTVSPost2010PropOp45
 70
     1
102
RTVSPost2010Prop46
 90
       50
102
RTVSPost2010PropOp46
 70
     1
102
RTVSPost2010Prop47
 90
       50
102
RTVSPost2010PropOp47
 70
     1
102
RTVSPost2010Prop48
 90
       50
102
RTVSPost2010PropOp48
 70
     1
102
RTVSPost2010Prop49
280
     0
102
RTVSPost2010PropOp49
 70
     1
102
RTVSPost2010Prop50
 90
       50
102
RTVSPost2010PropOp50
 70
     1
102
RTVSPost2010Prop51ColorIndex
 90
      256
102
RTVSPost2010Prop51ColorRGB
 90
-16777216
102
RTVSPost2010PropOp51
 70
     0
102
RTVSPost2010Prop52
140
1.0
102
RTVSPost2010PropOp52
 70
     0
102
RTVSPost2010Prop53
 90
        2
102
RTVSPost2010PropOp53
 70
     1
102
RTVSPost2010Prop54
  1
strokes_ogs.tif
102
RTVSPost2010PropOp54
 70
     1
102
RTVSPost2010Prop55
280
     0
102
RTVSPost2010PropOp55
 70
     1
102
RTVSPost2010Prop56
140
1.0
102
RTVSPost2010PropOp56
 70
     1
102
RTVSPost2010Prop57
140
1.0
102
RTVSPost2010PropOp57
 70
     1
102
RTVSPropertyOp0
 70
     1
102
RTVSPropertyOp1
 70
     1
102
RTVSPropertyOp2
 70
     1
102
RTVSPropertyOp3
 70
     1
102
RTVSPropertyOp4
 70
     1
102
RTVSPropertyOp5
 70
     1
102
RTVSPropertyOp6
 70
     1
102
RTVSPropertyOp7
 70
     1
102
RTVSPropertyOp8
 70
     1
102
RTVSPropertyOp9
 70
     1
102
RTVSPropertyOp10
 70
     1
102
RTVSPropertyOp11
 70
     1
102
RTVSPropertyOp12
 70
     1
102
RTVSPropertyOp13
 70
     1
102
RTVSPropertyOp14
 70
     1
102
RTVSPropertyOp15
 70
     1
102
RTVSPropertyOp16
 70
     1
102
RTVSPropertyOp17
 70
     1
102
RTVSPropertyOp18
 70
     1
102
RTVSPropertyOp19
 70
     1
102
RTVSPropertyOp20
 70
     1
102
RTVSPropertyOp21
 70
     1
102
RTVSPropertyOp22
 70
     1
102
RTVSPropertyOp23
 70
     1
102
RTVSPropertyOp24
 70
     1
102
RTVSPropertyOp25
 70
     1
102
RTVSPropertyOp26
 70
     1
102
RTVSPropertyOp27
 70
     1
102
RTVSPropertyOp28
 70
     1
102
RTVSPropertyOp29
 70
     1
102
RTVSPropertyOp30
 70
     1
102
RTVSPropertyOp31
 70
     1
102
RTVSPropertyOp32
 70
     1
102
RTVSPropertyOp33
 70
     1
102
RTVSPropertyOp34
 70
     1
102
RTVSPropertyOp35
 70
     1
102
RTVSPropertyOp36
 70
     1
102
RTVSPropertyOp37
 70
     1
102
RTVSPropertyOp38
 70
     1
102
RTVSPropertyOp39
 70
     1
102
RTVSPropertyOp40
 70
     1
102
RTVSPropertyOp41
 70
     1
102
RTVSPropertyOp42
 70
     1
102
RTVSPropertyOp43
 70
     1
102
RTVSPropertyOp44
 70
     1
102
RTVSPropertyOp45
 70
     1
102
RTVSPropertyOp46
 70
     1
102
RTVSPropertyOp47
 70
     1
102
RTVSPropertyOp48
 70
     1
102
RTVSPropertyOp49
 70
     1
102
RTVSPropertyOp50
 70
     1
102
RTVSPropertyOp51
 70
     0
102
RTVSPropertyOp52
 70
     0
102
RTVSPropertyOp53
 70
     1
102
RTVSPropertyOp54
 70
     1
102
RTVSPropertyOp55
 70
     1
102
RTVSPropertyOp56
 70
     1
102
RTVSPropertyOp57
 70
     1
102
RTVSPropertyOp58
 70
     1
102
RTVSPropertyOp59
 70
     1
102
RTVSPropertyOp60
 70
     1
102
RTVSPropertyOp61
 70
     1
102
RTVSPropertyOp62
 70
     1
  0
XRECORD
  5
312
102
{ACAD_REACTORS
330
311
102
}
330
311
100
AcDbXrecord
280
     1
102
RTVSPost2010Prop28
280
     0
102
RTVSPost2010PropOp28
 70
     1
102
RTVSPost2010Prop29
280
     1
102
RTVSPost2010PropOp29
 70
     1
102
RTVSPost2010Prop30
280
     1
102
RTVSPost2010PropOp30
 70
     1
102
RTVSPost2010Prop31
280
     0
102
RTVSPost2010PropOp31
 70
     1
102
RTVSPost2010Prop32
280
     0
102
RTVSPost2010PropOp32
 70
     1
102
RTVSPost2010Prop33
280
     0
102
RTVSPost2010PropOp33
 70
     1
102
RTVSPost2010Prop34
280
     0
102
RTVSPost2010PropOp34
 70
     1
102
RTVSPost2010Prop35
280
     0
102
RTVSPost2010PropOp35
 70
     1
102
RTVSPost2010Prop36
280
     0
102
RTVSPost2010PropOp36
 70
     1
102
RTVSPost2010Prop37
 90
       50
102
RTVSPost2010PropOp37
 70
     1
102
RTVSPost2010Prop38
140
0.0
102
RTVSPost2010PropOp38
 70
     1
102
RTVSPost2010Prop39
140
1.0
102
RTVSPost2010PropOp39
 70
     1
102
RTVSPost2010Prop40
 90
        0
102
RTVSPost2010PropOp40
 70
     1
102
RTVSPost2010Prop41ColorIndex
 90
       18
102
RTVSPost2010Prop41ColorRGB
 90
        0
102
RTVSPost2010PropOp41
 70
     1
102
RTVSPost2010Prop42
 90
       50
102
RTVSPost2010PropOp42
 70
     1
102
RTVSPost2010Prop43
 90
        3
102
RTVSPost2010PropOp43
 70
     1
102
RTVSPost2010Prop44ColorIndex
 90
        5
102
RTVSPost2010Prop44ColorRGB
 90
      255
102
RTVSPost2010PropOp44
 70
     1
102
RTVSPost2010Prop45
280
     0
102
RTVSPost2010PropOp45
 70
     1
102
RTVSPost2010Prop46
 90
       50
102
RTVSPost2010PropOp46
 70
     1
102
RTVSPost2010Prop47
 90
       50
102
RTVSPost2010PropOp47
 70
     1
102
RTVSPost2010Prop48
 90
       50
102
RTVSPost2010PropOp48
 70
     1
102
RTVSPost2010Prop49
280
     0
102
RTVSPost2010PropOp49
 70
     1
102
RTVSPost2010Prop50
 90
       50
102
RTVSPost2010PropOp50
 70
     1
102
RTVSPost2010Prop51ColorIndex
 90
      256
102
RTVSPost2010Prop51ColorRGB
 90
-16777216
102
RTVSPost2010PropOp51
 70
     0
102
RTVSPost2010Prop52
140
1.0
102
RTVSPost2010PropOp52
 70
     0
102
RTVSPost2010Prop53
 90
        2
102
RTVSPost2010PropOp53
 70
     1
102
RTVSPost2010Prop54
  1
strokes_ogs.tif
102
RTVSPost2010PropOp54
 70
     1
102
RTVSPost2010Prop55
280
     0
102
RTVSPost2010PropOp55
 70
     1
102
RTVSPost2010Prop56
140
1.0
102
RTVSPost2010PropOp56
 70
     1
102
RTVSPost2010Prop57
140
1.0
102
RTVSPost2010PropOp57
 70
     1
102
RTVSPropertyOp0
 70
     1
102
RTVSPropertyOp1
 70
     1
102
RTVSPropertyOp2
 70
     1
102
RTVSPropertyOp3
 70
     1
102
RTVSPropertyOp4
 70
     1
102
RTVSPropertyOp5
 70
     1
102
RTVSPropertyOp6
 70
     1
102
RTVSPropertyOp7
 70
     1
102
RTVSPropertyOp8
 70
     1
102
RTVSPropertyOp9
 70
     1
102
RTVSPropertyOp10
 70
     1
102
RTVSPropertyOp11
 70
     1
102
RTVSPropertyOp12
 70
     1
102
RTVSPropertyOp13
 70
     1
102
RTVSPropertyOp14
 70
     1
102
RTVSPropertyOp15
 70
     1
102
RTVSPropertyOp16
 70
     1
102
RTVSPropertyOp17
 70
     1
102
RTVSPropertyOp18
 70
     1
102
RTVSPropertyOp19
 70
     1
102
RTVSPropertyOp20
 70
     1
102
RTVSPropertyOp21
 70
     1
102
RTVSPropertyOp22
 70
     1
102
RTVSPropertyOp23
 70
     1
102
RTVSPropertyOp24
 70
     1
102
RTVSPropertyOp25
 70
     1
102
RTVSPropertyOp26
 70
     1
102
RTVSPropertyOp27
 70
     1
102
RTVSPropertyOp28
 70
     1
102
RTVSPropertyOp29
 70
     1
102
RTVSPropertyOp30
 70
     1
102
RTVSPropertyOp31
 70
     1
102
RTVSPropertyOp32
 70
     1
102
RTVSPropertyOp33
 70
     1
102
RTVSPropertyOp34
 70
     1
102
RTVSPropertyOp35
 70
     1
102
RTVSPropertyOp36
 70
     1
102
RTVSPropertyOp37
 70
     1
102
RTVSPropertyOp38
 70
     1
102
RTVSPropertyOp39
 70
     1
102
RTVSPropertyOp40
 70
     1
102
RTVSPropertyOp41
 70
     1
102
RTVSPropertyOp42
 70
     1
102
RTVSPropertyOp43
 70
     1
102
RTVSPropertyOp44
 70
     1
102
RTVSPropertyOp45
 70
     1
102
RTVSPropertyOp46
 70
     1
102
RTVSPropertyOp47
 70
     1
102
RTVSPropertyOp48
 70
     1
102
RTVSPropertyOp49
 70
     1
102
RTVSPropertyOp50
 70
     1
102
RTVSPropertyOp51
 70
     0
102
RTVSPropertyOp52
 70
     0
102
RTVSPropertyOp53
 70
     1
102
RTVSPropertyOp54
 70
     1
102
RTVSPropertyOp55
 70
     1
102
RTVSPropertyOp56
 70
     1
102
RTVSPropertyOp57
 70
     1
102
RTVSPropertyOp58
 70
     1
102
RTVSPropertyOp59
 70
     1
102
RTVSPropertyOp60
 70
     1
102
RTVSPropertyOp61
 70
     1
102
RTVSPropertyOp62
 70
     1
  0
XRECORD
  5
310
102
{ACAD_REACTORS
330
30F
102
}
330
30F
100
AcDbXrecord
280
     1
102
RTVSPost2010Prop28
280
     0
102
RTVSPost2010PropOp28
 70
     1
102
RTVSPost2010Prop29
280
     1
102
RTVSPost2010PropOp29
 70
     1
102
RTVSPost2010Prop30
280
     1
102
RTVSPost2010PropOp30
 70
     1
102
RTVSPost2010Prop31
280
     0
102
RTVSPost2010PropOp31
 70
     1
102
RTVSPost2010Prop32
280
     0
102
RTVSPost2010PropOp32
 70
     1
102
RTVSPost2010Prop33
280
     0
102
RTVSPost2010PropOp33
 70
     1
102
RTVSPost2010Prop34
280
     0
102
RTVSPost2010PropOp34
 70
     1
102
RTVSPost2010Prop35
280
     0
102
RTVSPost2010PropOp35
 70
     1
102
RTVSPost2010Prop36
280
     0
102
RTVSPost2010PropOp36
 70
     1
102
RTVSPost2010Prop37
 90
       50
102
RTVSPost2010PropOp37
 70
     1
102
RTVSPost2010Prop38
140
0.0
102
RTVSPost2010PropOp38
 70
     1
102
RTVSPost2010Prop39
140
1.0
102
RTVSPost2010PropOp39
 70
     1
102
RTVSPost2010Prop40
 90
        0
102
RTVSPost2010PropOp40
 70
     1
102
RTVSPost2010Prop41ColorIndex
 90
       18
102
RTVSPost2010Prop41ColorRGB
 90
        0
102
RTVSPost2010PropOp41
 70
     1
102
RTVSPost2010Prop42
 90
       50
102
RTVSPost2010PropOp42
 70
     1
102
RTVSPost2010Prop43
 90
        3
102
RTVSPost2010PropOp43
 70
     1
102
RTVSPost2010Prop44ColorIndex
 90
        5
102
RTVSPost2010Prop44ColorRGB
 90
      255
102
RTVSPost2010PropOp44
 70
     1
102
RTVSPost2010Prop45
280
     0
102
RTVSPost2010PropOp45
 70
     1
102
RTVSPost2010Prop46
 90
       50
102
RTVSPost2010PropOp46
 70
     1
102
RTVSPost2010Prop47
 90
       50
102
RTVSPost2010PropOp47
 70
     1
102
RTVSPost2010Prop48
 90
       50
102
RTVSPost2010PropOp48
 70
     1
102
RTVSPost2010Prop49
280
     0
102
RTVSPost2010PropOp49
 70
     1
102
RTVSPost2010Prop50
 90
       50
102
RTVSPost2010PropOp50
 70
     1
102
RTVSPost2010Prop51ColorIndex
 90
      256
102
RTVSPost2010Prop51ColorRGB
 90
-16777216
102
RTVSPost2010PropOp51
 70
     0
102
RTVSPost2010Prop52
140
1.0
102
RTVSPost2010PropOp52
 70
     0
102
RTVSPost2010Prop53
 90
        2
102
RTVSPost2010PropOp53
 70
     1
102
RTVSPost2010Prop54
  1
strokes_ogs.tif
102
RTVSPost2010PropOp54
 70
     1
102
RTVSPost2010Prop55
280
     0
102
RTVSPost2010PropOp55
 70
     1
102
RTVSPost2010Prop56
140
1.0
102
RTVSPost2010PropOp56
 70
     1
102
RTVSPost2010Prop57
140
1.0
102
RTVSPost2010PropOp57
 70
     1
102
RTVSPropertyOp0
 70
     1
102
RTVSPropertyOp1
 70
     1
102
RTVSPropertyOp2
 70
     1
102
RTVSPropertyOp3
 70
     1
102
RTVSPropertyOp4
 70
     1
102
RTVSPropertyOp5
 70
     1
102
RTVSPropertyOp6
 70
     1
102
RTVSPropertyOp7
 70
     1
102
RTVSPropertyOp8
 70
     1
102
RTVSPropertyOp9
 70
     1
102
RTVSPropertyOp10
 70
     1
102
RTVSPropertyOp11
 70
     1
102
RTVSPropertyOp12
 70
     1
102
RTVSPropertyOp13
 70
     1
102
RTVSPropertyOp14
 70
     1
102
RTVSPropertyOp15
 70
     1
102
RTVSPropertyOp16
 70
     1
102
RTVSPropertyOp17
 70
     1
102
RTVSPropertyOp18
 70
     1
102
RTVSPropertyOp19
 70
     1
102
RTVSPropertyOp20
 70
     1
102
RTVSPropertyOp21
 70
     1
102
RTVSPropertyOp22
 70
     1
102
RTVSPropertyOp23
 70
     1
102
RTVSPropertyOp24
 70
     1
102
RTVSPropertyOp25
 70
     1
102
RTVSPropertyOp26
 70
     1
102
RTVSPropertyOp27
 70
     1
102
RTVSPropertyOp28
 70
     1
102
RTVSPropertyOp29
 70
     1
102
RTVSPropertyOp30
 70
     1
102
RTVSPropertyOp31
 70
     1
102
RTVSPropertyOp32
 70
     1
102
RTVSPropertyOp33
 70
     1
102
RTVSPropertyOp34
 70
     1
102
RTVSPropertyOp35
 70
     1
102
RTVSPropertyOp36
 70
     1
102
RTVSPropertyOp37
 70
     1
102
RTVSPropertyOp38
 70
     1
102
RTVSPropertyOp39
 70
     1
102
RTVSPropertyOp40
 70
     1
102
RTVSPropertyOp41
 70
     1
102
RTVSPropertyOp42
 70
     1
102
RTVSPropertyOp43
 70
     1
102
RTVSPropertyOp44
 70
     1
102
RTVSPropertyOp45
 70
     1
102
RTVSPropertyOp46
 70
     1
102
RTVSPropertyOp47
 70
     1
102
RTVSPropertyOp48
 70
     1
102
RTVSPropertyOp49
 70
     1
102
RTVSPropertyOp50
 70
     1
102
RTVSPropertyOp51
 70
     0
102
RTVSPropertyOp52
 70
     0
102
RTVSPropertyOp53
 70
     1
102
RTVSPropertyOp54
 70
     1
102
RTVSPropertyOp55
 70
     1
102
RTVSPropertyOp56
 70
     1
102
RTVSPropertyOp57
 70
     1
102
RTVSPropertyOp58
 70
     1
102
RTVSPropertyOp59
 70
     1
102
RTVSPropertyOp60
 70
     1
102
RTVSPropertyOp61
 70
     1
102
RTVSPropertyOp62
 70
     1
  0
XRECORD
  5
30A
102
{ACAD_REACTORS
330
309
102
}
330
309
100
AcDbXrecord
280
     1
102
RTVSPost2010Prop28
280
     0
102
RTVSPost2010PropOp28
 70
     1
102
RTVSPost2010Prop29
280
     1
102
RTVSPost2010PropOp29
 70
     1
102
RTVSPost2010Prop30
280
     1
102
RTVSPost2010PropOp30
 70
     1
102
RTVSPost2010Prop31
280
     0
102
RTVSPost2010PropOp31
 70
     1
102
RTVSPost2010Prop32
280
     0
102
RTVSPost2010PropOp32
 70
     1
102
RTVSPost2010Prop33
280
     0
102
RTVSPost2010PropOp33
 70
     1
102
RTVSPost2010Prop34
280
     0
102
RTVSPost2010PropOp34
 70
     1
102
RTVSPost2010Prop35
280
     0
102
RTVSPost2010PropOp35
 70
     1
102
RTVSPost2010Prop36
280
     0
102
RTVSPost2010PropOp36
 70
     1
102
RTVSPost2010Prop37
 90
       50
102
RTVSPost2010PropOp37
 70
     1
102
RTVSPost2010Prop38
140
0.0
102
RTVSPost2010PropOp38
 70
     1
102
RTVSPost2010Prop39
140
1.0
102
RTVSPost2010PropOp39
 70
     1
102
RTVSPost2010Prop40
 90
        0
102
RTVSPost2010PropOp40
 70
     1
102
RTVSPost2010Prop41ColorIndex
 90
       18
102
RTVSPost2010Prop41ColorRGB
 90
        0
102
RTVSPost2010PropOp41
 70
     1
102
RTVSPost2010Prop42
 90
       50
102
RTVSPost2010PropOp42
 70
     1
102
RTVSPost2010Prop43
 90
        3
102
RTVSPost2010PropOp43
 70
     1
102
RTVSPost2010Prop44ColorIndex
 90
        5
102
RTVSPost2010Prop44ColorRGB
 90
      255
102
RTVSPost2010PropOp44
 70
     1
102
RTVSPost2010Prop45
280
     0
102
RTVSPost2010PropOp45
 70
     1
102
RTVSPost2010Prop46
 90
       50
102
RTVSPost2010PropOp46
 70
     1
102
RTVSPost2010Prop47
 90
       50
102
RTVSPost2010PropOp47
 70
     1
102
RTVSPost2010Prop48
 90
       50
102
RTVSPost2010PropOp48
 70
     1
102
RTVSPost2010Prop49
280
     0
102
RTVSPost2010PropOp49
 70
     1
102
RTVSPost2010Prop50
 90
       50
102
RTVSPost2010PropOp50
 70
     1
102
RTVSPost2010Prop51ColorIndex
 90
      256
102
RTVSPost2010Prop51ColorRGB
 90
-16777216
102
RTVSPost2010PropOp51
 70
     0
102
RTVSPost2010Prop52
140
1.0
102
RTVSPost2010PropOp52
 70
     0
102
RTVSPost2010Prop53
 90
        2
102
RTVSPost2010PropOp53
 70
     1
102
RTVSPost2010Prop54
  1
strokes_ogs.tif
102
RTVSPost2010PropOp54
 70
     1
102
RTVSPost2010Prop55
280
     0
102
RTVSPost2010PropOp55
 70
     1
102
RTVSPost2010Prop56
140
1.0
102
RTVSPost2010PropOp56
 70
     1
102
RTVSPost2010Prop57
140
1.0
102
RTVSPost2010PropOp57
 70
     1
102
RTVSPropertyOp0
 70
     1
102
RTVSPropertyOp1
 70
     1
102
RTVSPropertyOp2
 70
     1
102
RTVSPropertyOp3
 70
     1
102
RTVSPropertyOp4
 70
     1
102
RTVSPropertyOp5
 70
     1
102
RTVSPropertyOp6
 70
     1
102
RTVSPropertyOp7
 70
     1
102
RTVSPropertyOp8
 70
     1
102
RTVSPropertyOp9
 70
     1
102
RTVSPropertyOp10
 70
     1
102
RTVSPropertyOp11
 70
     1
102
RTVSPropertyOp12
 70
     1
102
RTVSPropertyOp13
 70
     1
102
RTVSPropertyOp14
 70
     1
102
RTVSPropertyOp15
 70
     1
102
RTVSPropertyOp16
 70
     1
102
RTVSPropertyOp17
 70
     1
102
RTVSPropertyOp18
 70
     1
102
RTVSPropertyOp19
 70
     1
102
RTVSPropertyOp20
 70
     1
102
RTVSPropertyOp21
 70
     1
102
RTVSPropertyOp22
 70
     1
102
RTVSPropertyOp23
 70
     1
102
RTVSPropertyOp24
 70
     1
102
RTVSPropertyOp25
 70
     1
102
RTVSPropertyOp26
 70
     1
102
RTVSPropertyOp27
 70
     1
102
RTVSPropertyOp28
 70
     1
102
RTVSPropertyOp29
 70
     1
102
RTVSPropertyOp30
 70
     1
102
RTVSPropertyOp31
 70
     1
102
RTVSPropertyOp32
 70
     1
102
RTVSPropertyOp33
 70
     1
102
RTVSPropertyOp34
 70
     1
102
RTVSPropertyOp35
 70
     1
102
RTVSPropertyOp36
 70
     1
102
RTVSPropertyOp37
 70
     1
102
RTVSPropertyOp38
 70
     1
102
RTVSPropertyOp39
 70
     1
102
RTVSPropertyOp40
 70
     1
102
RTVSPropertyOp41
 70
     1
102
RTVSPropertyOp42
 70
     1
102
RTVSPropertyOp43
 70
     1
102
RTVSPropertyOp44
 70
     1
102
RTVSPropertyOp45
 70
     1
102
RTVSPropertyOp46
 70
     1
102
RTVSPropertyOp47
 70
     1
102
RTVSPropertyOp48
 70
     1
102
RTVSPropertyOp49
 70
     1
102
RTVSPropertyOp50
 70
     1
102
RTVSPropertyOp51
 70
     0
102
RTVSPropertyOp52
 70
     0
102
RTVSPropertyOp53
 70
     1
102
RTVSPropertyOp54
 70
     1
102
RTVSPropertyOp55
 70
     1
102
RTVSPropertyOp56
 70
     1
102
RTVSPropertyOp57
 70
     1
102
RTVSPropertyOp58
 70
     1
102
RTVSPropertyOp59
 70
     1
102
RTVSPropertyOp60
 70
     1
102
RTVSPropertyOp61
 70
     1
102
RTVSPropertyOp62
 70
     1
  0
XRECORD
  5
30C
102
{ACAD_REACTORS
330
30B
102
}
330
30B
100
AcDbXrecord
280
     1
102
RTVSPost2010Prop28
280
     0
102
RTVSPost2010PropOp28
 70
     1
102
RTVSPost2010Prop29
280
     1
102
RTVSPost2010PropOp29
 70
     1
102
RTVSPost2010Prop30
280
     1
102
RTVSPost2010PropOp30
 70
     1
102
RTVSPost2010Prop31
280
     0
102
RTVSPost2010PropOp31
 70
     1
102
RTVSPost2010Prop32
280
     0
102
RTVSPost2010PropOp32
 70
     1
102
RTVSPost2010Prop33
280
     0
102
RTVSPost2010PropOp33
 70
     1
102
RTVSPost2010Prop34
280
     0
102
RTVSPost2010PropOp34
 70
     1
102
RTVSPost2010Prop35
280
     0
102
RTVSPost2010PropOp35
 70
     1
102
RTVSPost2010Prop36
280
     0
102
RTVSPost2010PropOp36
 70
     1
102
RTVSPost2010Prop37
 90
       50
102
RTVSPost2010PropOp37
 70
     1
102
RTVSPost2010Prop38
140
0.0
102
RTVSPost2010PropOp38
 70
     1
102
RTVSPost2010Prop39
140
1.0
102
RTVSPost2010PropOp39
 70
     1
102
RTVSPost2010Prop40
 90
        0
102
RTVSPost2010PropOp40
 70
     1
102
RTVSPost2010Prop41ColorIndex
 90
       18
102
RTVSPost2010Prop41ColorRGB
 90
        0
102
RTVSPost2010PropOp41
 70
     1
102
RTVSPost2010Prop42
 90
       50
102
RTVSPost2010PropOp42
 70
     1
102
RTVSPost2010Prop43
 90
        3
102
RTVSPost2010PropOp43
 70
     1
102
RTVSPost2010Prop44ColorIndex
 90
        5
102
RTVSPost2010Prop44ColorRGB
 90
      255
102
RTVSPost2010PropOp44
 70
     1
102
RTVSPost2010Prop45
280
     0
102
RTVSPost2010PropOp45
 70
     1
102
RTVSPost2010Prop46
 90
       50
102
RTVSPost2010PropOp46
 70
     1
102
RTVSPost2010Prop47
 90
       50
102
RTVSPost2010PropOp47
 70
     1
102
RTVSPost2010Prop48
 90
       50
102
RTVSPost2010PropOp48
 70
     1
102
RTVSPost2010Prop49
280
     0
102
RTVSPost2010PropOp49
 70
     1
102
RTVSPost2010Prop50
 90
       50
102
RTVSPost2010PropOp50
 70
     1
102
RTVSPost2010Prop51ColorIndex
 90
      256
102
RTVSPost2010Prop51ColorRGB
 90
-16777216
102
RTVSPost2010PropOp51
 70
     0
102
RTVSPost2010Prop52
140
1.0
102
RTVSPost2010PropOp52
 70
     0
102
RTVSPost2010Prop53
 90
        2
102
RTVSPost2010PropOp53
 70
     1
102
RTVSPost2010Prop54
  1
strokes_ogs.tif
102
RTVSPost2010PropOp54
 70
     1
102
RTVSPost2010Prop55
280
     0
102
RTVSPost2010PropOp55
 70
     1
102
RTVSPost2010Prop56
140
1.0
102
RTVSPost2010PropOp56
 70
     1
102
RTVSPost2010Prop57
140
1.0
102
RTVSPost2010PropOp57
 70
     1
102
RTVSPropertyOp0
 70
     1
102
RTVSPropertyOp1
 70
     1
102
RTVSPropertyOp2
 70
     1
102
RTVSPropertyOp3
 70
     1
102
RTVSPropertyOp4
 70
     1
102
RTVSPropertyOp5
 70
     1
102
RTVSPropertyOp6
 70
     1
102
RTVSPropertyOp7
 70
     1
102
RTVSPropertyOp8
 70
     1
102
RTVSPropertyOp9
 70
     1
102
RTVSPropertyOp10
 70
     1
102
RTVSPropertyOp11
 70
     1
102
RTVSPropertyOp12
 70
     1
102
RTVSPropertyOp13
 70
     1
102
RTVSPropertyOp14
 70
     1
102
RTVSPropertyOp15
 70
     1
102
RTVSPropertyOp16
 70
     1
102
RTVSPropertyOp17
 70
     1
102
RTVSPropertyOp18
 70
     1
102
RTVSPropertyOp19
 70
     1
102
RTVSPropertyOp20
 70
     1
102
RTVSPropertyOp21
 70
     1
102
RTVSPropertyOp22
 70
     1
102
RTVSPropertyOp23
 70
     1
102
RTVSPropertyOp24
 70
     1
102
RTVSPropertyOp25
 70
     1
102
RTVSPropertyOp26
 70
     1
102
RTVSPropertyOp27
 70
     1
102
RTVSPropertyOp28
 70
     1
102
RTVSPropertyOp29
 70
     1
102
RTVSPropertyOp30
 70
     1
102
RTVSPropertyOp31
 70
     1
102
RTVSPropertyOp32
 70
     1
102
RTVSPropertyOp33
 70
     1
102
RTVSPropertyOp34
 70
     1
102
RTVSPropertyOp35
 70
     1
102
RTVSPropertyOp36
 70
     1
102
RTVSPropertyOp37
 70
     1
102
RTVSPropertyOp38
 70
     1
102
RTVSPropertyOp39
 70
     1
102
RTVSPropertyOp40
 70
     1
102
RTVSPropertyOp41
 70
     1
102
RTVSPropertyOp42
 70
     1
102
RTVSPropertyOp43
 70
     1
102
RTVSPropertyOp44
 70
     1
102
RTVSPropertyOp45
 70
     1
102
RTVSPropertyOp46
 70
     1
102
RTVSPropertyOp47
 70
     1
102
RTVSPropertyOp48
 70
     1
102
RTVSPropertyOp49
 70
     1
102
RTVSPropertyOp50
 70
     1
102
RTVSPropertyOp51
 70
     0
102
RTVSPropertyOp52
 70
     0
102
RTVSPropertyOp53
 70
     1
102
RTVSPropertyOp54
 70
     1
102
RTVSPropertyOp55
 70
     1
102
RTVSPropertyOp56
 70
     1
102
RTVSPropertyOp57
 70
     1
102
RTVSPropertyOp58
 70
     1
102
RTVSPropertyOp59
 70
     1
102
RTVSPropertyOp60
 70
     1
102
RTVSPropertyOp61
 70
     1
102
RTVSPropertyOp62
 70
     1
  0
XRECORD
  5
302
102
{ACAD_REACTORS
330
301
102
}
330
301
100
AcDbXrecord
280
     1
102
RTVSPost2010Prop28
280
     0
102
RTVSPost2010PropOp28
 70
     1
102
RTVSPost2010Prop29
280
     1
102
RTVSPost2010PropOp29
 70
     1
102
RTVSPost2010Prop30
280
     1
102
RTVSPost2010PropOp30
 70
     1
102
RTVSPost2010Prop31
280
     0
102
RTVSPost2010PropOp31
 70
     1
102
RTVSPost2010Prop32
280
     0
102
RTVSPost2010PropOp32
 70
     1
102
RTVSPost2010Prop33
280
     0
102
RTVSPost2010PropOp33
 70
     1
102
RTVSPost2010Prop34
280
     0
102
RTVSPost2010PropOp34
 70
     1
102
RTVSPost2010Prop35
280
     0
102
RTVSPost2010PropOp35
 70
     1
102
RTVSPost2010Prop36
280
     0
102
RTVSPost2010PropOp36
 70
     1
102
RTVSPost2010Prop37
 90
       50
102
RTVSPost2010PropOp37
 70
     1
102
RTVSPost2010Prop38
140
0.0
102
RTVSPost2010PropOp38
 70
     1
102
RTVSPost2010Prop39
140
1.0
102
RTVSPost2010PropOp39
 70
     1
102
RTVSPost2010Prop40
 90
        0
102
RTVSPost2010PropOp40
 70
     1
102
RTVSPost2010Prop41ColorIndex
 90
       18
102
RTVSPost2010Prop41ColorRGB
 90
        0
102
RTVSPost2010PropOp41
 70
     1
102
RTVSPost2010Prop42
 90
       50
102
RTVSPost2010PropOp42
 70
     1
102
RTVSPost2010Prop43
 90
        3
102
RTVSPost2010PropOp43
 70
     1
102
RTVSPost2010Prop44ColorIndex
 90
        5
102
RTVSPost2010Prop44ColorRGB
 90
      255
102
RTVSPost2010PropOp44
 70
     1
102
RTVSPost2010Prop45
280
     0
102
RTVSPost2010PropOp45
 70
     1
102
RTVSPost2010Prop46
 90
       50
102
RTVSPost2010PropOp46
 70
     1
102
RTVSPost2010Prop47
 90
       50
102
RTVSPost2010PropOp47
 70
     1
102
RTVSPost2010Prop48
 90
       50
102
RTVSPost2010PropOp48
 70
     1
102
RTVSPost2010Prop49
280
     0
102
RTVSPost2010PropOp49
 70
     1
102
RTVSPost2010Prop50
 90
       50
102
RTVSPost2010PropOp50
 70
     1
102
RTVSPost2010Prop51ColorIndex
 90
      256
102
RTVSPost2010Prop51ColorRGB
 90
-16777216
102
RTVSPost2010PropOp51
 70
     0
102
RTVSPost2010Prop52
140
1.0
102
RTVSPost2010PropOp52
 70
     0
102
RTVSPost2010Prop53
 90
        2
102
RTVSPost2010PropOp53
 70
     1
102
RTVSPost2010Prop54
  1
strokes_ogs.tif
102
RTVSPost2010PropOp54
 70
     1
102
RTVSPost2010Prop55
280
     0
102
RTVSPost2010PropOp55
 70
     1
102
RTVSPost2010Prop56
140
1.0
102
RTVSPost2010PropOp56
 70
     1
102
RTVSPost2010Prop57
140
1.0
102
RTVSPost2010PropOp57
 70
     1
102
RTVSPropertyOp0
 70
     1
102
RTVSPropertyOp1
 70
     1
102
RTVSPropertyOp2
 70
     1
102
RTVSPropertyOp3
 70
     1
102
RTVSPropertyOp4
 70
     1
102
RTVSPropertyOp5
 70
     1
102
RTVSPropertyOp6
 70
     1
102
RTVSPropertyOp7
 70
     1
102
RTVSPropertyOp8
 70
     1
102
RTVSPropertyOp9
 70
     1
102
RTVSPropertyOp10
 70
     1
102
RTVSPropertyOp11
 70
     1
102
RTVSPropertyOp12
 70
     1
102
RTVSPropertyOp13
 70
     1
102
RTVSPropertyOp14
 70
     1
102
RTVSPropertyOp15
 70
     1
102
RTVSPropertyOp16
 70
     1
102
RTVSPropertyOp17
 70
     1
102
RTVSPropertyOp18
 70
     1
102
RTVSPropertyOp19
 70
     1
102
RTVSPropertyOp20
 70
     1
102
RTVSPropertyOp21
 70
     1
102
RTVSPropertyOp22
 70
     1
102
RTVSPropertyOp23
 70
     1
102
RTVSPropertyOp24
 70
     1
102
RTVSPropertyOp25
 70
     1
102
RTVSPropertyOp26
 70
     1
102
RTVSPropertyOp27
 70
     1
102
RTVSPropertyOp28
 70
     1
102
RTVSPropertyOp29
 70
     1
102
RTVSPropertyOp30
 70
     1
102
RTVSPropertyOp31
 70
     1
102
RTVSPropertyOp32
 70
     1
102
RTVSPropertyOp33
 70
     1
102
RTVSPropertyOp34
 70
     1
102
RTVSPropertyOp35
 70
     1
102
RTVSPropertyOp36
 70
     1
102
RTVSPropertyOp37
 70
     1
102
RTVSPropertyOp38
 70
     1
102
RTVSPropertyOp39
 70
     1
102
RTVSPropertyOp40
 70
     1
102
RTVSPropertyOp41
 70
     1
102
RTVSPropertyOp42
 70
     1
102
RTVSPropertyOp43
 70
     1
102
RTVSPropertyOp44
 70
     1
102
RTVSPropertyOp45
 70
     1
102
RTVSPropertyOp46
 70
     1
102
RTVSPropertyOp47
 70
     1
102
RTVSPropertyOp48
 70
     1
102
RTVSPropertyOp49
 70
     1
102
RTVSPropertyOp50
 70
     1
102
RTVSPropertyOp51
 70
     0
102
RTVSPropertyOp52
 70
     0
102
RTVSPropertyOp53
 70
     1
102
RTVSPropertyOp54
 70
     1
102
RTVSPropertyOp55
 70
     1
102
RTVSPropertyOp56
 70
     1
102
RTVSPropertyOp57
 70
     1
102
RTVSPropertyOp58
 70
     1
102
RTVSPropertyOp59
 70
     1
102
RTVSPropertyOp60
 70
     1
102
RTVSPropertyOp61
 70
     1
102
RTVSPropertyOp62
 70
     1
  0
XRECORD
  5
2F6
102
{ACAD_REACTORS
330
2F5
102
}
330
2F5
100
AcDbXrecord
280
     1
102
RTVSPost2010Prop28
280
     0
102
RTVSPost2010PropOp28
 70
     1
102
RTVSPost2010Prop29
280
     1
102
RTVSPost2010PropOp29
 70
     1
102
RTVSPost2010Prop30
280
     1
102
RTVSPost2010PropOp30
 70
     1
102
RTVSPost2010Prop31
280
     0
102
RTVSPost2010PropOp31
 70
     1
102
RTVSPost2010Prop32
280
     0
102
RTVSPost2010PropOp32
 70
     1
102
RTVSPost2010Prop33
280
     0
102
RTVSPost2010PropOp33
 70
     1
102
RTVSPost2010Prop34
280
     0
102
RTVSPost2010PropOp34
 70
     1
102
RTVSPost2010Prop35
280
     0
102
RTVSPost2010PropOp35
 70
     1
102
RTVSPost2010Prop36
280
     0
102
RTVSPost2010PropOp36
 70
     1
102
RTVSPost2010Prop37
 90
       50
102
RTVSPost2010PropOp37
 70
     1
102
RTVSPost2010Prop38
140
0.0
102
RTVSPost2010PropOp38
 70
     1
102
RTVSPost2010Prop39
140
1.0
102
RTVSPost2010PropOp39
 70
     1
102
RTVSPost2010Prop40
 90
        0
102
RTVSPost2010PropOp40
 70
     1
102
RTVSPost2010Prop41ColorIndex
 90
       18
102
RTVSPost2010Prop41ColorRGB
 90
        0
102
RTVSPost2010PropOp41
 70
     1
102
RTVSPost2010Prop42
 90
       50
102
RTVSPost2010PropOp42
 70
     1
102
RTVSPost2010Prop43
 90
        3
102
RTVSPost2010PropOp43
 70
     1
102
RTVSPost2010Prop44ColorIndex
 90
        5
102
RTVSPost2010Prop44ColorRGB
 90
      255
102
RTVSPost2010PropOp44
 70
     1
102
RTVSPost2010Prop45
280
     0
102
RTVSPost2010PropOp45
 70
     1
102
RTVSPost2010Prop46
 90
       50
102
RTVSPost2010PropOp46
 70
     1
102
RTVSPost2010Prop47
 90
       50
102
RTVSPost2010PropOp47
 70
     1
102
RTVSPost2010Prop48
 90
       50
102
RTVSPost2010PropOp48
 70
     1
102
RTVSPost2010Prop49
280
     0
102
RTVSPost2010PropOp49
 70
     1
102
RTVSPost2010Prop50
 90
       50
102
RTVSPost2010PropOp50
 70
     1
102
RTVSPost2010Prop51ColorIndex
 90
      256
102
RTVSPost2010Prop51ColorRGB
 90
-16777216
102
RTVSPost2010PropOp51
 70
     0
102
RTVSPost2010Prop52
140
1.0
102
RTVSPost2010PropOp52
 70
     0
102
RTVSPost2010Prop53
 90
        2
102
RTVSPost2010PropOp53
 70
     1
102
RTVSPost2010Prop54
  1
strokes_ogs.tif
102
RTVSPost2010PropOp54
 70
     1
102
RTVSPost2010Prop55
280
     0
102
RTVSPost2010PropOp55
 70
     1
102
RTVSPost2010Prop56
140
1.0
102
RTVSPost2010PropOp56
 70
     1
102
RTVSPost2010Prop57
140
1.0
102
RTVSPost2010PropOp57
 70
     1
102
RTVSPropertyOp0
 70
     1
102
RTVSPropertyOp1
 70
     1
102
RTVSPropertyOp2
 70
     1
102
RTVSPropertyOp3
 70
     1
102
RTVSPropertyOp4
 70
     1
102
RTVSPropertyOp5
 70
     1
102
RTVSPropertyOp6
 70
     1
102
RTVSPropertyOp7
 70
     1
102
RTVSPropertyOp8
 70
     1
102
RTVSPropertyOp9
 70
     1
102
RTVSPropertyOp10
 70
     1
102
RTVSPropertyOp11
 70
     1
102
RTVSPropertyOp12
 70
     1
102
RTVSPropertyOp13
 70
     1
102
RTVSPropertyOp14
 70
     1
102
RTVSPropertyOp15
 70
     1
102
RTVSPropertyOp16
 70
     1
102
RTVSPropertyOp17
 70
     1
102
RTVSPropertyOp18
 70
     1
102
RTVSPropertyOp19
 70
     1
102
RTVSPropertyOp20
 70
     1
102
RTVSPropertyOp21
 70
     1
102
RTVSPropertyOp22
 70
     1
102
RTVSPropertyOp23
 70
     1
102
RTVSPropertyOp24
 70
     1
102
RTVSPropertyOp25
 70
     1
102
RTVSPropertyOp26
 70
     1
102
RTVSPropertyOp27
 70
     1
102
RTVSPropertyOp28
 70
     1
102
RTVSPropertyOp29
 70
     1
102
RTVSPropertyOp30
 70
     1
102
RTVSPropertyOp31
 70
     1
102
RTVSPropertyOp32
 70
     1
102
RTVSPropertyOp33
 70
     1
102
RTVSPropertyOp34
 70
     1
102
RTVSPropertyOp35
 70
     1
102
RTVSPropertyOp36
 70
     1
102
RTVSPropertyOp37
 70
     1
102
RTVSPropertyOp38
 70
     1
102
RTVSPropertyOp39
 70
     1
102
RTVSPropertyOp40
 70
     1
102
RTVSPropertyOp41
 70
     1
102
RTVSPropertyOp42
 70
     1
102
RTVSPropertyOp43
 70
     1
102
RTVSPropertyOp44
 70
     1
102
RTVSPropertyOp45
 70
     1
102
RTVSPropertyOp46
 70
     1
102
RTVSPropertyOp47
 70
     1
102
RTVSPropertyOp48
 70
     1
102
RTVSPropertyOp49
 70
     1
102
RTVSPropertyOp50
 70
     1
102
RTVSPropertyOp51
 70
     0
102
RTVSPropertyOp52
 70
     0
102
RTVSPropertyOp53
 70
     1
102
RTVSPropertyOp54
 70
     1
102
RTVSPropertyOp55
 70
     1
102
RTVSPropertyOp56
 70
     1
102
RTVSPropertyOp57
 70
     1
102
RTVSPropertyOp58
 70
     1
102
RTVSPropertyOp59
 70
     1
102
RTVSPropertyOp60
 70
     1
102
RTVSPropertyOp61
 70
     1
102
RTVSPropertyOp62
 70
     1
  0
XRECORD
  5
30E
102
{ACAD_REACTORS
330
30D
102
}
330
30D
100
AcDbXrecord
280
     1
102
RTVSPost2010Prop28
280
     0
102
RTVSPost2010PropOp28
 70
     1
102
RTVSPost2010Prop29
280
     1
102
RTVSPost2010PropOp29
 70
     1
102
RTVSPost2010Prop30
280
     1
102
RTVSPost2010PropOp30
 70
     1
102
RTVSPost2010Prop31
280
     0
102
RTVSPost2010PropOp31
 70
     1
102
RTVSPost2010Prop32
280
     0
102
RTVSPost2010PropOp32
 70
     1
102
RTVSPost2010Prop33
280
     0
102
RTVSPost2010PropOp33
 70
     1
102
RTVSPost2010Prop34
280
     0
102
RTVSPost2010PropOp34
 70
     1
102
RTVSPost2010Prop35
280
     0
102
RTVSPost2010PropOp35
 70
     1
102
RTVSPost2010Prop36
280
     0
102
RTVSPost2010PropOp36
 70
     1
102
RTVSPost2010Prop37
 90
       50
102
RTVSPost2010PropOp37
 70
     1
102
RTVSPost2010Prop38
140
0.0
102
RTVSPost2010PropOp38
 70
     1
102
RTVSPost2010Prop39
140
1.0
102
RTVSPost2010PropOp39
 70
     1
102
RTVSPost2010Prop40
 90
        0
102
RTVSPost2010PropOp40
 70
     1
102
RTVSPost2010Prop41ColorIndex
 90
       18
102
RTVSPost2010Prop41ColorRGB
 90
        0
102
RTVSPost2010PropOp41
 70
     1
102
RTVSPost2010Prop42
 90
       50
102
RTVSPost2010PropOp42
 70
     1
102
RTVSPost2010Prop43
 90
        3
102
RTVSPost2010PropOp43
 70
     1
102
RTVSPost2010Prop44ColorIndex
 90
        5
102
RTVSPost2010Prop44ColorRGB
 90
      255
102
RTVSPost2010PropOp44
 70
     1
102
RTVSPost2010Prop45
280
     0
102
RTVSPost2010PropOp45
 70
     1
102
RTVSPost2010Prop46
 90
       50
102
RTVSPost2010PropOp46
 70
     1
102
RTVSPost2010Prop47
 90
       50
102
RTVSPost2010PropOp47
 70
     1
102
RTVSPost2010Prop48
 90
       50
102
RTVSPost2010PropOp48
 70
     1
102
RTVSPost2010Prop49
280
     0
102
RTVSPost2010PropOp49
 70
     1
102
RTVSPost2010Prop50
 90
       50
102
RTVSPost2010PropOp50
 70
     1
102
RTVSPost2010Prop51ColorIndex
 90
      256
102
RTVSPost2010Prop51ColorRGB
 90
-16777216
102
RTVSPost2010PropOp51
 70
     0
102
RTVSPost2010Prop52
140
1.0
102
RTVSPost2010PropOp52
 70
     0
102
RTVSPost2010Prop53
 90
        2
102
RTVSPost2010PropOp53
 70
     1
102
RTVSPost2010Prop54
  1
strokes_ogs.tif
102
RTVSPost2010PropOp54
 70
     1
102
RTVSPost2010Prop55
280
     0
102
RTVSPost2010PropOp55
 70
     1
102
RTVSPost2010Prop56
140
1.0
102
RTVSPost2010PropOp56
 70
     1
102
RTVSPost2010Prop57
140
1.0
102
RTVSPost2010PropOp57
 70
     1
102
RTVSPropertyOp0
 70
     1
102
RTVSPropertyOp1
 70
     1
102
RTVSPropertyOp2
 70
     1
102
RTVSPropertyOp3
 70
     1
102
RTVSPropertyOp4
 70
     1
102
RTVSPropertyOp5
 70
     1
102
RTVSPropertyOp6
 70
     1
102
RTVSPropertyOp7
 70
     1
102
RTVSPropertyOp8
 70
     1
102
RTVSPropertyOp9
 70
     1
102
RTVSPropertyOp10
 70
     1
102
RTVSPropertyOp11
 70
     1
102
RTVSPropertyOp12
 70
     1
102
RTVSPropertyOp13
 70
     1
102
RTVSPropertyOp14
 70
     1
102
RTVSPropertyOp15
 70
     1
102
RTVSPropertyOp16
 70
     1
102
RTVSPropertyOp17
 70
     1
102
RTVSPropertyOp18
 70
     1
102
RTVSPropertyOp19
 70
     1
102
RTVSPropertyOp20
 70
     1
102
RTVSPropertyOp21
 70
     1
102
RTVSPropertyOp22
 70
     1
102
RTVSPropertyOp23
 70
     1
102
RTVSPropertyOp24
 70
     1
102
RTVSPropertyOp25
 70
     1
102
RTVSPropertyOp26
 70
     1
102
RTVSPropertyOp27
 70
     1
102
RTVSPropertyOp28
 70
     1
102
RTVSPropertyOp29
 70
     1
102
RTVSPropertyOp30
 70
     1
102
RTVSPropertyOp31
 70
     1
102
RTVSPropertyOp32
 70
     1
102
RTVSPropertyOp33
 70
     1
102
RTVSPropertyOp34
 70
     1
102
RTVSPropertyOp35
 70
     1
102
RTVSPropertyOp36
 70
     1
102
RTVSPropertyOp37
 70
     1
102
RTVSPropertyOp38
 70
     1
102
RTVSPropertyOp39
 70
     1
102
RTVSPropertyOp40
 70
     1
102
RTVSPropertyOp41
 70
     1
102
RTVSPropertyOp42
 70
     1
102
RTVSPropertyOp43
 70
     1
102
RTVSPropertyOp44
 70
     1
102
RTVSPropertyOp45
 70
     1
102
RTVSPropertyOp46
 70
     1
102
RTVSPropertyOp47
 70
     1
102
RTVSPropertyOp48
 70
     1
102
RTVSPropertyOp49
 70
     1
102
RTVSPropertyOp50
 70
     1
102
RTVSPropertyOp51
 70
     0
102
RTVSPropertyOp52
 70
     0
102
RTVSPropertyOp53
 70
     1
102
RTVSPropertyOp54
 70
     1
102
RTVSPropertyOp55
 70
     1
102
RTVSPropertyOp56
 70
     1
102
RTVSPropertyOp57
 70
     1
102
RTVSPropertyOp58
 70
     1
102
RTVSPropertyOp59
 70
     1
102
RTVSPropertyOp60
 70
     1
102
RTVSPropertyOp61
 70
     1
102
RTVSPropertyOp62
 70
     1
  0
ENDSEC
  0
EOF
