  0
SECTION
  2
HEADER
  9
$ACADVER
  1
AC1015
  9
$ACADMAINTVER
 70
    20
  9
$DWGCODEPAGE
  3
ANSI_932
  9
$INSBASE
 10
0.0
 20
0.0
 30
0.0
  9
$EXTMIN
 10
216.4416644727353
 20
206.5521340427822
 30
-0.0015258207003583
  9
$EXTMAX
 10
5893.50312656898
 20
3993.44788551499
 30
0.0000000349246037
  9
$LIMMIN
 10
0.0
 20
0.0
  9
$LIMMAX
 10
5940.0
 20
4200.0
  9
$ORTHOMODE
 70
     1
  9
$REGENMODE
 70
     1
  9
$FILLMODE
 70
     1
  9
$QTEXTMODE
 70
     0
  9
$MIRRTEXT
 70
     0
  9
$LTSCALE
 40
20.0
  9
$ATTMODE
 70
     1
  9
$TEXTSIZE
 40
0.2
  9
$TRACEWID
 40
0.05
  9
$TEXTSTYLE
  7
STANDARD
  9
$CLAYER
  8
0
  9
$CELTYPE
  6
CONTINUOUS
  9
$CECOLOR
 62
   256
  9
$CELTSCALE
 40
1.0
  9
$DISPSILH
 70
     0
  9
$DIMSCALE
 40
1.0
  9
$DIMASZ
 40
0.18
  9
$DIMEXO
 40
0.0625
  9
$DIMDLI
 40
0.38
  9
$DIMRND
 40
0.0
  9
$DIMDLE
 40
0.0
  9
$DIMEXE
 40
0.18
  9
$DIMTP
 40
0.0
  9
$DIMTM
 40
0.0
  9
$DIMTXT
 40
0.18
  9
$DIMCEN
 40
0.09
  9
$DIMTSZ
 40
0.0
  9
$DIMTOL
 70
     0
  9
$DIMLIM
 70
     0
  9
$DIMTIH
 70
     1
  9
$DIMTOH
 70
     1
  9
$DIMSE1
 70
     0
  9
$DIMSE2
 70
     0
  9
$DIMTAD
 70
     0
  9
$DIMZIN
 70
     0
  9
$DIMBLK
  1

  9
$DIMASO
 70
     1
  9
$DIMSHO
 70
     1
  9
$DIMPOST
  1

  9
$DIMAPOST
  1

  9
$DIMALT
 70
     0
  9
$DIMALTD
 70
     2
  9
$DIMALTF
 40
25.4
  9
$DIMLFAC
 40
1.0
  9
$DIMTOFL
 70
     0
  9
$DIMTVP
 40
0.0
  9
$DIMTIX
 70
     0
  9
$DIMSOXD
 70
     0
  9
$DIMSAH
 70
     0
  9
$DIMBLK1
  1

  9
$DIMBLK2
  1

  9
$DIMSTYLE
  2
Standard
  9
$DIMCLRD
 70
     0
  9
$DIMCLRE
 70
     0
  9
$DIMCLRT
 70
     0
  9
$DIMTFAC
 40
1.0
  9
$DIMGAP
 40
0.09
  9
$DIMJUST
 70
     0
  9
$DIMSD1
 70
     0
  9
$DIMSD2
 70
     0
  9
$DIMTOLJ
 70
     1
  9
$DIMTZIN
 70
     0
  9
$DIMALTZ
 70
     0
  9
$DIMALTTZ
 70
     0
  9
$DIMUPT
 70
     0
  9
$DIMDEC
 70
     4
  9
$DIMTDEC
 70
     4
  9
$DIMALTU
 70
     2
  9
$DIMALTTD
 70
     2
  9
$DIMTXSTY
  7
STANDARD
  9
$DIMAUNIT
 70
     0
  9
$DIMADEC
 70
     0
  9
$DIMALTRND
 40
0.0
  9
$DIMAZIN
 70
     0
  9
$DIMDSEP
 70
    46
  9
$DIMATFIT
 70
     3
  9
$DIMFRAC
 70
     0
  9
$DIMLDRBLK
  1

  9
$DIMLUNIT
 70
     2
  9
$DIMLWD
 70
    -2
  9
$DIMLWE
 70
    -2
  9
$DIMTMOVE
 70
     0
  9
$LUNITS
 70
     2
  9
$LUPREC
 70
     4
  9
$SKETCHINC
 40
0.1
  9
$FILLETRAD
 40
0.0
  9
$AUNITS
 70
     0
  9
$AUPREC
 70
     0
  9
$MENU
  1
.
  9
$ELEVATION
 40
0.0
  9
$PELEVATION
 40
0.0
  9
$THICKNESS
 40
0.0
  9
$LIMCHECK
 70
     0
  9
$CHAMFERA
 40
0.0
  9
$CHAMFERB
 40
0.0
  9
$CHAMFERC
 40
0.0
  9
$CHAMFERD
 40
0.0
  9
$SKPOLY
 70
     0
  9
$TDCREATE
 40
2457253.374612674
  9
$TDUCREATE
 40
2457252.999612674
  9
$TDUPDATE
 40
2457253.377641320
  9
$TDUUPDATE
 40
2457253.002641319
  9
$TDINDWG
 40
0.0030293750
  9
$TDUSRTIMER
 40
0.0030293750
  9
$USRTIMER
 70
     1
  9
$ANGBASE
 50
0.0
  9
$ANGDIR
 70
     0
  9
$PDMODE
 70
     0
  9
$PDSIZE
 40
0.0
  9
$PLINEWID
 40
0.0
  9
$SPLFRAME
 70
     0
  9
$SPLINETYPE
 70
     6
  9
$SPLINESEGS
 70
     8
  9
$HANDSEED
  5
24D
  9
$SURFTAB1
 70
     6
  9
$SURFTAB2
 70
     6
  9
$SURFTYPE
 70
     6
  9
$SURFU
 70
     6
  9
$SURFV
 70
     6
  9
$UCSBASE
  2

  9
$UCSNAME
  2

  9
$UCSORG
 10
0.0
 20
0.0
 30
0.0
  9
$UCSXDIR
 10
1.0
 20
0.0
 30
0.0
  9
$UCSYDIR
 10
0.0
 20
1.0
 30
0.0
  9
$UCSORTHOREF
  2

  9
$UCSORTHOVIEW
 70
     0
  9
$UCSORGTOP
 10
0.0
 20
0.0
 30
0.0
  9
$UCSORGBOTTOM
 10
0.0
 20
0.0
 30
0.0
  9
$UCSORGLEFT
 10
0.0
 20
0.0
 30
0.0
  9
$UCSORGRIGHT
 10
0.0
 20
0.0
 30
0.0
  9
$UCSORGFRONT
 10
0.0
 20
0.0
 30
0.0
  9
$UCSORGBACK
 10
0.0
 20
0.0
 30
0.0
  9
$PUCSBASE
  2

  9
$PUCSNAME
  2

  9
$PUCSORG
 10
0.0
 20
0.0
 30
0.0
  9
$PUCSXDIR
 10
1.0
 20
0.0
 30
0.0
  9
$PUCSYDIR
 10
0.0
 20
1.0
 30
0.0
  9
$PUCSORTHOREF
  2

  9
$PUCSORTHOVIEW
 70
     0
  9
$PUCSORGTOP
 10
0.0
 20
0.0
 30
0.0
  9
$PUCSORGBOTTOM
 10
0.0
 20
0.0
 30
0.0
  9
$PUCSORGLEFT
 10
0.0
 20
0.0
 30
0.0
  9
$PUCSORGRIGHT
 10
0.0
 20
0.0
 30
0.0
  9
$PUCSORGFRONT
 10
0.0
 20
0.0
 30
0.0
  9
$PUCSORGBACK
 10
0.0
 20
0.0
 30
0.0
  9
$USERI1
 70
     0
  9
$USERI2
 70
     0
  9
$USERI3
 70
     0
  9
$USERI4
 70
     0
  9
$USERI5
 70
     0
  9
$USERR1
 40
0.0
  9
$USERR2
 40
0.0
  9
$USERR3
 40
0.0
  9
$USERR4
 40
0.0
  9
$USERR5
 40
0.0
  9
$WORLDVIEW
 70
     1
  9
$SHADEDGE
 70
     3
  9
$SHADEDIF
 70
    70
  9
$TILEMODE
 70
     1
  9
$MAXACTVP
 70
    64
  9
$PINSBASE
 10
0.0
 20
0.0
 30
0.0
  9
$PLIMCHECK
 70
     0
  9
$PEXTMIN
 10
1.000000000000000E+20
 20
1.000000000000000E+20
 30
1.000000000000000E+20
  9
$PEXTMAX
 10
-1.000000000000000E+20
 20
-1.000000000000000E+20
 30
-1.000000000000000E+20
  9
$PLIMMIN
 10
0.0
 20
0.0
  9
$PLIMMAX
 10
12.0
 20
9.0
  9
$UNITMODE
 70
     0
  9
$VISRETAIN
 70
     1
  9
$PLINEGEN
 70
     0
  9
$PSLTSCALE
 70
     1
  9
$TREEDEPTH
 70
  3020
  9
$CMLSTYLE
  2
Standard
  9
$CMLJUST
 70
     0
  9
$CMLSCALE
 40
1.0
  9
$PROXYGRAPHICS
 70
     1
  9
$MEASUREMENT
 70
     0
  9
$CELWEIGHT
370
    -1
  9
$ENDCAPS
280
     0
  9
$JOINSTYLE
280
     0
  9
$LWDISPLAY
290
     0
  9
$INSUNITS
 70
     0
  9
$HYPERLINKBASE
  1

  9
$STYLESHEET
  1

  9
$XEDIT
290
     1
  9
$CEPSNTYPE
380
     0
  9
$PSTYLEMODE
290
     1
  9
$FINGERPRINTGUID
  2
{81EE81C8-C537-40E8-BAFA-2A61C8D7B1B4}
  9
$VERSIONGUID
  2
{804D42E0-19AF-4C8C-B991-F175127A1404}
  9
$EXTNAMES
290
     1
  9
$PSVPSCALE
 40
0.0
  9
$OLESTARTUP
290
     0
  0
ENDSEC
  0
SECTION
  2
CLASSES
  0
CLASS
  1
ACDBDICTIONARYWDFLT
  2
AcDbDictionaryWithDefault
  3
ObjectDBX Classes
 90
        0
280
     0
281
     0
  0
CLASS
  1
DICTIONARYVAR
  2
AcDbDictionaryVar
  3
ObjectDBX Classes
 90
        0
280
     0
281
     0
  0
CLASS
  1
ACDBPLACEHOLDER
  2
AcDbPlaceHolder
  3
ObjectDBX Classes
 90
        0
280
     0
281
     0
  0
CLASS
  1
LAYOUT
  2
AcDbLayout
  3
ObjectDBX Classes
 90
        0
280
     0
281
     0
  0
ENDSEC
  0
SECTION
  2
TABLES
  0
TABLE
  2
VPORT
  5
8
330
0
100
AcDbSymbolTable
 70
     2
  0
VPORT
  5
245
330
8
100
AcDbSymbolTableRecord
100
AcDbViewportTableRecord
  2
*Active
 70
     0
 10
0.0
 20
0.0
 11
1.0
 21
1.0
 12
2901.575831074805
 22
2136.676355931439
 13
0.0
 23
0.0
 14
1.0
 24
1.0
 15
0.0
 25
0.0
 16
0.0
 26
0.0
 36
1.0
 17
0.0
 27
0.0
 37
0.0
 40
3748.581971576553
 41
1.609333333333333
 42
50.0
 43
0.0
 44
0.0
 50
0.0
 51
0.0
 71
     0
 72
   100
 73
     1
 74
     1
 75
     0
 76
     0
 77
     0
 78
     0
281
     0
 65
     1
110
0.0
120
0.0
130
0.0
111
1.0
121
0.0
131
0.0
112
0.0
122
1.0
132
0.0
 79
     0
146
0.0
  0
ENDTAB
  0
TABLE
  2
LTYPE
  5
5
330
0
100
AcDbSymbolTable
 70
    35
  0
LTYPE
  5
13
330
5
100
AcDbSymbolTableRecord
100
AcDbLinetypeTableRecord
  2
ByBlock
 70
     0
  3

 72
    65
 73
     0
 40
0.0
  0
LTYPE
  5
14
330
5
100
AcDbSymbolTableRecord
100
AcDbLinetypeTableRecord
  2
ByLayer
 70
     0
  3

 72
    65
 73
     0
 40
0.0
  0
LTYPE
  5
15
330
5
100
AcDbSymbolTableRecord
100
AcDbLinetypeTableRecord
  2
CONTINUOUS
 70
     0
  3
実線
 72
    65
 73
     0
 40
0.0
  0
LTYPE
  5
24
330
5
100
AcDbSymbolTableRecord
100
AcDbLinetypeTableRecord
  2
DASHED1
 70
     0
  3
--  --  --  --  --  --  --  --  
 72
    65
 73
     2
 40
2.5
 49
1.25
 74
     0
 49
-1.25
 74
     0
  0
LTYPE
  5
25
330
5
100
AcDbSymbolTableRecord
100
AcDbLinetypeTableRecord
  2
DASHED2
 70
     0
  3
----    ----    ----    ----    
 72
    65
 73
     2
 40
5.0
 49
2.5
 74
     0
 49
-2.5
 74
     0
  0
LTYPE
  5
26
330
5
100
AcDbSymbolTableRecord
100
AcDbLinetypeTableRecord
  2
DASHED3
 70
     0
  3
------  ------  ------  ------  
 72
    65
 73
     2
 40
5.0
 49
3.75
 74
     0
 49
-1.25
 74
     0
  0
LTYPE
  5
27
330
5
100
AcDbSymbolTableRecord
100
AcDbLinetypeTableRecord
  2
CENTER1
 70
     0
  3
----- - ----- - ----- - ----- - 
 72
    65
 73
     4
 40
10.0
 49
6.25
 74
     0
 49
-1.25
 74
     0
 49
1.25
 74
     0
 49
-1.25
 74
     0
  0
LTYPE
  5
28
330
5
100
AcDbSymbolTableRecord
100
AcDbLinetypeTableRecord
  2
CENTER2
 70
     0
  3
----------  --  ----------  --  
 72
    65
 73
     4
 40
20.0
 49
12.5
 74
     0
 49
-2.5
 74
     0
 49
2.5
 74
     0
 49
-2.5
 74
     0
  0
LTYPE
  5
29
330
5
100
AcDbSymbolTableRecord
100
AcDbLinetypeTableRecord
  2
PHANTOM1
 70
     0
  3
--- - - --- - - --- - - --- - - 
 72
    65
 73
     6
 40
10.0
 49
3.25
 74
     0
 49
-1.25
 74
     0
 49
1.25
 74
     0
 49
-1.25
 74
     0
 49
1.25
 74
     0
 49
-1.25
 74
     0
  0
LTYPE
  5
2A
330
5
100
AcDbSymbolTableRecord
100
AcDbLinetypeTableRecord
  2
PHANTOM2
 70
     0
  3
--------  -  -  --------  -  -  
 72
    65
 73
     6
 40
20.0
 49
10.0
 74
     0
 49
-2.5
 74
     0
 49
1.25
 74
     0
 49
-2.5
 74
     0
 49
1.25
 74
     0
 49
-2.5
 74
     0
  0
LTYPE
  5
2B
330
5
100
AcDbSymbolTableRecord
100
AcDbLinetypeTableRecord
  2
DOT
 70
     0
  3
-   -   -   -   -   -   -   -   
 72
    65
 73
     2
 40
2.5
 49
0.625
 74
     0
 49
-1.875
 74
     0
  0
LTYPE
  5
2C
330
5
100
AcDbSymbolTableRecord
100
AcDbLinetypeTableRecord
  2
DUMMY
 70
     0
  3
ダミー
 72
    65
 73
     0
 40
0.0
  0
LTYPE
  5
2D
330
5
100
AcDbSymbolTableRecord
100
AcDbLinetypeTableRecord
  2
RAND1
 70
     0
  3
ランダム線1
 72
    65
 73
     4
 40
10.0
 49
1.0
 74
     0
 49
-2.0
 74
     0
 49
3.0
 74
     0
 49
-4.0
 74
     0
  0
LTYPE
  5
2E
330
5
100
AcDbSymbolTableRecord
100
AcDbLinetypeTableRecord
  2
RAND2
 70
     0
  3
ランダム線2
 72
    65
 73
     4
 40
14.0
 49
2.0
 74
     0
 49
-3.0
 74
     0
 49
4.0
 74
     0
 49
-5.0
 74
     0
  0
LTYPE
  5
2F
330
5
100
AcDbSymbolTableRecord
100
AcDbLinetypeTableRecord
  2
RAND3
 70
     0
  3
ランダム線3
 72
    65
 73
     4
 40
18.0
 49
3.0
 74
     0
 49
-4.0
 74
     0
 49
5.0
 74
     0
 49
-6.0
 74
     0
  0
LTYPE
  5
30
330
5
100
AcDbSymbolTableRecord
100
AcDbLinetypeTableRecord
  2
RAND4
 70
     0
  3
ランダム線4
 72
    65
 73
     4
 40
22.0
 49
4.0
 74
     0
 49
-5.0
 74
     0
 49
6.0
 74
     0
 49
-7.0
 74
     0
  0
LTYPE
  5
31
330
5
100
AcDbSymbolTableRecord
100
AcDbLinetypeTableRecord
  2
RAND5
 70
     0
  3
ランダム線5
 72
    65
 73
     4
 40
26.0
 49
5.0
 74
     0
 49
-6.0
 74
     0
 49
7.0
 74
     0
 49
-8.0
 74
     0
  0
LTYPE
  5
32
330
5
100
AcDbSymbolTableRecord
100
AcDbLinetypeTableRecord
  2
LONG1
 70
     0
  3
----------  --  ----------  --  
 72
    65
 73
     4
 40
40.0
 49
32.5
 74
     0
 49
-2.5
 74
     0
 49
2.5
 74
     0
 49
-2.5
 74
     0
  0
LTYPE
  5
33
330
5
100
AcDbSymbolTableRecord
100
AcDbLinetypeTableRecord
  2
LONG2
 70
     0
  3
--------  -  -  --------  -  -  
 72
    65
 73
     6
 40
40.0
 49
30.0
 74
     0
 49
-2.5
 74
     0
 49
1.25
 74
     0
 49
-2.5
 74
     0
 49
1.25
 74
     0
 49
-2.5
 74
     0
  0
LTYPE
  5
34
330
5
100
AcDbSymbolTableRecord
100
AcDbLinetypeTableRecord
  2
LONG3
 70
     0
  3
+++++++++++++++..+++++++++++++++
 72
    65
 73
     2
 40
40.0
 49
37.5
 74
     0
 49
-2.5
 74
     0
  0
LTYPE
  5
35
330
5
100
AcDbSymbolTableRecord
100
AcDbLinetypeTableRecord
  2
LONG4
 70
     0
  3
+++++++++++++++..+++++++++++++++
 72
    65
 73
     2
 40
80.0
 49
75.0
 74
     0
 49
-5.0
 74
     0
  0
LTYPE
  5
36
330
5
100
AcDbSymbolTableRecord
100
AcDbLinetypeTableRecord
  2
LONG5
 70
     0
  3
----------  --  ----------  --  
 72
    65
 73
     4
 40
60.0
 49
37.5
 74
     0
 49
-7.5
 74
     0
 49
7.5
 74
     0
 49
-7.5
 74
     0
  0
LTYPE
  5
37
330
5
100
AcDbSymbolTableRecord
100
AcDbLinetypeTableRecord
  2
DASHED
 70
     0
  3
-------   -------------   ------
 72
    65
 73
     2
 40
7.5
 49
6.0
 74
     0
 49
-1.5
 74
     0
  0
LTYPE
  5
38
330
5
100
AcDbSymbolTableRecord
100
AcDbLinetypeTableRecord
  2
DASHED_SPACED
 70
     0
  3
----        --------        ----
 72
    65
 73
     2
 40
12.0
 49
6.0
 74
     0
 49
-6.0
 74
     0
  0
LTYPE
  5
39
330
5
100
AcDbSymbolTableRecord
100
AcDbLinetypeTableRecord
  2
LONG_DASHED_DOTTED
 70
     0
  3
------------- --- --------------
 72
    65
 73
     4
 40
15.25
 49
12.0
 74
     0
 49
-1.5
 74
     0
 49
0.25
 74
     0
 49
-1.5
 74
     0
  0
LTYPE
  5
3A
330
5
100
AcDbSymbolTableRecord
100
AcDbLinetypeTableRecord
  2
LONG_DASHED_DOUBLE-DOTTED
 70
     0
  3
----------- --- --- ------------
 72
    65
 73
     6
 40
17.0
 49
12.0
 74
     0
 49
-1.5
 74
     0
 49
0.25
 74
     0
 49
-1.5
 74
     0
 49
0.25
 74
     0
 49
-1.5
 74
     0
  0
LTYPE
  5
3B
330
5
100
AcDbSymbolTableRecord
100
AcDbLinetypeTableRecord
  2
LONG_DASHED_TRIPLICATE-DOTTED
 70
     0
  3
--------- --- --- --- ----------
 72
    65
 73
     8
 40
18.75
 49
12.0
 74
     0
 49
-1.5
 74
     0
 49
0.25
 74
     0
 49
-1.5
 74
     0
 49
0.25
 74
     0
 49
-1.5
 74
     0
 49
0.25
 74
     0
 49
-1.5
 74
     0
  0
LTYPE
  5
3C
330
5
100
AcDbSymbolTableRecord
100
AcDbLinetypeTableRecord
  2
DOTTED
 70
     0
  3
   -       -       -       -    
 72
    65
 73
     2
 40
1.75
 49
0.25
 74
     0
 49
-1.5
 74
     0
  0
LTYPE
  5
3D
330
5
100
AcDbSymbolTableRecord
100
AcDbLinetypeTableRecord
  2
CHAIN
 70
     0
  3
-------------- -- --------------
 72
    65
 73
     4
 40
18.5
 49
12.0
 74
     0
 49
-1.5
 74
     0
 49
3.5
 74
     0
 49
-1.5
 74
     0
  0
LTYPE
  5
3E
330
5
100
AcDbSymbolTableRecord
100
AcDbLinetypeTableRecord
  2
CHAIN_DOUBLE_DASH
 70
     0
  3
------------ -- -- -------------
 72
    65
 73
     6
 40
23.5
 49
12.0
 74
     0
 49
-1.5
 74
     0
 49
3.5
 74
     0
 49
-1.5
 74
     0
 49
3.5
 74
     0
 49
-1.5
 74
     0
  0
LTYPE
  5
3F
330
5
100
AcDbSymbolTableRecord
100
AcDbLinetypeTableRecord
  2
DASHED_DOTTED
 70
     0
  3
-----------     -     ----------
 72
    65
 73
     4
 40
9.25
 49
6.0
 74
     0
 49
-1.5
 74
     0
 49
0.25
 74
     0
 49
-1.5
 74
     0
  0
LTYPE
  5
40
330
5
100
AcDbSymbolTableRecord
100
AcDbLinetypeTableRecord
  2
DOUBLE-DASHED_DOTTED
 70
     0
  3
------   -----------   -   -----
 72
    65
 73
     6
 40
16.75
 49
6.0
 74
     0
 49
-1.5
 74
     0
 49
6.0
 74
     0
 49
-1.5
 74
     0
 49
0.25
 74
     0
 49
-1.5
 74
     0
  0
LTYPE
  5
41
330
5
100
AcDbSymbolTableRecord
100
AcDbLinetypeTableRecord
  2
DASHED_DOUBLE-DOTTED
 70
     0
  3
---------    -    -    ---------
 72
    65
 73
     6
 40
11.0
 49
6.0
 74
     0
 49
-1.5
 74
     0
 49
0.25
 74
     0
 49
-1.5
 74
     0
 49
0.25
 74
     0
 49
-1.5
 74
     0
  0
LTYPE
  5
42
330
5
100
AcDbSymbolTableRecord
100
AcDbLinetypeTableRecord
  2
DOUBLE-DASHED_DOUBLE-DOTTED
 70
     0
  3
-----   ---------   -   -   ----
 72
    65
 73
     8
 40
18.5
 49
6.0
 74
     0
 49
-1.5
 74
     0
 49
6.0
 74
     0
 49
-1.5
 74
     0
 49
0.25
 74
     0
 49
-1.5
 74
     0
 49
0.25
 74
     0
 49
-1.5
 74
     0
  0
LTYPE
  5
43
330
5
100
AcDbSymbolTableRecord
100
AcDbLinetypeTableRecord
  2
DASHED_TRIPLICATE-DOTTED
 70
     0
  3
-------    -    -    -    ------
 72
    65
 73
     8
 40
12.75
 49
6.0
 74
     0
 49
-1.5
 74
     0
 49
0.25
 74
     0
 49
-1.5
 74
     0
 49
0.25
 74
     0
 49
-1.5
 74
     0
 49
0.25
 74
     0
 49
-1.5
 74
     0
  0
LTYPE
  5
44
330
5
100
AcDbSymbolTableRecord
100
AcDbLinetypeTableRecord
  2
DOUBLE-DASHED_TRIPLICATE-DOTTED
 70
     0
  3
-----  ---------  -  -  -  -----
 72
    65
 73
    10
 40
20.25
 49
6.0
 74
     0
 49
-1.5
 74
     0
 49
6.0
 74
     0
 49
-1.5
 74
     0
 49
0.25
 74
     0
 49
-1.5
 74
     0
 49
0.25
 74
     0
 49
-1.5
 74
     0
 49
0.25
 74
     0
 49
-1.5
 74
     0
  0
LTYPE
  5
45
330
5
100
AcDbSymbolTableRecord
100
AcDbLinetypeTableRecord
  2
UNDEFINED
 70
     0
  3
--------------------------------
 72
    65
 73
     0
 40
0.0
  0
ENDTAB
  0
TABLE
  2
LAYER
  5
2
330
0
100
AcDbSymbolTable
 70
     3
  0
LAYER
  5
10
330
2
100
AcDbSymbolTableRecord
100
AcDbLayerTableRecord
  2
0
 70
     0
 62
     7
  6
CONTINUOUS
370
    -3
390
F
  0
LAYER
  5
47
330
2
100
AcDbSymbolTableRecord
100
AcDbLayerTableRecord
  2
_1-0_
 70
     0
 62
     7
  6
CONTINUOUS
370
    -3
390
F
  0
LAYER
  5
48
330
2
100
AcDbSymbolTableRecord
100
AcDbLayerTableRecord
  2
ADD_LINE
 70
     0
 62
     7
  6
CONTINUOUS
370
    -3
390
F
  0
ENDTAB
  0
TABLE
  2
STYLE
  5
3
330
0
100
AcDbSymbolTable
 70
     2
  0
STYLE
  5
11
330
3
100
AcDbSymbolTableRecord
100
AcDbTextStyleTableRecord
  2
STANDARD
 70
     0
 40
0.0
 41
1.0
 50
0.0
 71
     0
 42
0.2
  3
txt
  4
bigfont.shx
  0
STYLE
  5
46
330
3
100
AcDbSymbolTableRecord
100
AcDbTextStyleTableRecord
  2
TATEGAKI
 70
     4
 40
0.0
 41
1.0
 50
0.0
 71
     0
 42
1.0
  3
txt
  4
bigfont.shx
  0
ENDTAB
  0
TABLE
  2
VIEW
  5
6
330
0
100
AcDbSymbolTable
 70
     0
  0
ENDTAB
  0
TABLE
  2
UCS
  5
7
330
0
100
AcDbSymbolTable
 70
     0
  0
ENDTAB
  0
TABLE
  2
APPID
  5
9
330
0
100
AcDbSymbolTable
 70
     1
  0
APPID
  5
12
330
9
100
AcDbSymbolTableRecord
100
AcDbRegAppTableRecord
  2
ACAD
 70
     0
  0
ENDTAB
  0
TABLE
  2
DIMSTYLE
  5
A
330
0
100
AcDbSymbolTable
 70
     1
100
AcDbDimStyleTable
 71
     0
  0
DIMSTYLE
105
240
330
A
100
AcDbSymbolTableRecord
100
AcDbDimStyleTableRecord
  2
Standard
 70
     0
340
11
  0
ENDTAB
  0
TABLE
  2
BLOCK_RECORD
  5
1
330
0
100
AcDbSymbolTable
 70
     0
  0
BLOCK_RECORD
  5
20
330
1
100
AcDbSymbolTableRecord
100
AcDbBlockTableRecord
  2
*Model_Space
340
23
  0
BLOCK_RECORD
  5
1C
330
1
100
AcDbSymbolTableRecord
100
AcDbBlockTableRecord
  2
*Paper_Space
340
1F
  0
ENDTAB
  0
ENDSEC
  0
SECTION
  2
BLOCKS
  0
BLOCK
  5
21
330
20
100
AcDbEntity
  8
0
100
AcDbBlockBegin
  2
*Model_Space
 70
     0
 10
0.0
 20
0.0
 30
0.0
  3
*Model_Space
  1

  0
ENDBLK
  5
22
330
20
100
AcDbEntity
  8
0
100
AcDbBlockEnd
  0
BLOCK
  5
1D
330
1C
100
AcDbEntity
 67
     1
  8
0
100
AcDbBlockBegin
  2
*Paper_Space
 70
     0
 10
0.0
 20
0.0
 30
0.0
  3
*Paper_Space
  1

  0
ENDBLK
  5
1E
330
1C
100
AcDbEntity
 67
     1
  8
0
100
AcDbBlockEnd
  0
ENDSEC
  0
SECTION
  2
ENTITIES
  0
LINE
  5
4C
330
20
100
AcDbEntity
  8
_1-0_
  6
Continuous
 62
     7
100
AcDbLine
 10
5723.333333333332
 20
3993.333333333334
 30
0.0
 11
216.6666666666669
 21
3993.333333333334
 31
0.0
  0
LINE
  5
4D
330
20
100
AcDbEntity
  8
_1-0_
  6
Continuous
 62
     7
100
AcDbLine
 10
5723.333333333332
 20
206.6666666666665
 30
0.0
 11
5723.333333333332
 21
3993.333333333334
 31
0.0
  0
LINE
  5
4E
330
20
100
AcDbEntity
  8
_1-0_
  6
Continuous
 62
     7
100
AcDbLine
 10
216.6666666666669
 20
206.6666666666665
 30
0.0
 11
5723.333333333332
 21
206.6666666666665
 31
0.0
  0
LINE
  5
4F
330
20
100
AcDbEntity
  8
_1-0_
  6
Continuous
 62
     7
100
AcDbLine
 10
216.6666666666669
 20
3993.333333333334
 30
0.0
 11
216.6666666666669
 21
206.6666666666665
 31
0.0
  0
LINE
  5
50
330
20
100
AcDbEntity
  8
_1-0_
  6
Continuous
 62
     7
100
AcDbLine
 10
4523.333333333333
 20
206.6666666666665
 30
0.0
 11
4523.333333333333
 21
766.6666666666672
 31
0.0
  0
LINE
  5
51
330
20
100
AcDbEntity
  8
_1-0_
  6
Continuous
 62
     7
100
AcDbLine
 10
3523.333333333333
 20
206.6666666666665
 30
0.0
 11
3523.333333333333
 21
766.6666666666672
 31
0.0
  0
LINE
  5
52
330
20
100
AcDbEntity
  8
_1-0_
  6
Continuous
 62
     7
100
AcDbLine
 10
3189.999999999999
 20
206.6666666666665
 30
0.0
 11
3189.999999999999
 21
766.6666666666672
 31
0.0
  0
LINE
  5
53
330
20
100
AcDbEntity
  8
_1-0_
  6
Continuous
 62
     7
100
AcDbLine
 10
3189.999999999999
 20
766.6666666666672
 30
0.0
 11
5723.333333333332
 21
766.6666666666672
 31
0.0
  0
LINE
  5
54
330
20
100
AcDbEntity
  8
_1-0_
  6
Continuous
 62
     7
100
AcDbLine
 10
3189.999999999999
 20
673.3333333333336
 30
0.0
 11
5723.333333333332
 21
673.3333333333336
 31
0.0
  0
LINE
  5
55
330
20
100
AcDbEntity
  8
_1-0_
  6
Continuous
 62
     7
100
AcDbLine
 10
3189.999999999999
 20
580.0000000000001
 30
0.0
 11
5723.333333333332
 21
580.0000000000001
 31
0.0
  0
LINE
  5
56
330
20
100
AcDbEntity
  8
_1-0_
  6
Continuous
 62
     7
100
AcDbLine
 10
3189.999999999999
 20
486.6666666666668
 30
0.0
 11
5723.333333333332
 21
486.6666666666668
 31
0.0
  0
LINE
  5
57
330
20
100
AcDbEntity
  8
_1-0_
  6
Continuous
 62
     7
100
AcDbLine
 10
3189.999999999999
 20
393.3333333333334
 30
0.0
 11
5723.333333333332
 21
393.3333333333334
 31
0.0
  0
LINE
  5
58
330
20
100
AcDbEntity
  8
_1-0_
  6
Continuous
 62
     7
100
AcDbLine
 10
3189.999999999999
 20
300.0
 30
0.0
 11
5723.333333333332
 21
300.0
 31
0.0
  0
LINE
  5
59
330
20
100
AcDbEntity
  8
_1-0_
  6
Continuous
 62
     7
100
AcDbLine
 10
3856.666666666665
 20
206.6666666666665
 30
0.0
 11
3856.666666666665
 21
300.0
 31
0.0
  0
LINE
  5
5A
330
20
100
AcDbEntity
  8
_1-0_
  6
Continuous
 62
     7
100
AcDbLine
 10
4190.0
 20
206.6666666666665
 30
0.0
 11
4190.0
 21
300.0
 31
0.0
  0
LINE
  5
5B
330
20
100
AcDbEntity
  8
_1-0_
  6
Continuous
 62
     7
100
AcDbLine
 10
4856.666666666666
 20
300.0
 30
0.0
 11
4856.666666666666
 21
766.6666666666672
 31
0.0
  0
LINE
  5
5C
330
20
100
AcDbEntity
  8
_1-0_
  6
Continuous
 62
     7
100
AcDbLine
 10
750.0
 20
3860.0
 30
0.0
 11
216.6666666666669
 21
3860.0
 31
0.0
  0
LINE
  5
5D
330
20
100
AcDbEntity
  8
_1-0_
  6
Continuous
 62
     7
100
AcDbLine
 10
750.0
 20
3993.333333333334
 30
0.0
 11
750.0
 21
3860.0
 31
0.0
  0
TEXT
  5
5E
330
20
100
AcDbEntity
  8
_1-0_
 62
     7
100
AcDbText
 10
262.7110047421724
 20
3885.589197918482
 30
0.0
 40
80.0
  1
組立構造図
100
AcDbText
  0
TEXT
  5
5F
330
20
100
AcDbEntity
  8
_1-0_
 62
     7
100
AcDbText
 10
3222.026322495699
 20
688.852571725881
 30
0.0
 40
60.0
  1
製 品 名
100
AcDbText
  0
TEXT
  5
60
330
20
100
AcDbEntity
  8
_1-0_
 62
     7
100
AcDbText
 10
3221.494969497411
 20
597.7704931577259
 30
0.0
 40
60.0
  1
型　　式
100
AcDbText
  0
TEXT
  5
61
330
20
100
AcDbEntity
  8
_1-0_
 62
     7
100
AcDbText
 10
3221.494969497411
 20
502.6664811256028
 30
0.0
 40
60.0
  1
呼 び 名
100
AcDbText
  0
TEXT
  5
62
330
20
100
AcDbEntity
  8
_1-0_
 62
     7
100
AcDbText
 10
3220.362778877981
 20
410.9590409517699
 30
0.0
 40
60.0
  1
寸　　法
100
AcDbText
  0
TEXT
  5
63
330
20
100
AcDbEntity
  8
_1-0_
 62
     7
100
AcDbText
 10
3221.494969497411
 20
316.9872195390766
 30
0.0
 40
60.0
  1
特記事項
100
AcDbText
  0
TEXT
  5
64
330
20
100
AcDbEntity
  8
_1-0_
 62
     7
100
AcDbText
 10
3220.362778877981
 20
223.0153981263837
 30
0.0
 40
60.0
  1
検　　図
100
AcDbText
  0
TEXT
  5
65
330
20
100
AcDbEntity
  8
_1-0_
 62
     7
100
AcDbText
 10
3889.344432882415
 20
221.5280638790375
 30
0.0
 40
60.0
  1
製　　図
100
AcDbText
  0
TEXT
  5
66
330
20
100
AcDbEntity
  8
_1-0_
 62
     7
100
AcDbText
 10
3719.790980908492
 20
688.2060831616723
 30
0.0
 40
60.0
  1
ＦＫ式ハンドホール
100
AcDbText
  0
TEXT
  5
67
330
20
100
AcDbEntity
  8
_1-0_
 62
     7
100
AcDbText
 10
3938.903300133789
 20
596.9092834844656
 30
0.0
 40
60.0
  1
900型
100
AcDbText
  0
TEXT
  5
68
330
20
100
AcDbEntity
  8
_1-0_
 62
     7
100
AcDbText
 10
3670.639294777529
 20
502.5692571513516
 30
0.0
 40
60.0
  1
H-0908(CR-600)
100
AcDbText
  0
TEXT
  5
69
330
20
100
AcDbEntity
  8
_1-0_
 62
     7
100
AcDbText
 10
3736.465389960017
 20
408.2292308182377
 30
0.0
 40
60.0
  1
900×900×800
100
AcDbText
  0
TEXT
  5
6A
330
20
100
AcDbEntity
  8
_1-0_
 62
     7
100
AcDbText
 10
4570.916827709232
 20
224.389958376691
 30
0.0
 40
60.0
  1
株式会社　丸治コンクリート工業所
100
AcDbText
  0
TEXT
  5
6B
330
20
100
AcDbEntity
  8
_1-0_
 62
     7
100
AcDbText
 10
4554.912293741637
 20
690.1218968336556
 30
0.0
 40
60.0
  1
縮　　尺
100
AcDbText
  0
TEXT
  5
6C
330
20
100
AcDbEntity
  8
_1-0_
 62
     7
100
AcDbText
 10
4556.512747138397
 20
594.0946930280959
 30
0.0
 40
60.0
  1
参考重量
100
AcDbText
  0
TEXT
  5
6D
330
20
100
AcDbEntity
  8
_1-0_
 62
     7
100
AcDbText
 10
4554.912293741637
 20
502.868849412814
 30
0.0
 40
60.0
  1
設計Ｎｏ
100
AcDbText
  0
TEXT
  5
6E
330
20
100
AcDbEntity
  8
_1-0_
 62
     7
100
AcDbText
 10
4554.912293741637
 20
410.0425524007729
 30
0.0
 40
60.0
  1
図面Ｎｏ
100
AcDbText
  0
TEXT
  5
6F
330
20
100
AcDbEntity
  8
_1-0_
 62
     7
100
AcDbText
 10
4554.912293741637
 20
317.2162553887321
 30
0.0
 40
60.0
  1
製 図 日
100
AcDbText
  0
TEXT
  5
70
330
20
100
AcDbEntity
  8
_1-0_
 62
     7
100
AcDbText
 10
4908.61249442545
 20
315.6158019919726
 30
0.0
 40
60.0
  1
平成　　年　　月　　日
100
AcDbText
  0
TEXT
  5
71
330
20
100
AcDbEntity
  8
_1-0_
 62
     7
100
AcDbText
 10
5220.70090679352
 20
691.7223502304146
 30
0.0
 40
60.0
  1
1/15
100
AcDbText
  0
TEXT
  5
72
330
20
100
AcDbEntity
  8
_1-0_
 62
     7
100
AcDbText
 10
4888.551566592497
 20
410.0425524007729
 30
0.0
 40
60.0
  1
FKHH-H0908-CR600
 41
0.9
100
AcDbText
  0
TEXT
  5
73
330
20
100
AcDbEntity
  8
_1-0_
 62
     7
100
AcDbText
 10
5187.091385461573
 20
597.2955998216145
 30
0.0
 40
60.0
  1
1115kg
100
AcDbText
  0
LINE
  5
74
330
20
100
AcDbEntity
  8
_1-0_
  6
DASHED1
 62
   136
100
AcDbLine
 10
5023.663377080629
 20
2825.786286116055
 30
0.0
 11
4223.662643009155
 21
2825.786286116055
 31
0.0
  0
LINE
  5
75
330
20
100
AcDbEntity
  8
_1-0_
  6
DASHED1
 62
   136
100
AcDbLine
 10
4210.329524909191
 20
2865.786340317158
 30
0.0
 11
4223.662643009155
 21
2825.786286116055
 31
0.0
  0
LINE
  5
76
330
20
100
AcDbEntity
  8
_1-0_
  6
DASHED1
 62
   136
100
AcDbLine
 10
5023.663377080629
 20
2825.786286116055
 30
0.0
 11
5036.996145229986
 21
2865.786340317158
 31
0.0
  0
LINE
  5
77
330
20
100
AcDbEntity
  8
_1-0_
  6
DASHED1
 62
   136
100
AcDbLine
 10
5156.99525798148
 20
2772.454863568018
 30
0.0
 11
4090.329712256485
 21
2772.454863568018
 31
0.0
  0
LINE
  5
78
330
20
100
AcDbEntity
  8
_1-0_
  6
DASHED1
 62
   136
100
AcDbLine
 10
5223.661898333118
 20
2705.788223216381
 30
0.0
 11
4023.663071904848
 21
2705.788223216381
 31
0.0
  0
LINE
  5
79
330
20
100
AcDbEntity
  8
_1-0_
  6
DASHED1
 62
   136
100
AcDbLine
 10
5156.99525798148
 20
1572.453762460807
 30
0.0
 11
5156.99525798148
 21
2772.454863568018
 31
0.0
  0
LINE
  5
7A
330
20
100
AcDbEntity
  8
_1-0_
  6
DASHED1
 62
   136
100
AcDbLine
 10
5156.99525798148
 20
2772.454863568018
 30
0.0
 11
5223.661898333118
 21
2705.788223216381
 31
0.0
  0
LINE
  5
7B
330
20
100
AcDbEntity
  8
_1-0_
  6
DASHED1
 62
   136
100
AcDbLine
 10
5223.661898333118
 20
1639.120402812445
 30
0.0
 11
5223.661898333118
 21
2705.788223216381
 31
0.0
  0
LINE
  5
7C
330
20
100
AcDbEntity
  8
_1-0_
  6
DASHED1
 62
   136
100
AcDbLine
 10
5316.994774884683
 20
2585.787360711856
 30
0.0
 11
5276.994720683579
 21
2572.454242611892
 31
0.0
  0
LINE
  5
7D
330
20
100
AcDbEntity
  8
_1-0_
  6
DASHED1
 62
   136
100
AcDbLine
 10
5276.994720683579
 20
1772.453508540417
 30
0.0
 11
5276.994720683579
 21
2572.454242611892
 31
0.0
  0
LINE
  5
7E
330
20
100
AcDbEntity
  8
_1-0_
  6
DASHED1
 62
   136
100
AcDbLine
 10
5276.994720683579
 20
1772.453508540417
 30
0.0
 11
5316.994774884683
 21
1759.12074039106
 31
0.0
  0
LINE
  5
7F
330
20
100
AcDbEntity
  8
_1-0_
  6
DASHED1
 62
   136
100
AcDbLine
 10
4023.663071904848
 20
1639.120402812445
 30
0.0
 11
5223.661898333118
 21
1639.120402812445
 31
0.0
  0
LINE
  5
80
330
20
100
AcDbEntity
  8
_1-0_
  6
DASHED1
 62
   136
100
AcDbLine
 10
4090.329712256485
 20
1572.453762460807
 30
0.0
 11
5156.99525798148
 21
1572.453762460807
 31
0.0
  0
LINE
  5
81
330
20
100
AcDbEntity
  8
_1-0_
  6
DASHED1
 62
   136
100
AcDbLine
 10
5223.661898333118
 20
1639.120402812445
 30
0.0
 11
5156.99525798148
 21
1572.453762460807
 31
0.0
  0
LINE
  5
82
330
20
100
AcDbEntity
  8
_1-0_
  6
DASHED1
 62
   136
100
AcDbLine
 10
5036.995445328774
 20
1479.121760785757
 30
0.0
 11
5023.66232722881
 21
1519.121814986861
 31
0.0
  0
LINE
  5
83
330
20
100
AcDbEntity
  8
_1-0_
  6
DASHED1
 62
   136
100
AcDbLine
 10
4223.661593157336
 20
1519.121814986861
 30
0.0
 11
5023.66232722881
 21
1519.121814986861
 31
0.0
  0
LINE
  5
84
330
20
100
AcDbEntity
  8
_1-0_
  6
DASHED1
 62
   136
100
AcDbLine
 10
4223.661593157336
 20
1519.121814986861
 30
0.0
 11
4210.328825007978
 21
1479.121760785757
 31
0.0
  0
LINE
  5
85
330
20
100
AcDbEntity
  8
_1-0_
  6
DASHED1
 62
   136
100
AcDbLine
 10
4090.329712256485
 20
1572.453762460807
 30
0.0
 11
4023.663071904848
 21
1639.120402812445
 31
0.0
  0
LINE
  5
86
330
20
100
AcDbEntity
  8
_1-0_
  6
DASHED1
 62
   136
100
AcDbLine
 10
4090.329712256485
 20
2772.454863568018
 30
0.0
 11
4090.329712256485
 21
1572.453762460807
 31
0.0
  0
LINE
  5
87
330
20
100
AcDbEntity
  8
_1-0_
  6
DASHED1
 62
   136
100
AcDbLine
 10
4023.663071904848
 20
1639.120402812445
 30
0.0
 11
4023.663071904848
 21
2705.788223216381
 31
0.0
  0
LINE
  5
88
330
20
100
AcDbEntity
  8
_1-0_
  6
DASHED1
 62
   136
100
AcDbLine
 10
3930.330895254496
 20
1759.12074039106
 30
0.0
 11
3970.330949455599
 21
1772.453858491024
 31
0.0
  0
LINE
  5
89
330
20
100
AcDbEntity
  8
_1-0_
  6
DASHED1
 62
   136
100
AcDbLine
 10
3970.330949455599
 20
2572.454592562498
 30
0.0
 11
3970.330949455599
 21
1772.453858491024
 31
0.0
  0
LINE
  5
8A
330
20
100
AcDbEntity
  8
_1-0_
  6
DASHED1
 62
   136
100
AcDbLine
 10
3970.330949455599
 20
2572.454592562498
 30
0.0
 11
3930.330895254496
 21
2585.787360711856
 31
0.0
  0
LINE
  5
8B
330
20
100
AcDbEntity
  8
_1-0_
  6
DASHED1
 62
   136
100
AcDbLine
 10
4023.663071904848
 20
2705.788223216381
 30
0.0
 11
4090.329712256485
 21
2772.454863568018
 31
0.0
  0
CIRCLE
  5
8C
330
20
100
AcDbEntity
  8
_1-0_
  6
Continuous
 62
   136
100
AcDbCircle
 10
4623.662485118983
 20
2172.454050551458
 30
0.0
 40
120.0000094999217
  0
CIRCLE
  5
8D
330
20
100
AcDbEntity
  8
_1-0_
  6
Continuous
 62
   136
100
AcDbCircle
 10
4623.662485118983
 20
2172.454050551458
 30
0.0
 40
133.3333681909274
  0
LINE
  5
8E
330
20
100
AcDbEntity
  8
_1-0_
  6
DASHED1
 62
     6
100
AcDbLine
 10
4879.662552045563
 20
2819.120077016679
 30
0.0
 11
4879.662552045563
 21
2772.453463765593
 31
0.0
  0
LINE
  5
8F
330
20
100
AcDbEntity
  8
_1-0_
  6
DASHED1
 62
     6
100
AcDbLine
 10
4900.995890956112
 20
2819.120077016679
 30
0.0
 11
4900.995890956112
 21
2772.453463765593
 31
0.0
  0
LINE
  5
90
330
20
100
AcDbEntity
  8
_1-0_
  6
DASHED1
 62
     6
100
AcDbLine
 10
4900.995890956112
 20
2819.120077016679
 30
0.0
 11
4879.662552045563
 21
2819.120077016679
 31
0.0
  0
LINE
  5
91
330
20
100
AcDbEntity
  8
_1-0_
  6
DASHED1
 62
     6
100
AcDbLine
 10
4634.328979598953
 20
2819.120077016679
 30
0.0
 11
4634.328979598953
 21
2772.453463765593
 31
0.0
  0
LINE
  5
92
330
20
100
AcDbEntity
  8
_1-0_
  6
DASHED1
 62
     6
100
AcDbLine
 10
4634.328979598953
 20
2819.120077016679
 30
0.0
 11
4612.995990639011
 21
2819.120077016679
 31
0.0
  0
LINE
  5
93
330
20
100
AcDbEntity
  8
_1-0_
  6
DASHED1
 62
     6
100
AcDbLine
 10
4612.995990639011
 20
2819.120077016679
 30
0.0
 11
4612.995990639011
 21
2772.453463765593
 31
0.0
  0
LINE
  5
94
330
20
100
AcDbEntity
  8
_1-0_
  6
DASHED1
 62
     6
100
AcDbLine
 10
4367.662418192402
 20
2819.120077016679
 30
0.0
 11
4367.662418192402
 21
2772.453463765593
 31
0.0
  0
LINE
  5
95
330
20
100
AcDbEntity
  8
_1-0_
  6
DASHED1
 62
     6
100
AcDbLine
 10
4367.662418192402
 20
2819.120077016679
 30
0.0
 11
4346.32942923246
 21
2819.120077016679
 31
0.0
  0
LINE
  5
96
330
20
100
AcDbEntity
  8
_1-0_
  6
DASHED1
 62
     6
100
AcDbLine
 10
4346.32942923246
 20
2819.120077016679
 30
0.0
 11
4346.32942923246
 21
2772.453463765593
 31
0.0
  0
LINE
  5
97
330
20
100
AcDbEntity
  8
_1-0_
  6
DASHED1
 62
     6
100
AcDbLine
 10
5270.328511584205
 20
2449.787456388587
 30
0.0
 11
5223.661898333118
 21
2449.787456388587
 31
0.0
  0
LINE
  5
98
330
20
100
AcDbEntity
  8
_1-0_
  6
DASHED1
 62
     6
100
AcDbLine
 10
5270.328511584205
 20
2428.454467428645
 30
0.0
 11
5223.661898333118
 21
2428.454467428645
 31
0.0
  0
LINE
  5
99
330
20
100
AcDbEntity
  8
_1-0_
  6
DASHED1
 62
     6
100
AcDbLine
 10
5270.328511584205
 20
2428.454467428645
 30
0.0
 11
5270.328511584205
 21
2449.787456388587
 31
0.0
  0
LINE
  5
9A
330
20
100
AcDbEntity
  8
_1-0_
  6
DASHED1
 62
     6
100
AcDbLine
 10
5270.328511584205
 20
2183.120894982035
 30
0.0
 11
5223.661898333118
 21
2183.120894982035
 31
0.0
  0
LINE
  5
9B
330
20
100
AcDbEntity
  8
_1-0_
  6
DASHED1
 62
     6
100
AcDbLine
 10
5270.328511584205
 20
2161.787906022093
 30
0.0
 11
5223.661898333118
 21
2161.787906022093
 31
0.0
  0
LINE
  5
9C
330
20
100
AcDbEntity
  8
_1-0_
  6
DASHED1
 62
     6
100
AcDbLine
 10
5270.328511584205
 20
2161.787906022093
 30
0.0
 11
5270.328511584205
 21
2183.120894982035
 31
0.0
  0
LINE
  5
9D
330
20
100
AcDbEntity
  8
_1-0_
  6
DASHED1
 62
     6
100
AcDbLine
 10
5270.328511584205
 20
1916.454333575484
 30
0.0
 11
5223.661898333118
 21
1916.454333575484
 31
0.0
  0
LINE
  5
9E
330
20
100
AcDbEntity
  8
_1-0_
  6
DASHED1
 62
     6
100
AcDbLine
 10
5270.328511584205
 20
1895.120994664935
 30
0.0
 11
5223.661898333118
 21
1895.120994664935
 31
0.0
  0
LINE
  5
9F
330
20
100
AcDbEntity
  8
_1-0_
  6
DASHED1
 62
     6
100
AcDbLine
 10
5270.328511584205
 20
1895.120994664935
 30
0.0
 11
5270.328511584205
 21
1916.454333575484
 31
0.0
  0
LINE
  5
A0
330
20
100
AcDbEntity
  8
_1-0_
  6
DASHED1
 62
     6
100
AcDbLine
 10
4346.329079281854
 20
1525.788024086237
 30
0.0
 11
4346.329079281854
 21
1572.454637337323
 31
0.0
  0
LINE
  5
A1
330
20
100
AcDbEntity
  8
_1-0_
  6
DASHED1
 62
     6
100
AcDbLine
 10
4346.329079281854
 20
1525.788024086237
 30
0.0
 11
4367.662418192402
 21
1525.788024086237
 31
0.0
  0
LINE
  5
A2
330
20
100
AcDbEntity
  8
_1-0_
  6
DASHED1
 62
     6
100
AcDbLine
 10
4367.662418192402
 20
1525.788024086237
 30
0.0
 11
4367.662418192402
 21
1572.454637337323
 31
0.0
  0
LINE
  5
A3
330
20
100
AcDbEntity
  8
_1-0_
  6
DASHED1
 62
     6
100
AcDbLine
 10
4612.995990639011
 20
1525.788024086237
 30
0.0
 11
4612.995990639011
 21
1572.454637337323
 31
0.0
  0
LINE
  5
A4
330
20
100
AcDbEntity
  8
_1-0_
  6
DASHED1
 62
     6
100
AcDbLine
 10
4612.995990639011
 20
1525.788024086237
 30
0.0
 11
4634.328979598953
 21
1525.788024086237
 31
0.0
  0
LINE
  5
A5
330
20
100
AcDbEntity
  8
_1-0_
  6
DASHED1
 62
     6
100
AcDbLine
 10
4634.328979598953
 20
1525.788024086237
 30
0.0
 11
4634.328979598953
 21
1572.454637337323
 31
0.0
  0
LINE
  5
A6
330
20
100
AcDbEntity
  8
_1-0_
  6
DASHED1
 62
     6
100
AcDbLine
 10
4879.662552045563
 20
1525.788024086237
 30
0.0
 11
4879.662552045563
 21
1572.454637337323
 31
0.0
  0
LINE
  5
A7
330
20
100
AcDbEntity
  8
_1-0_
  6
DASHED1
 62
     6
100
AcDbLine
 10
4879.662552045563
 20
1525.788024086237
 30
0.0
 11
4900.995541005507
 21
1525.788024086237
 31
0.0
  0
LINE
  5
A8
330
20
100
AcDbEntity
  8
_1-0_
  6
DASHED1
 62
     6
100
AcDbLine
 10
4900.995541005507
 20
1525.788024086237
 30
0.0
 11
4900.995541005507
 21
1572.454637337323
 31
0.0
  0
LINE
  5
A9
330
20
100
AcDbEntity
  8
_1-0_
  6
DASHED1
 62
     6
100
AcDbLine
 10
3976.997158554976
 20
2449.78710643798
 30
0.0
 11
4023.663771806059
 21
2449.78710643798
 31
0.0
  0
LINE
  5
AA
330
20
100
AcDbEntity
  8
_1-0_
  6
DASHED1
 62
     6
100
AcDbLine
 10
3976.997158554976
 20
2428.453767527433
 30
0.0
 11
4023.663771806059
 21
2428.453767527433
 31
0.0
  0
LINE
  5
AB
330
20
100
AcDbEntity
  8
_1-0_
  6
DASHED1
 62
     6
100
AcDbLine
 10
3976.997158554976
 20
2449.78710643798
 30
0.0
 11
3976.997158554976
 21
2428.453767527433
 31
0.0
  0
LINE
  5
AC
330
20
100
AcDbEntity
  8
_1-0_
  6
DASHED1
 62
     6
100
AcDbLine
 10
3976.997158554976
 20
2183.120195080823
 30
0.0
 11
4023.663771806059
 21
2183.120195080823
 31
0.0
  0
LINE
  5
AD
330
20
100
AcDbEntity
  8
_1-0_
  6
DASHED1
 62
     6
100
AcDbLine
 10
3976.997158554976
 20
2161.78720612088
 30
0.0
 11
4023.663771806059
 21
2161.78720612088
 31
0.0
  0
LINE
  5
AE
330
20
100
AcDbEntity
  8
_1-0_
  6
DASHED1
 62
     6
100
AcDbLine
 10
3976.997158554976
 20
2183.120195080823
 30
0.0
 11
3976.997158554976
 21
2161.78720612088
 31
0.0
  0
LINE
  5
AF
330
20
100
AcDbEntity
  8
_1-0_
  6
DASHED1
 62
     6
100
AcDbLine
 10
3976.997158554976
 20
1916.453633674271
 30
0.0
 11
4023.663771806059
 21
1916.453633674271
 31
0.0
  0
LINE
  5
B0
330
20
100
AcDbEntity
  8
_1-0_
  6
DASHED1
 62
     6
100
AcDbLine
 10
3976.997158554976
 20
1895.120644714329
 30
0.0
 11
4023.663771806059
 21
1895.120644714329
 31
0.0
  0
LINE
  5
B1
330
20
100
AcDbEntity
  8
_1-0_
  6
DASHED1
 62
     6
100
AcDbLine
 10
3976.997158554976
 20
1916.453633674271
 30
0.0
 11
3976.997158554976
 21
1895.120644714329
 31
0.0
  0
LINE
  5
B2
330
20
100
AcDbEntity
  8
_1-0_
  6
Continuous
 62
     7
100
AcDbLine
 10
5303.662006735326
 20
2865.787740119584
 30
0.0
 11
3943.662613552034
 21
2865.787740119584
 31
0.0
  0
LINE
  5
B3
330
20
100
AcDbEntity
  8
_1-0_
  6
Continuous
 62
     7
100
AcDbLine
 10
3930.329145501465
 20
1492.453479083296
 30
0.0
 11
3930.329145501465
 21
2852.454272069013
 31
0.0
  0
LINE
  5
B4
330
20
100
AcDbEntity
  8
_1-0_
  6
Continuous
 62
     7
100
AcDbLine
 10
3930.329145501465
 20
2852.454272069013
 30
0.0
 11
3943.662613552034
 21
2865.787740119584
 31
0.0
  0
CIRCLE
  5
B5
330
20
100
AcDbEntity
  8
_1-0_
  6
Continuous
 62
     7
100
AcDbCircle
 10
4623.662485118983
 20
2172.454050551458
 30
0.0
 40
580.0000422709696
  0
CIRCLE
  5
B6
330
20
100
AcDbEntity
  8
_1-0_
  6
Continuous
 62
     7
100
AcDbCircle
 10
4623.662485118983
 20
2172.454050551458
 30
0.0
 40
400.0000170851305
  0
LINE
  5
B7
330
20
100
AcDbEntity
  8
_1-0_
  6
Continuous
 62
     7
100
AcDbLine
 10
5316.99512483529
 20
1492.453479083296
 30
0.0
 11
5316.99512483529
 21
2852.454272069013
 31
0.0
  0
LINE
  5
B8
330
20
100
AcDbEntity
  8
_1-0_
  6
Continuous
 62
     7
100
AcDbLine
 10
5303.662006735326
 20
2865.787740119584
 30
0.0
 11
5316.99512483529
 21
2852.454272069013
 31
0.0
  0
LINE
  5
B9
330
20
100
AcDbEntity
  8
_1-0_
  6
Continuous
 62
     7
100
AcDbLine
 10
3943.662613552034
 20
1479.120360983332
 30
0.0
 11
5303.662006735326
 21
1479.120360983332
 31
0.0
  0
LINE
  5
BA
330
20
100
AcDbEntity
  8
_1-0_
  6
Continuous
 62
     7
100
AcDbLine
 10
5316.99512483529
 20
1492.453479083296
 30
0.0
 11
5303.662006735326
 21
1479.120360983332
 31
0.0
  0
LINE
  5
BB
330
20
100
AcDbEntity
  8
_1-0_
  6
Continuous
 62
     7
100
AcDbLine
 10
3943.662613552034
 20
1479.120360983332
 30
0.0
 11
3930.329145501465
 21
1492.453479083296
 31
0.0
  0
LINE
  5
BC
330
20
100
AcDbEntity
  8
_1-0_
  6
Continuous
 62
     4
100
AcDbLine
 10
5316.99512483529
 20
3392.454406786251
 30
0.0
 11
3930.329145501465
 21
3392.454406786251
 31
0.0
  0
LINE
  5
BD
330
20
100
AcDbEntity
  8
_1-0_
  6
Continuous
 62
     4
100
AcDbLine
 10
3930.329145501465
 20
2885.787740119584
 30
0.0
 11
3930.329145501465
 21
3405.787740119584
 31
0.0
  0
LINE
  5
BE
330
20
100
AcDbEntity
  8
_1-0_
  6
Continuous
 62
     4
100
AcDbLine
 10
5316.99512483529
 20
2885.787740119584
 30
0.0
 11
5316.99512483529
 21
3405.787740119584
 31
0.0
  0
LINE
  5
BF
330
20
100
AcDbEntity
  8
_1-0_
  6
Continuous
 62
     4
100
AcDbLine
 10
5336.995124835289
 20
2572.454242611892
 30
0.0
 11
5510.328458168623
 21
2572.454242611892
 31
0.0
  0
LINE
  5
C0
330
20
100
AcDbEntity
  8
_1-0_
  6
Continuous
 62
     4
100
AcDbLine
 10
5496.995124835289
 20
1772.453508540417
 30
0.0
 11
5496.995124835289
 21
2572.454242611892
 31
0.0
  0
LINE
  5
C1
330
20
100
AcDbEntity
  8
_1-0_
  6
Continuous
 62
     4
100
AcDbLine
 10
5336.995124835289
 20
1772.453508540417
 30
0.0
 11
5510.328458168623
 21
1772.453508540417
 31
0.0
  0
LINE
  5
C2
330
20
100
AcDbEntity
  8
_1-0_
  6
Continuous
 62
     4
100
AcDbLine
 10
4023.662478834796
 20
2885.787740119584
 30
0.0
 11
4023.662478834796
 21
3232.454406786251
 31
0.0
  0
LINE
  5
C3
330
20
100
AcDbEntity
  8
_1-0_
  6
Continuous
 62
     4
100
AcDbLine
 10
5223.661791501957
 20
2885.787740119584
 30
0.0
 11
5223.661791501957
 21
3232.454406786251
 31
0.0
  0
LINE
  5
C4
330
20
100
AcDbEntity
  8
_1-0_
  6
Continuous
 62
     4
100
AcDbLine
 10
5316.99512483529
 20
3219.121073452917
 30
0.0
 11
5223.661791501957
 21
3219.121073452917
 31
0.0
  0
LINE
  5
C5
330
20
100
AcDbEntity
  8
_1-0_
  6
Continuous
 62
     4
100
AcDbLine
 10
4023.662478834796
 20
3219.121073452917
 30
0.0
 11
3930.329145501465
 21
3219.121073452917
 31
0.0
  0
LINE
  5
C6
330
20
100
AcDbEntity
  8
_1-0_
  6
Continuous
 62
     4
100
AcDbLine
 10
5223.661791501957
 20
3219.121073452917
 30
0.0
 11
4023.662478834796
 21
3219.121073452917
 31
0.0
  0
LINE
  5
C7
330
20
100
AcDbEntity
  8
_1-0_
  6
Continuous
 62
     4
100
AcDbLine
 10
4090.329145501464
 20
2885.787740119584
 30
0.0
 11
4090.329145501464
 21
3059.121073452917
 31
0.0
  0
LINE
  5
C8
330
20
100
AcDbEntity
  8
_1-0_
  6
Continuous
 62
     4
100
AcDbLine
 10
5156.995124835289
 20
2885.787740119584
 30
0.0
 11
5156.995124835289
 21
3059.121073452917
 31
0.0
  0
LINE
  5
C9
330
20
100
AcDbEntity
  8
_1-0_
  6
Continuous
 62
     4
100
AcDbLine
 10
4156.995812168129
 20
3045.787740119584
 30
0.0
 11
4090.329145501464
 21
3045.787740119584
 31
0.0
  0
LINE
  5
CA
330
20
100
AcDbEntity
  8
_1-0_
  6
Continuous
 62
     4
100
AcDbLine
 10
4023.662478834796
 20
3045.787740119584
 30
0.0
 11
3956.99581216813
 21
3045.787740119584
 31
0.0
  0
LINE
  5
CB
330
20
100
AcDbEntity
  8
_1-0_
  6
Continuous
 62
     4
100
AcDbLine
 10
5290.328458168623
 20
3045.787740119584
 30
0.0
 11
5223.661791501957
 21
3045.787740119584
 31
0.0
  0
LINE
  5
CC
330
20
100
AcDbEntity
  8
_1-0_
  6
Continuous
 62
     4
100
AcDbLine
 10
5156.995124835289
 20
3045.787740119584
 30
0.0
 11
5090.328458168623
 21
3045.787740119584
 31
0.0
  0
LINE
  5
CD
330
20
100
AcDbEntity
  8
_1-0_
  6
Continuous
 62
     4
100
AcDbLine
 10
5223.661791501957
 20
3045.787740119584
 30
0.0
 11
5156.995124835289
 21
3045.787740119584
 31
0.0
  0
LINE
  5
CE
330
20
100
AcDbEntity
  8
_1-0_
  6
Continuous
 62
     4
100
AcDbLine
 10
4090.329145501464
 20
3045.787740119584
 30
0.0
 11
4023.662478834796
 21
3045.787740119584
 31
0.0
  0
LINE
  5
CF
330
20
100
AcDbEntity
  8
_1-0_
  6
Continuous
 62
     4
100
AcDbLine
 10
4623.662135168377
 20
3059.121073452917
 30
0.0
 11
4623.662135168377
 21
2885.787740119584
 31
0.0
  0
LINE
  5
D0
330
20
100
AcDbEntity
  8
_1-0_
  6
Continuous
 62
     4
100
AcDbLine
 10
4890.328801835043
 20
3059.121073452917
 30
0.0
 11
4890.328801835043
 21
2885.787740119584
 31
0.0
  0
LINE
  5
D1
330
20
100
AcDbEntity
  8
_1-0_
  6
Continuous
 62
     4
100
AcDbLine
 10
4356.99546850171
 20
3059.121073452917
 30
0.0
 11
4356.99546850171
 21
2885.787740119584
 31
0.0
  0
LINE
  5
D2
330
20
100
AcDbEntity
  8
_1-0_
  6
Continuous
 62
     4
100
AcDbLine
 10
4623.662135168377
 20
3045.787740119584
 30
0.0
 11
4356.99546850171
 21
3045.787740119584
 31
0.0
  0
LINE
  5
D3
330
20
100
AcDbEntity
  8
_1-0_
  6
Continuous
 62
     4
100
AcDbLine
 10
4890.328801835043
 20
3045.787740119584
 30
0.0
 11
4623.662135168377
 21
3045.787740119584
 31
0.0
  0
LINE
  5
D4
330
20
100
AcDbEntity
  8
_1-0_
  6
Continuous
 62
     4
100
AcDbLine
 10
5316.99512483529
 20
3392.454406786251
 30
0.0
 11
5282.221795088882
 21
3383.136921162559
 31
0.0
  0
LINE
  5
D5
330
20
100
AcDbEntity
  8
_1-0_
  6
Continuous
 62
     4
100
AcDbLine
 10
5316.99512483529
 20
3392.454406786251
 30
0.0
 11
5282.221795088882
 21
3401.771892409942
 31
0.0
  0
LINE
  5
D6
330
20
100
AcDbEntity
  8
_1-0_
  6
Continuous
 62
     4
100
AcDbLine
 10
3930.329145501465
 20
3392.454406786251
 30
0.0
 11
3965.102475247871
 21
3401.771892409942
 31
0.0
  0
LINE
  5
D7
330
20
100
AcDbEntity
  8
_1-0_
  6
Continuous
 62
     4
100
AcDbLine
 10
3930.329145501465
 20
3392.454406786251
 30
0.0
 11
3965.102475247871
 21
3383.136921162559
 31
0.0
  0
LINE
  5
D8
330
20
100
AcDbEntity
  8
_1-0_
  6
Continuous
 62
     4
100
AcDbLine
 10
3930.329145501465
 20
3219.121073452917
 30
0.0
 11
3965.102475247871
 21
3228.438559076609
 31
0.0
  0
LINE
  5
D9
330
20
100
AcDbEntity
  8
_1-0_
  6
Continuous
 62
     4
100
AcDbLine
 10
3930.329145501465
 20
3219.121073452917
 30
0.0
 11
3965.102475247871
 21
3209.803587829227
 31
0.0
  0
LINE
  5
DA
330
20
100
AcDbEntity
  8
_1-0_
  6
Continuous
 62
     4
100
AcDbLine
 10
4023.662478834796
 20
3219.121073452917
 30
0.0
 11
3988.889149088392
 21
3209.803587829227
 31
0.0
  0
LINE
  5
DB
330
20
100
AcDbEntity
  8
_1-0_
  6
Continuous
 62
     4
100
AcDbLine
 10
4023.662478834796
 20
3219.121073452917
 30
0.0
 11
3988.889149088392
 21
3228.438559076609
 31
0.0
  0
LINE
  5
DC
330
20
100
AcDbEntity
  8
_1-0_
  6
Continuous
 62
     4
100
AcDbLine
 10
4023.662478834796
 20
3219.121073452917
 30
0.0
 11
4058.435808581204
 21
3228.438559076609
 31
0.0
  0
LINE
  5
DD
330
20
100
AcDbEntity
  8
_1-0_
  6
Continuous
 62
     4
100
AcDbLine
 10
4023.662478834796
 20
3219.121073452917
 30
0.0
 11
4058.435808581204
 21
3209.803587829227
 31
0.0
  0
LINE
  5
DE
330
20
100
AcDbEntity
  8
_1-0_
  6
Continuous
 62
     4
100
AcDbLine
 10
5223.661791501957
 20
3219.121073452917
 30
0.0
 11
5188.888461755549
 21
3209.803587829227
 31
0.0
  0
LINE
  5
DF
330
20
100
AcDbEntity
  8
_1-0_
  6
Continuous
 62
     4
100
AcDbLine
 10
5223.661791501957
 20
3219.121073452917
 30
0.0
 11
5188.888461755549
 21
3228.438559076609
 31
0.0
  0
LINE
  5
E0
330
20
100
AcDbEntity
  8
_1-0_
  6
Continuous
 62
     4
100
AcDbLine
 10
5223.661791501957
 20
3219.121073452917
 30
0.0
 11
5258.435121248361
 21
3228.438559076609
 31
0.0
  0
LINE
  5
E1
330
20
100
AcDbEntity
  8
_1-0_
  6
Continuous
 62
     4
100
AcDbLine
 10
5223.661791501957
 20
3219.121073452917
 30
0.0
 11
5258.435121248361
 21
3209.803587829227
 31
0.0
  0
LINE
  5
E2
330
20
100
AcDbEntity
  8
_1-0_
  6
Continuous
 62
     4
100
AcDbLine
 10
5316.99512483529
 20
3219.121073452917
 30
0.0
 11
5282.221795088882
 21
3209.803587829227
 31
0.0
  0
LINE
  5
E3
330
20
100
AcDbEntity
  8
_1-0_
  6
Continuous
 62
     4
100
AcDbLine
 10
5316.99512483529
 20
3219.121073452917
 30
0.0
 11
5282.221795088882
 21
3228.438559076609
 31
0.0
  0
LINE
  5
E4
330
20
100
AcDbEntity
  8
_1-0_
  6
Continuous
 62
     4
100
AcDbLine
 10
5223.661791501957
 20
3045.787740119584
 30
0.0
 11
5258.435121248361
 21
3055.105225743274
 31
0.0
  0
LINE
  5
E5
330
20
100
AcDbEntity
  8
_1-0_
  6
Continuous
 62
     4
100
AcDbLine
 10
5223.661791501957
 20
3045.787740119584
 30
0.0
 11
5258.435121248361
 21
3036.470254495893
 31
0.0
  0
LINE
  5
E6
330
20
100
AcDbEntity
  8
_1-0_
  6
Continuous
 62
     4
100
AcDbLine
 10
5156.995124835289
 20
3045.787740119584
 30
0.0
 11
5122.221795088882
 21
3036.470254495893
 31
0.0
  0
LINE
  5
E7
330
20
100
AcDbEntity
  8
_1-0_
  6
Continuous
 62
     4
100
AcDbLine
 10
5156.995124835289
 20
3045.787740119584
 30
0.0
 11
5122.221795088882
 21
3055.105225743274
 31
0.0
  0
LINE
  5
E8
330
20
100
AcDbEntity
  8
_1-0_
  6
Continuous
 62
     4
100
AcDbLine
 10
4890.328801835043
 20
3045.787740119584
 30
0.0
 11
4855.555472088637
 21
3036.470254495893
 31
0.0
  0
LINE
  5
E9
330
20
100
AcDbEntity
  8
_1-0_
  6
Continuous
 62
     4
100
AcDbLine
 10
4890.328801835043
 20
3045.787740119584
 30
0.0
 11
4855.555472088637
 21
3055.105225743274
 31
0.0
  0
LINE
  5
EA
330
20
100
AcDbEntity
  8
_1-0_
  6
Continuous
 62
     4
100
AcDbLine
 10
4623.662135168377
 20
3045.787740119584
 30
0.0
 11
4658.435464914782
 21
3055.105225743274
 31
0.0
  0
LINE
  5
EB
330
20
100
AcDbEntity
  8
_1-0_
  6
Continuous
 62
     4
100
AcDbLine
 10
4623.662135168377
 20
3045.787740119584
 30
0.0
 11
4658.435464914782
 21
3036.470254495893
 31
0.0
  0
LINE
  5
EC
330
20
100
AcDbEntity
  8
_1-0_
  6
Continuous
 62
     4
100
AcDbLine
 10
4623.662135168377
 20
3045.787740119584
 30
0.0
 11
4588.88880542197
 21
3036.470254495893
 31
0.0
  0
LINE
  5
ED
330
20
100
AcDbEntity
  8
_1-0_
  6
Continuous
 62
     4
100
AcDbLine
 10
4623.662135168377
 20
3045.787740119584
 30
0.0
 11
4588.88880542197
 21
3055.105225743274
 31
0.0
  0
LINE
  5
EE
330
20
100
AcDbEntity
  8
_1-0_
  6
Continuous
 62
     4
100
AcDbLine
 10
4356.99546850171
 20
3045.787740119584
 30
0.0
 11
4391.768798248118
 21
3055.105225743274
 31
0.0
  0
LINE
  5
EF
330
20
100
AcDbEntity
  8
_1-0_
  6
Continuous
 62
     4
100
AcDbLine
 10
4356.99546850171
 20
3045.787740119584
 30
0.0
 11
4391.768798248118
 21
3036.470254495893
 31
0.0
  0
LINE
  5
F0
330
20
100
AcDbEntity
  8
_1-0_
  6
Continuous
 62
     4
100
AcDbLine
 10
4090.329145501464
 20
3045.787740119584
 30
0.0
 11
4125.102475247869
 21
3055.105225743274
 31
0.0
  0
LINE
  5
F1
330
20
100
AcDbEntity
  8
_1-0_
  6
Continuous
 62
     4
100
AcDbLine
 10
4090.329145501464
 20
3045.787740119584
 30
0.0
 11
4125.102475247869
 21
3036.470254495893
 31
0.0
  0
LINE
  5
F2
330
20
100
AcDbEntity
  8
_1-0_
  6
Continuous
 62
     4
100
AcDbLine
 10
4023.662478834796
 20
3045.787740119584
 30
0.0
 11
3988.889149088392
 21
3036.470254495893
 31
0.0
  0
LINE
  5
F3
330
20
100
AcDbEntity
  8
_1-0_
  6
Continuous
 62
     4
100
AcDbLine
 10
4023.662478834796
 20
3045.787740119584
 30
0.0
 11
3988.889149088392
 21
3055.105225743274
 31
0.0
  0
LINE
  5
F4
330
20
100
AcDbEntity
  8
_1-0_
  6
Continuous
 62
     4
100
AcDbLine
 10
5496.995124835289
 20
2572.454242611892
 30
0.0
 11
5506.312610458979
 21
2537.680912865485
 31
0.0
  0
LINE
  5
F5
330
20
100
AcDbEntity
  8
_1-0_
  6
Continuous
 62
     4
100
AcDbLine
 10
5496.995124835289
 20
2572.454242611892
 30
0.0
 11
5487.677639211598
 21
2537.680912865485
 31
0.0
  0
LINE
  5
F6
330
20
100
AcDbEntity
  8
_1-0_
  6
Continuous
 62
     4
100
AcDbLine
 10
5496.995124835289
 20
1772.453508540417
 30
0.0
 11
5487.677639211598
 21
1807.226838286824
 31
0.0
  0
LINE
  5
F7
330
20
100
AcDbEntity
  8
_1-0_
  6
Continuous
 62
     4
100
AcDbLine
 10
5496.995124835289
 20
1772.453508540417
 30
0.0
 11
5506.312610458979
 21
1807.226838286824
 31
0.0
  0
LINE
  5
F8
330
20
100
AcDbEntity
  8
_1-0_
  6
Continuous
 62
   136
100
AcDbLine
 10
4717.943182166027
 20
2266.735211116339
 30
0.0
 11
4906.504776860267
 21
2455.297207920773
 31
0.0
  0
LINE
  5
F9
330
20
100
AcDbEntity
  8
_1-0_
  6
Continuous
 62
   136
100
AcDbLine
 10
4340.820193377697
 20
2455.297207920773
 30
0.0
 11
4529.381788071938
 21
2266.735211116339
 31
0.0
  0
LINE
  5
FA
330
20
100
AcDbEntity
  8
_1-0_
  6
Continuous
 62
   136
100
AcDbLine
 10
4340.819930914744
 20
1889.611155644539
 30
0.0
 11
4529.381525608983
 21
2078.173152448972
 31
0.0
  0
LINE
  5
FB
330
20
100
AcDbEntity
  8
_1-0_
  6
Continuous
 62
   136
100
AcDbLine
 10
4717.943444628981
 20
2078.173152448972
 30
0.0
 11
4906.505039323221
 21
1889.611155644539
 31
0.0
  0
LINE
  5
FC
330
20
100
AcDbEntity
  8
_1-0_
  6
DASHED1
 62
   136
100
AcDbLine
 10
4906.504776860267
 20
2455.297207920773
 30
0.0
 11
5156.99525798148
 21
2705.788223216381
 31
0.0
  0
LINE
  5
FD
330
20
100
AcDbEntity
  8
_1-0_
  6
DASHED1
 62
   136
100
AcDbLine
 10
4340.820193377697
 20
2455.297207920773
 30
0.0
 11
4090.329712256485
 21
2705.788223216381
 31
0.0
  0
LINE
  5
FE
330
20
100
AcDbEntity
  8
_1-0_
  6
DASHED1
 62
   136
100
AcDbLine
 10
4340.819930914744
 20
1889.611155644539
 30
0.0
 11
4090.329712256485
 21
1639.120402812445
 31
0.0
  0
LINE
  5
FF
330
20
100
AcDbEntity
  8
_1-0_
  6
DASHED1
 62
   136
100
AcDbLine
 10
4906.505039323221
 20
1889.611155644539
 30
0.0
 11
5156.99525798148
 21
1639.120402812445
 31
0.0
  0
TEXT
  5
100
330
20
100
AcDbEntity
  8
_1-0_
 62
     7
100
AcDbText
 10
4554.42352510609
 20
3404.159729448492
 30
0.0
 40
60.0
  1
1040
100
AcDbText
  0
TEXT
  5
101
330
20
100
AcDbEntity
  8
_1-0_
 62
     7
100
AcDbText
 10
4573.187461481889
 20
3229.65512115356
 30
0.0
 40
60.0
  1
900
100
AcDbText
  0
TEXT
  5
102
330
20
100
AcDbEntity
  8
_1-0_
 62
     7
100
AcDbText
 10
4441.839906851297
 20
3057.026906496209
 30
0.0
 40
60.0
  1
200
100
AcDbText
  0
TEXT
  5
103
330
20
100
AcDbEntity
  8
_1-0_
 62
     7
100
AcDbText
 10
4706.411409750063
 20
3055.15051285863
 30
0.0
 40
60.0
  1
200
100
AcDbText
  0
TEXT
  5
104
330
20
100
AcDbEntity
  8
_1-0_
 62
     7
100
AcDbText
 10
5214.835347510575
 20
3231.53151479114
 30
0.0
 40
60.0
  1
70
100
AcDbText
  0
TEXT
  5
105
330
20
100
AcDbEntity
  8
_1-0_
 62
     7
100
AcDbText
 10
3944.595592892623
 20
3231.53151479114
 30
0.0
 40
60.0
  1
70
100
AcDbText
  0
TEXT
  5
106
330
20
100
AcDbEntity
  8
_1-0_
 62
     7
100
AcDbText
 10
4030.909700221299
 20
3060.779693771369
 30
0.0
 40
60.0
  1
50
100
AcDbText
  0
TEXT
  5
107
330
20
100
AcDbEntity
  8
_1-0_
 62
     7
100
AcDbText
 10
5119.360934651554
 20
3062.656087408949
 30
0.0
 40
60.0
  1
50
100
AcDbText
  0
TEXT
  5
108
330
20
100
AcDbEntity
  8
_1-0_
 62
     7
100
AcDbText
 10
5488.601507965861
 20
2120.763905262029
 30
0.0
 40
60.0
  1
600
 50
90.0
100
AcDbText
  0
LINE
  5
109
330
20
100
AcDbEntity
  8
_1-0_
  6
Continuous
 62
     4
100
AcDbLine
 10
5023.66232722881
 20
1459.120360983332
 30
0.0
 11
5023.66232722881
 21
1285.787027649999
 31
0.0
  0
LINE
  5
10A
330
20
100
AcDbEntity
  8
_1-0_
  6
Continuous
 62
     4
100
AcDbLine
 10
4223.661593157336
 20
1299.120360983332
 30
0.0
 11
5023.66232722881
 21
1299.120360983332
 31
0.0
  0
LINE
  5
10B
330
20
100
AcDbEntity
  8
_1-0_
  6
Continuous
 62
     4
100
AcDbLine
 10
4223.661593157336
 20
1459.120360983332
 30
0.0
 11
4223.661593157336
 21
1285.787027649999
 31
0.0
  0
LINE
  5
10C
330
20
100
AcDbEntity
  8
_1-0_
  6
Continuous
 62
     4
100
AcDbLine
 10
5023.66232722881
 20
1299.120360983332
 30
0.0
 11
4988.888997482405
 21
1289.802875359642
 31
0.0
  0
LINE
  5
10D
330
20
100
AcDbEntity
  8
_1-0_
  6
Continuous
 62
     4
100
AcDbLine
 10
5023.66232722881
 20
1299.120360983332
 30
0.0
 11
4988.888997482405
 21
1308.437846607023
 31
0.0
  0
LINE
  5
10E
330
20
100
AcDbEntity
  8
_1-0_
  6
Continuous
 62
     4
100
AcDbLine
 10
4223.661593157336
 20
1299.120360983332
 30
0.0
 11
4258.434922903743
 21
1308.437846607023
 31
0.0
  0
LINE
  5
10F
330
20
100
AcDbEntity
  8
_1-0_
  6
Continuous
 62
     4
100
AcDbLine
 10
4223.661593157336
 20
1299.120360983332
 30
0.0
 11
4258.434922903743
 21
1289.802875359642
 31
0.0
  0
TEXT
  5
110
330
20
100
AcDbEntity
  8
_1-0_
 62
     7
100
AcDbText
 10
4570.380755032401
 20
1311.626043237274
 30
0.0
 40
60.0
  1
600
100
AcDbText
  0
LINE
  5
111
330
20
100
AcDbEntity
  8
_1-0_
  6
DASHED1
 62
   136
100
AcDbLine
 10
1488.704091409016
 20
3066.819488526523
 30
0.0
 11
1488.704091409016
 21
2813.485345318723
 31
0.0
  0
LINE
  5
112
330
20
100
AcDbEntity
  8
_1-0_
  6
DASHED1
 62
   136
100
AcDbLine
 10
2422.038806084979
 20
2813.485345318723
 30
0.0
 11
1355.370460755134
 21
2813.485345318723
 31
0.0
  0
LINE
  5
113
330
20
100
AcDbEntity
  8
_1-0_
  6
DASHED1
 62
   136
100
AcDbLine
 10
1288.70347045289
 20
2746.819054917691
 30
0.0
 11
2488.705446436617
 21
2746.819054917691
 31
0.0
  0
LINE
  5
114
330
20
100
AcDbEntity
  8
_1-0_
  6
DASHED1
 62
   136
100
AcDbLine
 10
1355.369935829225
 20
1746.818487966288
 30
0.0
 11
1355.369935829225
 21
2813.485345318723
 31
0.0
  0
LINE
  5
115
330
20
100
AcDbEntity
  8
_1-0_
  6
DASHED1
 62
   136
100
AcDbLine
 10
1288.703120502283
 20
1813.485128317926
 30
0.0
 11
1288.703120502283
 21
2746.819054917691
 31
0.0
  0
LINE
  5
116
330
20
100
AcDbEntity
  8
_1-0_
  6
DASHED1
 62
   136
100
AcDbLine
 10
1288.70347045289
 20
2746.819054917691
 30
0.0
 11
1355.370460755134
 21
2813.485345318723
 31
0.0
  0
LINE
  5
117
330
20
100
AcDbEntity
  8
_1-0_
  6
DASHED1
 62
   136
100
AcDbLine
 10
2422.038456134372
 20
1746.818487966288
 30
0.0
 11
2422.038456134372
 21
2813.485345318723
 31
0.0
  0
LINE
  5
118
330
20
100
AcDbEntity
  8
_1-0_
  6
DASHED1
 62
   136
100
AcDbLine
 10
2288.704125579277
 20
3066.819488526523
 30
0.0
 11
2288.704125579277
 21
2813.485345318723
 31
0.0
  0
LINE
  5
119
330
20
100
AcDbEntity
  8
_1-0_
  6
DASHED1
 62
   136
100
AcDbLine
 10
2422.038806084979
 20
2813.485345318723
 30
0.0
 11
2488.705446436617
 21
2746.819054917691
 31
0.0
  0
LINE
  5
11A
330
20
100
AcDbEntity
  8
_1-0_
  6
DASHED1
 62
   136
100
AcDbLine
 10
2488.70509648601
 20
1813.485128317926
 30
0.0
 11
2488.70509648601
 21
2746.819054917691
 31
0.0
  0
LINE
  5
11B
330
20
100
AcDbEntity
  8
_1-0_
  6
DASHED1
 62
   136
100
AcDbLine
 10
1235.369335787654
 20
1826.818421393193
 30
0.0
 11
1235.369335787654
 21
2226.818963404233
 31
0.0
  0
LINE
  5
11C
330
20
100
AcDbEntity
  8
_1-0_
  6
DASHED1
 62
   136
100
AcDbLine
 10
1195.369456561853
 20
2240.152081504197
 30
0.0
 11
1235.369335787654
 21
2226.818963404233
 31
0.0
  0
LINE
  5
11D
330
20
100
AcDbEntity
  8
_1-0_
  6
DASHED1
 62
   136
100
AcDbLine
 10
1235.369335787654
 20
1826.818421393193
 30
0.0
 11
1195.369456561853
 21
1813.485653243836
 31
0.0
  0
LINE
  5
11E
330
20
100
AcDbEntity
  8
_1-0_
  6
DASHED1
 62
   136
100
AcDbLine
 10
1475.370623358446
 20
1813.485128317926
 30
0.0
 11
1288.703120502283
 21
1813.485128317926
 31
0.0
  0
LINE
  5
11F
330
20
100
AcDbEntity
  8
_1-0_
  6
DASHED1
 62
   136
100
AcDbLine
 10
1355.370460755134
 20
1746.818487966288
 30
0.0
 11
1755.37135271678
 21
1733.485369866324
 31
0.0
  0
LINE
  5
120
330
20
100
AcDbEntity
  8
_1-0_
  6
DASHED1
 62
   136
100
AcDbLine
 10
1288.703120502283
 20
1813.485128317926
 30
0.0
 11
1355.370460755134
 21
1746.818487966288
 31
0.0
  0
LINE
  5
121
330
20
100
AcDbEntity
  8
_1-0_
  6
DASHED1
 62
   136
100
AcDbLine
 10
1768.703770915531
 20
1693.484965714614
 30
0.0
 11
2008.704446072762
 21
1693.484965714614
 31
0.0
  0
LINE
  5
122
330
20
100
AcDbEntity
  8
_1-0_
  6
DASHED1
 62
   136
100
AcDbLine
 10
1755.37135271678
 20
1733.485369866324
 30
0.0
 11
1768.703770915531
 21
1693.484965714614
 31
0.0
  0
LINE
  5
123
330
20
100
AcDbEntity
  8
_1-0_
  6
DASHED1
 62
   136
100
AcDbLine
 10
2008.704446072762
 20
1693.484965714614
 30
0.0
 11
2022.037914123332
 21
1733.485369866324
 31
0.0
  0
LINE
  5
124
330
20
100
AcDbEntity
  8
_1-0_
  6
DASHED1
 62
   136
100
AcDbLine
 10
2022.037914123332
 20
1733.485369866324
 30
0.0
 11
2422.127343588372
 21
1746.818487966288
 31
0.0
  0
LINE
  5
125
330
20
100
AcDbEntity
  8
_1-0_
  6
DASHED1
 62
   136
100
AcDbLine
 10
2488.70509648601
 20
1813.485128317926
 30
0.0
 11
2302.037243679241
 21
1813.485128317926
 31
0.0
  0
LINE
  5
126
330
20
100
AcDbEntity
  8
_1-0_
  6
DASHED1
 62
   136
100
AcDbLine
 10
2422.038456134372
 20
1746.818487966288
 30
0.0
 11
2488.70509648601
 21
1813.485128317926
 31
0.0
  0
LINE
  5
127
330
20
100
AcDbEntity
  8
_1-0_
  6
DASHED1
 62
   136
100
AcDbLine
 10
2542.038618737684
 20
1826.818421393193
 30
0.0
 11
2582.038322988181
 21
1813.485653243836
 31
0.0
  0
LINE
  5
128
330
20
100
AcDbEntity
  8
_1-0_
  6
DASHED1
 62
   136
100
AcDbLine
 10
2542.038618737684
 20
1826.818421393193
 30
0.0
 11
2542.038618737684
 21
2226.818963404233
 31
0.0
  0
LINE
  5
129
330
20
100
AcDbEntity
  8
_1-0_
  6
DASHED1
 62
   136
100
AcDbLine
 10
2582.038322988181
 20
2240.152081504197
 30
0.0
 11
2542.038618737684
 21
2226.818963404233
 31
0.0
  0
LINE
  5
12A
330
20
100
AcDbEntity
  8
_1-0_
  6
Continuous
 62
   136
100
AcDbLine
 10
1488.703916433713
 20
2226.818963404233
 30
0.0
 11
2288.703775628671
 21
2226.818963404233
 31
0.0
  0
LINE
  5
12B
330
20
100
AcDbEntity
  8
_1-0_
  6
Continuous
 62
   136
100
AcDbLine
 10
1475.370623358446
 20
2240.152081504197
 30
0.0
 11
2302.037243679241
 21
2240.152081504197
 31
0.0
  0
LINE
  5
12C
330
20
100
AcDbEntity
  8
_1-0_
  6
Continuous
 62
   136
100
AcDbLine
 10
1475.370623358446
 20
2240.152081504197
 30
0.0
 11
1475.370623358446
 21
1813.485653243836
 31
0.0
  0
LINE
  5
12D
330
20
100
AcDbEntity
  8
_1-0_
  6
Continuous
 62
   136
100
AcDbLine
 10
1488.703916433713
 20
2226.818963404233
 30
0.0
 11
1488.703916433713
 21
1826.818421393193
 31
0.0
  0
LINE
  5
12E
330
20
100
AcDbEntity
  8
_1-0_
  6
Continuous
 62
   136
100
AcDbLine
 10
1488.703916433713
 20
1826.818421393193
 30
0.0
 11
2288.703775628671
 21
1826.818421393193
 31
0.0
  0
LINE
  5
12F
330
20
100
AcDbEntity
  8
_1-0_
  6
Continuous
 62
   136
100
AcDbLine
 10
1475.370623358446
 20
1813.485653243836
 30
0.0
 11
2302.037243679241
 21
1813.485653243836
 31
0.0
  0
LINE
  5
130
330
20
100
AcDbEntity
  8
_1-0_
  6
Continuous
 62
   136
100
AcDbLine
 10
2288.703775628671
 20
2226.818963404233
 30
0.0
 11
2288.703775628671
 21
1826.818421393193
 31
0.0
  0
LINE
  5
131
330
20
100
AcDbEntity
  8
_1-0_
  6
Continuous
 62
   136
100
AcDbLine
 10
2302.037243679241
 20
2240.152081504197
 30
0.0
 11
2302.037243679241
 21
1813.485653243836
 31
0.0
  0
LINE
  5
132
330
20
100
AcDbEntity
  8
_1-0_
  6
Continuous
 62
   136
100
AcDbLine
 10
1475.370623358446
 20
2240.152081504197
 30
0.0
 11
1488.703916433713
 21
2226.818963404233
 31
0.0
  0
LINE
  5
133
330
20
100
AcDbEntity
  8
_1-0_
  6
Continuous
 62
   136
100
AcDbLine
 10
1488.703916433713
 20
1826.818421393193
 30
0.0
 11
1475.370623358446
 21
1813.485653243836
 31
0.0
  0
LINE
  5
134
330
20
100
AcDbEntity
  8
_1-0_
  6
Continuous
 62
   136
100
AcDbLine
 10
2288.703775628671
 20
1826.818421393193
 30
0.0
 11
2302.037243679241
 21
1813.485653243836
 31
0.0
  0
LINE
  5
135
330
20
100
AcDbEntity
  8
_1-0_
  6
Continuous
 62
   136
100
AcDbLine
 10
2288.703775628671
 20
2226.818963404233
 30
0.0
 11
2302.037243679241
 21
2240.152081504197
 31
0.0
  0
LINE
  5
136
330
20
100
AcDbEntity
  8
_1-0_
  6
DASHED1
 62
     6
100
AcDbLine
 10
1242.036594738849
 20
2402.818921928606
 30
0.0
 11
1288.703120502283
 21
2402.818921928606
 31
0.0
  0
LINE
  5
137
330
20
100
AcDbEntity
  8
_1-0_
  6
DASHED1
 62
     6
100
AcDbLine
 10
1242.036594738849
 20
2424.152260839154
 30
0.0
 11
1288.703120502283
 21
2424.152260839154
 31
0.0
  0
LINE
  5
138
330
20
100
AcDbEntity
  8
_1-0_
  6
DASHED1
 62
     6
100
AcDbLine
 10
1242.036594738849
 20
2402.818921928606
 30
0.0
 11
1242.036594738849
 21
2424.152260839154
 31
0.0
  0
CIRCLE
  5
139
330
20
100
AcDbEntity
  8
_1-0_
  6
DASHED1
 62
     6
100
AcDbCircle
 10
1622.037022161685
 20
2413.485146974104
 30
0.0
 40
10.66666740478235
  0
CIRCLE
  5
13A
330
20
100
AcDbEntity
  8
_1-0_
  6
DASHED1
 62
     6
100
AcDbCircle
 10
1888.703933518843
 20
2413.485146974104
 30
0.0
 40
10.66666740478235
  0
CIRCLE
  5
13B
330
20
100
AcDbEntity
  8
_1-0_
  6
DASHED1
 62
     6
100
AcDbCircle
 10
2155.370494925395
 20
2413.485146974104
 30
0.0
 40
10.66666740478235
  0
LINE
  5
13C
330
20
100
AcDbEntity
  8
_1-0_
  6
DASHED1
 62
     6
100
AcDbLine
 10
2535.371359786489
 20
2402.818921928606
 30
0.0
 11
2488.704746535404
 21
2402.818921928606
 31
0.0
  0
LINE
  5
13D
330
20
100
AcDbEntity
  8
_1-0_
  6
DASHED1
 62
     6
100
AcDbLine
 10
2535.371359786489
 20
2424.152260839154
 30
0.0
 11
2488.704746535404
 21
2424.152260839154
 31
0.0
  0
LINE
  5
13E
330
20
100
AcDbEntity
  8
_1-0_
  6
DASHED1
 62
     6
100
AcDbLine
 10
2535.371359786489
 20
2402.818921928606
 30
0.0
 11
2535.371359786489
 21
2424.152260839154
 31
0.0
  0
LINE
  5
13F
330
20
100
AcDbEntity
  8
_1-0_
  6
Continuous
 62
     7
100
AcDbLine
 10
1315.370756504636
 20
3053.486370426559
 30
0.0
 11
1308.704022479351
 21
2933.485507922035
 31
0.0
  0
LINE
  5
140
330
20
100
AcDbEntity
  8
_1-0_
  6
Continuous
 62
     7
100
AcDbLine
 10
2448.701717754146
 20
3066.819488526523
 30
0.0
 11
1328.704049579903
 21
3066.819488526523
 31
0.0
  0
LINE
  5
141
330
20
100
AcDbEntity
  8
_1-0_
  6
Continuous
 62
     7
100
AcDbLine
 10
2572.610653654507
 20
2933.485507922035
 30
0.0
 11
1204.798175747348
 21
2933.485507922035
 31
0.0
  0
LINE
  5
142
330
20
100
AcDbEntity
  8
_1-0_
  6
Continuous
 62
     7
100
AcDbLine
 10
1195.369456561853
 20
2924.05783858836
 30
0.0
 11
1195.369456561853
 21
1640.15144346294
 31
0.0
  0
LINE
  5
143
330
20
100
AcDbEntity
  8
_1-0_
  6
Continuous
 62
     7
100
AcDbLine
 10
1195.369456561853
 20
2924.05783858836
 30
0.0
 11
1204.798175747348
 21
2933.485507922035
 31
0.0
  0
LINE
  5
144
330
20
100
AcDbEntity
  8
_1-0_
  6
Continuous
 62
     7
100
AcDbLine
 10
1195.369456561853
 20
2613.485337463491
 30
0.0
 11
2582.038322988181
 21
2613.485337463491
 31
0.0
  0
LINE
  5
145
330
20
100
AcDbEntity
  8
_1-0_
  6
Continuous
 62
     7
100
AcDbLine
 10
2582.038322988181
 20
2924.05783858836
 30
0.0
 11
2582.038322988181
 21
1640.15144346294
 31
0.0
  0
LINE
  5
146
330
20
100
AcDbEntity
  8
_1-0_
  6
Continuous
 62
     7
100
AcDbLine
 10
2572.610653654507
 20
2933.485507922035
 30
0.0
 11
2582.038672938788
 21
2924.05783858836
 31
0.0
  0
LINE
  5
147
330
20
100
AcDbEntity
  8
_1-0_
  6
Continuous
 62
     7
100
AcDbLine
 10
2462.035010829414
 20
3053.486370426559
 30
0.0
 11
2468.701569879395
 21
2933.485507922035
 31
0.0
  0
ARC
  5
148
330
20
100
AcDbEntity
  8
_1-0_
  6
Continuous
 62
     7
100
AcDbCircle
 10
2448.701717754146
 20
3053.486370426559
 30
0.0
 40
13.33333408510362
100
AcDbArc
 50
0.0
 51
90.0
  0
LINE
  5
149
330
20
100
AcDbEntity
  8
_1-0_
  6
Continuous
 62
     7
100
AcDbLine
 10
2568.704854937612
 20
1626.818325362976
 30
0.0
 11
1208.701874760605
 21
1626.818325362976
 31
0.0
  0
LINE
  5
14A
330
20
100
AcDbEntity
  8
_1-0_
  6
Continuous
 62
     7
100
AcDbLine
 10
2568.704854937612
 20
1626.818325362976
 30
0.0
 11
2582.038322988181
 21
1640.15144346294
 31
0.0
  0
LINE
  5
14B
330
20
100
AcDbEntity
  8
_1-0_
  6
Continuous
 62
     7
100
AcDbLine
 10
1195.369456561853
 20
1640.15144346294
 30
0.0
 11
1208.701874760605
 21
1626.818325362976
 31
0.0
  0
LINE
  5
14C
330
20
100
AcDbEntity
  8
_1-0_
  6
Continuous
 62
     4
100
AcDbLine
 10
3403.662478834796
 20
1479.120360983332
 30
0.0
 11
3403.662478834796
 21
2865.787740119584
 31
0.0
  0
LINE
  5
14D
330
20
100
AcDbEntity
  8
_1-0_
  6
Continuous
 62
     4
100
AcDbLine
 10
3910.329145501464
 20
1479.120360983332
 30
0.0
 11
3390.329145501464
 21
1479.120360983332
 31
0.0
  0
LINE
  5
14E
330
20
100
AcDbEntity
  8
_1-0_
  6
Continuous
 62
     4
100
AcDbLine
 10
3910.329145501464
 20
2865.787740119584
 30
0.0
 11
3390.329145501464
 21
2865.787740119584
 31
0.0
  0
LINE
  5
14F
330
20
100
AcDbEntity
  8
_1-0_
  6
Continuous
 62
     4
100
AcDbLine
 10
3910.329145501464
 20
2772.454406786251
 30
0.0
 11
3563.662478834797
 21
2772.454406786251
 31
0.0
  0
LINE
  5
150
330
20
100
AcDbEntity
  8
_1-0_
  6
Continuous
 62
     4
100
AcDbLine
 10
3910.329145501464
 20
1572.453694316665
 30
0.0
 11
3563.662478834797
 21
1572.453694316665
 31
0.0
  0
LINE
  5
151
330
20
100
AcDbEntity
  8
_1-0_
  6
Continuous
 62
     4
100
AcDbLine
 10
3576.995812168131
 20
1479.120360983332
 30
0.0
 11
3576.995812168131
 21
1572.453694316665
 31
0.0
  0
LINE
  5
152
330
20
100
AcDbEntity
  8
_1-0_
  6
Continuous
 62
     4
100
AcDbLine
 10
3576.995812168131
 20
2772.454406786251
 30
0.0
 11
3576.995812168131
 21
2865.787740119584
 31
0.0
  0
LINE
  5
153
330
20
100
AcDbEntity
  8
_1-0_
  6
Continuous
 62
     4
100
AcDbLine
 10
3576.995812168131
 20
2772.454406786251
 30
0.0
 11
3576.995812168131
 21
1572.453694316665
 31
0.0
  0
LINE
  5
154
330
20
100
AcDbEntity
  8
_1-0_
  6
Continuous
 62
     4
100
AcDbLine
 10
3910.329145501464
 20
1639.120360983332
 30
0.0
 11
3736.995812168129
 21
1639.120360983332
 31
0.0
  0
LINE
  5
155
330
20
100
AcDbEntity
  8
_1-0_
  6
Continuous
 62
     4
100
AcDbLine
 10
3910.329145501464
 20
2705.787740119584
 30
0.0
 11
3736.995812168129
 21
2705.787740119584
 31
0.0
  0
LINE
  5
156
330
20
100
AcDbEntity
  8
_1-0_
  6
Continuous
 62
     4
100
AcDbLine
 10
3750.329145501464
 20
2639.121073452917
 30
0.0
 11
3750.329145501464
 21
2705.787740119584
 31
0.0
  0
LINE
  5
157
330
20
100
AcDbEntity
  8
_1-0_
  6
Continuous
 62
     4
100
AcDbLine
 10
3750.329145501464
 20
2772.454406786251
 30
0.0
 11
3750.329145501464
 21
2839.121073452917
 31
0.0
  0
LINE
  5
158
330
20
100
AcDbEntity
  8
_1-0_
  6
Continuous
 62
     4
100
AcDbLine
 10
3750.329145501464
 20
1505.787027649999
 30
0.0
 11
3750.329145501464
 21
1572.453694316665
 31
0.0
  0
LINE
  5
159
330
20
100
AcDbEntity
  8
_1-0_
  6
Continuous
 62
     4
100
AcDbLine
 10
3750.329145501464
 20
1639.120360983332
 30
0.0
 11
3750.329145501464
 21
1705.787027649999
 31
0.0
  0
LINE
  5
15A
330
20
100
AcDbEntity
  8
_1-0_
  6
Continuous
 62
     4
100
AcDbLine
 10
3750.329145501464
 20
2772.454406786251
 30
0.0
 11
3750.329145501464
 21
2705.787740119584
 31
0.0
  0
LINE
  5
15B
330
20
100
AcDbEntity
  8
_1-0_
  6
Continuous
 62
     4
100
AcDbLine
 10
3750.329145501464
 20
1639.120360983332
 30
0.0
 11
3750.329145501464
 21
1572.453694316665
 31
0.0
  0
LINE
  5
15C
330
20
100
AcDbEntity
  8
_1-0_
  6
Continuous
 62
     4
100
AcDbLine
 10
3736.995812168129
 20
2172.454050551458
 30
0.0
 11
3910.329145501464
 21
2172.454050551458
 31
0.0
  0
LINE
  5
15D
330
20
100
AcDbEntity
  8
_1-0_
  6
Continuous
 62
     4
100
AcDbLine
 10
3736.995812168129
 20
2439.120717218125
 30
0.0
 11
3910.329145501464
 21
2439.120717218125
 31
0.0
  0
LINE
  5
15E
330
20
100
AcDbEntity
  8
_1-0_
  6
Continuous
 62
     4
100
AcDbLine
 10
3736.995812168129
 20
1905.787383884791
 30
0.0
 11
3910.329145501464
 21
1905.787383884791
 31
0.0
  0
LINE
  5
15F
330
20
100
AcDbEntity
  8
_1-0_
  6
Continuous
 62
     4
100
AcDbLine
 10
3750.329145501464
 20
1905.787383884791
 30
0.0
 11
3750.329145501464
 21
2172.454050551458
 31
0.0
  0
LINE
  5
160
330
20
100
AcDbEntity
  8
_1-0_
  6
Continuous
 62
     4
100
AcDbLine
 10
3750.329145501464
 20
2439.120717218125
 30
0.0
 11
3750.329145501464
 21
2172.454050551458
 31
0.0
  0
LINE
  5
161
330
20
100
AcDbEntity
  8
_1-0_
  6
Continuous
 62
     4
100
AcDbLine
 10
3403.662478834796
 20
2865.787740119584
 30
0.0
 11
3412.979964458489
 21
2831.014410373177
 31
0.0
  0
LINE
  5
162
330
20
100
AcDbEntity
  8
_1-0_
  6
Continuous
 62
     4
100
AcDbLine
 10
3403.662478834796
 20
2865.787740119584
 30
0.0
 11
3394.344993211106
 21
2831.014410373177
 31
0.0
  0
LINE
  5
163
330
20
100
AcDbEntity
  8
_1-0_
  6
Continuous
 62
     4
100
AcDbLine
 10
3576.995812168131
 20
2865.787740119584
 30
0.0
 11
3586.313297791821
 21
2831.014410373177
 31
0.0
  0
LINE
  5
164
330
20
100
AcDbEntity
  8
_1-0_
  6
Continuous
 62
     4
100
AcDbLine
 10
3576.995812168131
 20
2865.787740119584
 30
0.0
 11
3567.67832654444
 21
2831.014410373177
 31
0.0
  0
LINE
  5
165
330
20
100
AcDbEntity
  8
_1-0_
  6
Continuous
 62
     4
100
AcDbLine
 10
3576.995812168131
 20
2772.454406786251
 30
0.0
 11
3567.67832654444
 21
2807.227736532657
 31
0.0
  0
LINE
  5
166
330
20
100
AcDbEntity
  8
_1-0_
  6
Continuous
 62
     4
100
AcDbLine
 10
3576.995812168131
 20
2772.454406786251
 30
0.0
 11
3586.313297791821
 21
2807.227736532657
 31
0.0
  0
LINE
  5
167
330
20
100
AcDbEntity
  8
_1-0_
  6
Continuous
 62
     4
100
AcDbLine
 10
3576.995812168131
 20
2772.454406786251
 30
0.0
 11
3586.313297791821
 21
2737.681077039844
 31
0.0
  0
LINE
  5
168
330
20
100
AcDbEntity
  8
_1-0_
  6
Continuous
 62
     4
100
AcDbLine
 10
3576.995812168131
 20
2772.454406786251
 30
0.0
 11
3567.67832654444
 21
2737.681077039844
 31
0.0
  0
LINE
  5
169
330
20
100
AcDbEntity
  8
_1-0_
  6
Continuous
 62
     4
100
AcDbLine
 10
3750.329145501464
 20
2772.454406786251
 30
0.0
 11
3741.011659877773
 21
2807.227736532657
 31
0.0
  0
LINE
  5
16A
330
20
100
AcDbEntity
  8
_1-0_
  6
Continuous
 62
     4
100
AcDbLine
 10
3750.329145501464
 20
2772.454406786251
 30
0.0
 11
3759.646631125156
 21
2807.227736532657
 31
0.0
  0
LINE
  5
16B
330
20
100
AcDbEntity
  8
_1-0_
  6
Continuous
 62
     4
100
AcDbLine
 10
3750.329145501464
 20
2705.787740119584
 30
0.0
 11
3759.646631125156
 21
2671.014410373177
 31
0.0
  0
LINE
  5
16C
330
20
100
AcDbEntity
  8
_1-0_
  6
Continuous
 62
     4
100
AcDbLine
 10
3750.329145501464
 20
2705.787740119584
 30
0.0
 11
3741.011659877773
 21
2671.014410373177
 31
0.0
  0
LINE
  5
16D
330
20
100
AcDbEntity
  8
_1-0_
  6
Continuous
 62
     4
100
AcDbLine
 10
3750.329145501464
 20
2439.120717218125
 30
0.0
 11
3759.646631125156
 21
2404.347387471718
 31
0.0
  0
LINE
  5
16E
330
20
100
AcDbEntity
  8
_1-0_
  6
Continuous
 62
     4
100
AcDbLine
 10
3750.329145501464
 20
2439.120717218125
 30
0.0
 11
3741.011659877773
 21
2404.347387471718
 31
0.0
  0
LINE
  5
16F
330
20
100
AcDbEntity
  8
_1-0_
  6
Continuous
 62
     4
100
AcDbLine
 10
3750.329145501464
 20
2172.454050551458
 30
0.0
 11
3741.011659877773
 21
2207.227380297864
 31
0.0
  0
LINE
  5
170
330
20
100
AcDbEntity
  8
_1-0_
  6
Continuous
 62
     4
100
AcDbLine
 10
3750.329145501464
 20
2172.454050551458
 30
0.0
 11
3759.646631125156
 21
2207.227380297864
 31
0.0
  0
LINE
  5
171
330
20
100
AcDbEntity
  8
_1-0_
  6
Continuous
 62
     4
100
AcDbLine
 10
3750.329145501464
 20
2172.454050551458
 30
0.0
 11
3759.646631125156
 21
2137.680720805052
 31
0.0
  0
LINE
  5
172
330
20
100
AcDbEntity
  8
_1-0_
  6
Continuous
 62
     4
100
AcDbLine
 10
3750.329145501464
 20
2172.454050551458
 30
0.0
 11
3741.011659877773
 21
2137.680720805052
 31
0.0
  0
LINE
  5
173
330
20
100
AcDbEntity
  8
_1-0_
  6
Continuous
 62
     4
100
AcDbLine
 10
3750.329145501464
 20
1905.787383884791
 30
0.0
 11
3741.011659877773
 21
1940.560713631197
 31
0.0
  0
LINE
  5
174
330
20
100
AcDbEntity
  8
_1-0_
  6
Continuous
 62
     4
100
AcDbLine
 10
3750.329145501464
 20
1905.787383884791
 30
0.0
 11
3759.646631125156
 21
1940.560713631197
 31
0.0
  0
LINE
  5
175
330
20
100
AcDbEntity
  8
_1-0_
  6
Continuous
 62
     4
100
AcDbLine
 10
3750.329145501464
 20
1639.120360983332
 30
0.0
 11
3741.011659877773
 21
1673.893690729739
 31
0.0
  0
LINE
  5
176
330
20
100
AcDbEntity
  8
_1-0_
  6
Continuous
 62
     4
100
AcDbLine
 10
3750.329145501464
 20
1639.120360983332
 30
0.0
 11
3759.646631125156
 21
1673.893690729739
 31
0.0
  0
LINE
  5
177
330
20
100
AcDbEntity
  8
_1-0_
  6
Continuous
 62
     4
100
AcDbLine
 10
3750.329145501464
 20
1572.453694316665
 30
0.0
 11
3759.646631125156
 21
1537.680364570259
 31
0.0
  0
LINE
  5
178
330
20
100
AcDbEntity
  8
_1-0_
  6
Continuous
 62
     4
100
AcDbLine
 10
3750.329145501464
 20
1572.453694316665
 30
0.0
 11
3741.011659877773
 21
1537.680364570259
 31
0.0
  0
LINE
  5
179
330
20
100
AcDbEntity
  8
_1-0_
  6
Continuous
 62
     4
100
AcDbLine
 10
3576.995812168131
 20
1479.120360983332
 30
0.0
 11
3567.67832654444
 21
1513.893690729739
 31
0.0
  0
LINE
  5
17A
330
20
100
AcDbEntity
  8
_1-0_
  6
Continuous
 62
     4
100
AcDbLine
 10
3576.995812168131
 20
1479.120360983332
 30
0.0
 11
3586.313297791821
 21
1513.893690729739
 31
0.0
  0
LINE
  5
17B
330
20
100
AcDbEntity
  8
_1-0_
  6
Continuous
 62
     4
100
AcDbLine
 10
3576.995812168131
 20
1572.453694316665
 30
0.0
 11
3586.313297791821
 21
1537.680364570259
 31
0.0
  0
LINE
  5
17C
330
20
100
AcDbEntity
  8
_1-0_
  6
Continuous
 62
     4
100
AcDbLine
 10
3576.995812168131
 20
1572.453694316665
 30
0.0
 11
3567.67832654444
 21
1537.680364570259
 31
0.0
  0
LINE
  5
17D
330
20
100
AcDbEntity
  8
_1-0_
  6
Continuous
 62
     4
100
AcDbLine
 10
3576.995812168131
 20
1572.453694316665
 30
0.0
 11
3567.67832654444
 21
1607.227024063072
 31
0.0
  0
LINE
  5
17E
330
20
100
AcDbEntity
  8
_1-0_
  6
Continuous
 62
     4
100
AcDbLine
 10
3576.995812168131
 20
1572.453694316665
 30
0.0
 11
3586.313297791821
 21
1607.227024063072
 31
0.0
  0
LINE
  5
17F
330
20
100
AcDbEntity
  8
_1-0_
  6
Continuous
 62
     4
100
AcDbLine
 10
3403.662478834796
 20
1479.120360983332
 30
0.0
 11
3394.344993211106
 21
1513.893690729739
 31
0.0
  0
LINE
  5
180
330
20
100
AcDbEntity
  8
_1-0_
  6
Continuous
 62
     4
100
AcDbLine
 10
3403.662478834796
 20
1479.120360983332
 30
0.0
 11
3412.979964458489
 21
1513.893690729739
 31
0.0
  0
LINE
  5
181
330
20
100
AcDbEntity
  8
_1-0_
  6
Continuous
 62
     4
100
AcDbLine
 10
2602.038322988182
 20
2613.485337463491
 30
0.0
 11
2775.371656321516
 21
2613.485337463491
 31
0.0
  0
LINE
  5
182
330
20
100
AcDbEntity
  8
_1-0_
  6
Continuous
 62
     4
100
AcDbLine
 10
2762.038322988182
 20
2613.485337463491
 30
0.0
 11
2762.038322988182
 21
2413.485337463491
 31
0.0
  0
LINE
  5
183
330
20
100
AcDbEntity
  8
_1-0_
  6
Continuous
 62
     4
100
AcDbLine
 10
2602.038322988182
 20
2413.485337463491
 30
0.0
 11
2775.371656321516
 21
2413.485337463491
 31
0.0
  0
LINE
  5
184
330
20
100
AcDbEntity
  8
_1-0_
  6
Continuous
 62
     4
100
AcDbLine
 10
2762.038322988182
 20
2613.485337463491
 30
0.0
 11
2771.355808611872
 21
2578.712007717084
 31
0.0
  0
LINE
  5
185
330
20
100
AcDbEntity
  8
_1-0_
  6
Continuous
 62
     4
100
AcDbLine
 10
2762.038322988182
 20
2613.485337463491
 30
0.0
 11
2752.720837364491
 21
2578.712007717084
 31
0.0
  0
LINE
  5
186
330
20
100
AcDbEntity
  8
_1-0_
  6
Continuous
 62
     4
100
AcDbLine
 10
2762.038322988182
 20
2413.485337463491
 30
0.0
 11
2752.720837364491
 21
2448.258667209897
 31
0.0
  0
LINE
  5
187
330
20
100
AcDbEntity
  8
_1-0_
  6
Continuous
 62
     4
100
AcDbLine
 10
2762.038322988182
 20
2413.485337463491
 30
0.0
 11
2771.355808611872
 21
2448.258667209897
 31
0.0
  0
TEXT
  5
188
330
20
100
AcDbEntity
  8
_1-0_
 62
     7
100
AcDbText
 10
2944.461976257726
 20
2085.32305846376
 30
0.0
 40
70.0
  1
B1-650
 41
0.65
100
AcDbText
  0
TEXT
  5
189
330
20
100
AcDbEntity
  8
_1-0_
 62
     7
100
AcDbText
 10
2943.942878576788
 20
2738.08927231808
 30
0.0
 40
70.0
  1
B2-150
 41
0.65
100
AcDbText
  0
TEXT
  5
18A
330
20
100
AcDbEntity
  8
_1-0_
 62
     7
100
AcDbText
 10
2944.802271996571
 20
2964.969135140928
 30
0.0
 40
70.0
  1
CR-600
 41
0.65
100
AcDbText
  0
LINE
  5
18B
330
20
100
AcDbEntity
  8
_1-0_
  6
Continuous
 62
     7
100
AcDbLine
 10
2928.704989654849
 20
3046.819164890946
 30
0.0
 11
2848.704989654849
 21
3000.152498224279
 31
0.0
  0
LINE
  5
18C
330
20
100
AcDbEntity
  8
_1-0_
  6
Continuous
 62
     7
100
AcDbLine
 10
2848.704989654849
 20
3000.152498224279
 30
0.0
 11
2928.704989654849
 21
2953.485831557613
 31
0.0
  0
LINE
  5
18D
330
20
100
AcDbEntity
  8
_1-0_
  6
Continuous
 62
     7
100
AcDbLine
 10
2928.704989654849
 20
2953.485831557613
 30
0.0
 11
3195.371656321516
 21
2953.485831557613
 31
0.0
  0
LINE
  5
18E
330
20
100
AcDbEntity
  8
_1-0_
  6
Continuous
 62
     7
100
AcDbLine
 10
3195.371656321516
 20
3046.819164890946
 30
0.0
 11
3195.371656321516
 21
2953.485831557613
 31
0.0
  0
LINE
  5
18F
330
20
100
AcDbEntity
  8
_1-0_
  6
Continuous
 62
     7
100
AcDbLine
 10
2928.704989654849
 20
3046.819164890946
 30
0.0
 11
3195.371656321516
 21
3046.819164890946
 31
0.0
  0
LINE
  5
190
330
20
100
AcDbEntity
  8
_1-0_
  6
Continuous
 62
     7
100
AcDbLine
 10
2928.704989654849
 20
2820.152089359429
 30
0.0
 11
3195.371656321516
 21
2820.152089359429
 31
0.0
  0
LINE
  5
191
330
20
100
AcDbEntity
  8
_1-0_
  6
Continuous
 62
     7
100
AcDbLine
 10
2928.704989654849
 20
2820.152089359429
 30
0.0
 11
2848.704989654849
 21
2773.485422692763
 31
0.0
  0
LINE
  5
192
330
20
100
AcDbEntity
  8
_1-0_
  6
Continuous
 62
     7
100
AcDbLine
 10
2848.704989654849
 20
2773.485422692763
 30
0.0
 11
2928.704989654849
 21
2726.818756026096
 31
0.0
  0
LINE
  5
193
330
20
100
AcDbEntity
  8
_1-0_
  6
Continuous
 62
     7
100
AcDbLine
 10
2928.704989654849
 20
2726.818756026096
 30
0.0
 11
3195.371656321516
 21
2726.818756026096
 31
0.0
  0
LINE
  5
194
330
20
100
AcDbEntity
  8
_1-0_
  6
Continuous
 62
     7
100
AcDbLine
 10
3195.371656321516
 20
2820.152089359429
 30
0.0
 11
3195.371656321516
 21
2726.818756026096
 31
0.0
  0
LINE
  5
195
330
20
100
AcDbEntity
  8
_1-0_
  6
Continuous
 62
     7
100
AcDbLine
 10
2928.704989654849
 20
2166.8184980799
 30
0.0
 11
3195.371656321516
 21
2166.8184980799
 31
0.0
  0
LINE
  5
196
330
20
100
AcDbEntity
  8
_1-0_
  6
Continuous
 62
     7
100
AcDbLine
 10
2928.704989654849
 20
2166.8184980799
 30
0.0
 11
2848.704989654849
 21
2120.151831413234
 31
0.0
  0
LINE
  5
197
330
20
100
AcDbEntity
  8
_1-0_
  6
Continuous
 62
     7
100
AcDbLine
 10
2848.704989654849
 20
2120.151831413234
 30
0.0
 11
2928.704989654849
 21
2073.485164746567
 31
0.0
  0
LINE
  5
198
330
20
100
AcDbEntity
  8
_1-0_
  6
Continuous
 62
     7
100
AcDbLine
 10
2928.704989654849
 20
2073.485164746567
 30
0.0
 11
3195.371656321516
 21
2073.485164746567
 31
0.0
  0
LINE
  5
199
330
20
100
AcDbEntity
  8
_1-0_
  6
Continuous
 62
     7
100
AcDbLine
 10
3195.371656321516
 20
2166.8184980799
 30
0.0
 11
3195.371656321516
 21
2073.485164746567
 31
0.0
  0
LINE
  5
19A
330
20
100
AcDbEntity
  8
_1-0_
  6
Continuous
 62
     4
100
AcDbLine
 10
2582.038322988181
 20
926.8183253629763
 30
0.0
 11
1195.369456561853
 21
926.8183253629763
 31
0.0
  0
LINE
  5
19B
330
20
100
AcDbEntity
  8
_1-0_
  6
Continuous
 62
     4
100
AcDbLine
 10
1195.369456561853
 20
1606.818325362976
 30
0.0
 11
1195.369456561853
 21
913.4849920296433
 31
0.0
  0
LINE
  5
19C
330
20
100
AcDbEntity
  8
_1-0_
  6
Continuous
 62
     4
100
AcDbLine
 10
2582.038322988181
 20
1606.818325362976
 30
0.0
 11
2582.038322988181
 21
913.4849920296433
 31
0.0
  0
LINE
  5
19D
330
20
100
AcDbEntity
  8
_1-0_
  6
Continuous
 62
     4
100
AcDbLine
 10
2022.037914123332
 20
1606.818325362976
 30
0.0
 11
2022.037914123332
 21
1433.484992029643
 31
0.0
  0
LINE
  5
19E
330
20
100
AcDbEntity
  8
_1-0_
  6
Continuous
 62
     4
100
AcDbLine
 10
2008.704446072762
 20
1606.818325362976
 30
0.0
 11
2008.704446072762
 21
1433.484992029643
 31
0.0
  0
LINE
  5
19F
330
20
100
AcDbEntity
  8
_1-0_
  6
Continuous
 62
     4
100
AcDbLine
 10
1768.703770915531
 20
1606.818325362976
 30
0.0
 11
1768.703770915531
 21
1433.484992029643
 31
0.0
  0
LINE
  5
1A0
330
20
100
AcDbEntity
  8
_1-0_
  6
Continuous
 62
     4
100
AcDbLine
 10
1755.37135271678
 20
1606.818325362976
 30
0.0
 11
1755.37135271678
 21
1433.484992029643
 31
0.0
  0
LINE
  5
1A1
330
20
100
AcDbEntity
  8
_1-0_
  6
Continuous
 62
     4
100
AcDbLine
 10
1755.37135271678
 20
1446.818325362976
 30
0.0
 11
1688.704686050114
 21
1446.818325362976
 31
0.0
  0
LINE
  5
1A2
330
20
100
AcDbEntity
  8
_1-0_
  6
Continuous
 62
     4
100
AcDbLine
 10
2088.704580789999
 20
1446.818325362976
 30
0.0
 11
2022.037914123332
 21
1446.818325362976
 31
0.0
  0
LINE
  5
1A3
330
20
100
AcDbEntity
  8
_1-0_
  6
Continuous
 62
     4
100
AcDbLine
 10
2008.704446072762
 20
1446.818325362976
 30
0.0
 11
1768.703770915531
 21
1446.818325362976
 31
0.0
  0
LINE
  5
1A4
330
20
100
AcDbEntity
  8
_1-0_
  6
Continuous
 62
     4
100
AcDbLine
 10
2022.037914123332
 20
1446.818325362976
 30
0.0
 11
2008.704446072762
 21
1446.818325362976
 31
0.0
  0
LINE
  5
1A5
330
20
100
AcDbEntity
  8
_1-0_
  6
Continuous
 62
     4
100
AcDbLine
 10
1768.703770915531
 20
1446.818325362976
 30
0.0
 11
1755.37135271678
 21
1446.818325362976
 31
0.0
  0
LINE
  5
1A6
330
20
100
AcDbEntity
  8
_1-0_
  6
Continuous
 62
     4
100
AcDbLine
 10
2288.703775628671
 20
1606.818325362976
 30
0.0
 11
2288.703775628671
 21
1260.15165869631
 31
0.0
  0
LINE
  5
1A7
330
20
100
AcDbEntity
  8
_1-0_
  6
Continuous
 62
     4
100
AcDbLine
 10
1488.703916433713
 20
1606.818325362976
 30
0.0
 11
1488.703916433713
 21
1260.15165869631
 31
0.0
  0
LINE
  5
1A8
330
20
100
AcDbEntity
  8
_1-0_
  6
Continuous
 62
     4
100
AcDbLine
 10
2288.703775628671
 20
1273.484992029643
 30
0.0
 11
1488.703916433713
 21
1273.484992029643
 31
0.0
  0
LINE
  5
1A9
330
20
100
AcDbEntity
  8
_1-0_
  6
Continuous
 62
     4
100
AcDbLine
 10
1288.702789895187
 20
1606.818325362976
 30
0.0
 11
1288.702789895187
 21
1086.818325362977
 31
0.0
  0
LINE
  5
1AA
330
20
100
AcDbEntity
  8
_1-0_
  6
Continuous
 62
     4
100
AcDbLine
 10
2488.704989654849
 20
1606.818325362976
 30
0.0
 11
2488.704989654849
 21
1086.818325362977
 31
0.0
  0
LINE
  5
1AB
330
20
100
AcDbEntity
  8
_1-0_
  6
Continuous
 62
     4
100
AcDbLine
 10
2582.038322988181
 20
1100.15165869631
 30
0.0
 11
2488.704989654849
 21
1100.15165869631
 31
0.0
  0
LINE
  5
1AC
330
20
100
AcDbEntity
  8
_1-0_
  6
Continuous
 62
     4
100
AcDbLine
 10
1288.702789895187
 20
1100.15165869631
 30
0.0
 11
1195.369456561853
 21
1100.15165869631
 31
0.0
  0
LINE
  5
1AD
330
20
100
AcDbEntity
  8
_1-0_
  6
Continuous
 62
     4
100
AcDbLine
 10
2488.704989654849
 20
1100.15165869631
 30
0.0
 11
1288.702789895187
 21
1100.15165869631
 31
0.0
  0
LINE
  5
1AE
330
20
100
AcDbEntity
  8
_1-0_
  6
Continuous
 62
     4
100
AcDbLine
 10
1768.703770915531
 20
1446.818325362976
 30
0.0
 11
1803.477100661939
 21
1456.135810986667
 31
0.0
  0
LINE
  5
1AF
330
20
100
AcDbEntity
  8
_1-0_
  6
Continuous
 62
     4
100
AcDbLine
 10
1768.703770915531
 20
1446.818325362976
 30
0.0
 11
1803.477100661939
 21
1437.500839739285
 31
0.0
  0
LINE
  5
1B0
330
20
100
AcDbEntity
  8
_1-0_
  6
Continuous
 62
     4
100
AcDbLine
 10
2008.704446072762
 20
1446.818325362976
 30
0.0
 11
1973.931116326355
 21
1437.500839739285
 31
0.0
  0
LINE
  5
1B1
330
20
100
AcDbEntity
  8
_1-0_
  6
Continuous
 62
     4
100
AcDbLine
 10
2008.704446072762
 20
1446.818325362976
 30
0.0
 11
1973.931116326355
 21
1456.135810986667
 31
0.0
  0
LINE
  5
1B2
330
20
100
AcDbEntity
  8
_1-0_
  6
Continuous
 62
     4
100
AcDbLine
 10
2022.037914123332
 20
1446.818325362976
 30
0.0
 11
2056.811243869739
 21
1456.135810986667
 31
0.0
  0
LINE
  5
1B3
330
20
100
AcDbEntity
  8
_1-0_
  6
Continuous
 62
     4
100
AcDbLine
 10
2022.037914123332
 20
1446.818325362976
 30
0.0
 11
2056.811243869739
 21
1437.500839739285
 31
0.0
  0
LINE
  5
1B4
330
20
100
AcDbEntity
  8
_1-0_
  6
Continuous
 62
     4
100
AcDbLine
 10
1755.37135271678
 20
1446.818325362976
 30
0.0
 11
1720.598022970373
 21
1437.500839739285
 31
0.0
  0
LINE
  5
1B5
330
20
100
AcDbEntity
  8
_1-0_
  6
Continuous
 62
     4
100
AcDbLine
 10
1755.37135271678
 20
1446.818325362976
 30
0.0
 11
1720.598022970373
 21
1456.135810986667
 31
0.0
  0
LINE
  5
1B6
330
20
100
AcDbEntity
  8
_1-0_
  6
Continuous
 62
     4
100
AcDbLine
 10
1488.703916433713
 20
1273.484992029643
 30
0.0
 11
1523.47724618012
 21
1282.802477653334
 31
0.0
  0
LINE
  5
1B7
330
20
100
AcDbEntity
  8
_1-0_
  6
Continuous
 62
     4
100
AcDbLine
 10
1488.703916433713
 20
1273.484992029643
 30
0.0
 11
1523.47724618012
 21
1264.167506405952
 31
0.0
  0
LINE
  5
1B8
330
20
100
AcDbEntity
  8
_1-0_
  6
Continuous
 62
     4
100
AcDbLine
 10
2288.703775628671
 20
1273.484992029643
 30
0.0
 11
2253.930445882265
 21
1264.167506405952
 31
0.0
  0
LINE
  5
1B9
330
20
100
AcDbEntity
  8
_1-0_
  6
Continuous
 62
     4
100
AcDbLine
 10
2288.703775628671
 20
1273.484992029643
 30
0.0
 11
2253.930445882265
 21
1282.802477653334
 31
0.0
  0
LINE
  5
1BA
330
20
100
AcDbEntity
  8
_1-0_
  6
Continuous
 62
     4
100
AcDbLine
 10
2488.704989654849
 20
1100.15165869631
 30
0.0
 11
2453.931659908442
 21
1090.834173072619
 31
0.0
  0
LINE
  5
1BB
330
20
100
AcDbEntity
  8
_1-0_
  6
Continuous
 62
     4
100
AcDbLine
 10
2488.704989654849
 20
1100.15165869631
 30
0.0
 11
2453.931659908442
 21
1109.46914432
 31
0.0
  0
LINE
  5
1BC
330
20
100
AcDbEntity
  8
_1-0_
  6
Continuous
 62
     4
100
AcDbLine
 10
1288.702789895187
 20
1100.15165869631
 30
0.0
 11
1323.476119641593
 21
1109.46914432
 31
0.0
  0
LINE
  5
1BD
330
20
100
AcDbEntity
  8
_1-0_
  6
Continuous
 62
     4
100
AcDbLine
 10
1288.702789895187
 20
1100.15165869631
 30
0.0
 11
1323.476119641593
 21
1090.834173072619
 31
0.0
  0
LINE
  5
1BE
330
20
100
AcDbEntity
  8
_1-0_
  6
Continuous
 62
     4
100
AcDbLine
 10
1288.702789895187
 20
1100.15165869631
 30
0.0
 11
1253.929460148781
 21
1090.834173072619
 31
0.0
  0
LINE
  5
1BF
330
20
100
AcDbEntity
  8
_1-0_
  6
Continuous
 62
     4
100
AcDbLine
 10
1288.702789895187
 20
1100.15165869631
 30
0.0
 11
1253.929460148781
 21
1109.46914432
 31
0.0
  0
LINE
  5
1C0
330
20
100
AcDbEntity
  8
_1-0_
  6
Continuous
 62
     4
100
AcDbLine
 10
1195.369456561853
 20
1100.15165869631
 30
0.0
 11
1230.142786308261
 21
1109.46914432
 31
0.0
  0
LINE
  5
1C1
330
20
100
AcDbEntity
  8
_1-0_
  6
Continuous
 62
     4
100
AcDbLine
 10
1195.369456561853
 20
1100.15165869631
 30
0.0
 11
1230.142786308261
 21
1090.834173072619
 31
0.0
  0
LINE
  5
1C2
330
20
100
AcDbEntity
  8
_1-0_
  6
Continuous
 62
     4
100
AcDbLine
 10
1195.369456561853
 20
926.8183253629763
 30
0.0
 11
1230.142786308261
 21
936.1358109866671
 31
0.0
  0
LINE
  5
1C3
330
20
100
AcDbEntity
  8
_1-0_
  6
Continuous
 62
     4
100
AcDbLine
 10
1195.369456561853
 20
926.8183253629763
 30
0.0
 11
1230.142786308261
 21
917.5008397392856
 31
0.0
  0
LINE
  5
1C4
330
20
100
AcDbEntity
  8
_1-0_
  6
Continuous
 62
     4
100
AcDbLine
 10
2582.038322988181
 20
926.8183253629763
 30
0.0
 11
2547.264993241775
 21
917.5008397392856
 31
0.0
  0
LINE
  5
1C5
330
20
100
AcDbEntity
  8
_1-0_
  6
Continuous
 62
     4
100
AcDbLine
 10
2582.038322988181
 20
926.8183253629763
 30
0.0
 11
2547.264993241775
 21
936.1358109866671
 31
0.0
  0
LINE
  5
1C6
330
20
100
AcDbEntity
  8
_1-0_
  6
Continuous
 62
     4
100
AcDbLine
 10
2582.038322988181
 20
1100.15165869631
 30
0.0
 11
2547.264993241775
 21
1090.834173072619
 31
0.0
  0
LINE
  5
1C7
330
20
100
AcDbEntity
  8
_1-0_
  6
Continuous
 62
     4
100
AcDbLine
 10
2582.038322988181
 20
1100.15165869631
 30
0.0
 11
2547.264993241775
 21
1109.46914432
 31
0.0
  0
LINE
  5
1C8
330
20
100
AcDbEntity
  8
_1-0_
  6
Continuous
 62
     4
100
AcDbLine
 10
2488.704989654849
 20
1100.15165869631
 30
0.0
 11
2523.478319401255
 21
1109.46914432
 31
0.0
  0
LINE
  5
1C9
330
20
100
AcDbEntity
  8
_1-0_
  6
Continuous
 62
     4
100
AcDbLine
 10
2488.704989654849
 20
1100.15165869631
 30
0.0
 11
2523.478319401255
 21
1090.834173072619
 31
0.0
  0
ARC
  5
1CA
330
20
100
AcDbEntity
  8
_1-0_
  6
Continuous
 62
     7
100
AcDbCircle
 10
1328.704049579903
 20
3053.486370426559
 30
0.0
 40
13.33333408510362
100
AcDbArc
 50
90.0
 51
180.0
  0
LINE
  5
1CB
330
20
100
AcDbEntity
  8
_1-0_
  6
Continuous
 62
     4
100
AcDbLine
 10
2468.701569879395
 20
3420.152821859858
 30
0.0
 11
1308.704022479351
 21
3420.152821859858
 31
0.0
  0
LINE
  5
1CC
330
20
100
AcDbEntity
  8
_1-0_
  6
Continuous
 62
     4
100
AcDbLine
 10
1308.704022479351
 20
3086.819488526524
 30
0.0
 11
1308.704022479351
 21
3433.486155193191
 31
0.0
  0
LINE
  5
1CD
330
20
100
AcDbEntity
  8
_1-0_
  6
Continuous
 62
     4
100
AcDbLine
 10
2468.701569879395
 20
3086.819488526524
 30
0.0
 11
2468.701569879395
 21
3433.486155193191
 31
0.0
  0
LINE
  5
1CE
330
20
100
AcDbEntity
  8
_1-0_
  6
Continuous
 62
     4
100
AcDbLine
 10
1488.704022479351
 20
3086.819488526524
 30
0.0
 11
1488.704022479351
 21
3260.152821859858
 31
0.0
  0
LINE
  5
1CF
330
20
100
AcDbEntity
  8
_1-0_
  6
Continuous
 62
     4
100
AcDbLine
 10
2288.701569879395
 20
3086.819488526524
 30
0.0
 11
2288.701569879395
 21
3260.152821859858
 31
0.0
  0
LINE
  5
1D0
330
20
100
AcDbEntity
  8
_1-0_
  6
Continuous
 62
     4
100
AcDbLine
 10
2468.701569879395
 20
3246.819488526524
 30
0.0
 11
2288.701569879395
 21
3246.819488526524
 31
0.0
  0
LINE
  5
1D1
330
20
100
AcDbEntity
  8
_1-0_
  6
Continuous
 62
     4
100
AcDbLine
 10
1488.704022479351
 20
3246.819488526524
 30
0.0
 11
1308.704022479351
 21
3246.819488526524
 31
0.0
  0
LINE
  5
1D2
330
20
100
AcDbEntity
  8
_1-0_
  6
Continuous
 62
     4
100
AcDbLine
 10
2288.701569879395
 20
3246.819488526524
 30
0.0
 11
1488.704022479351
 21
3246.819488526524
 31
0.0
  0
LINE
  5
1D3
330
20
100
AcDbEntity
  8
_1-0_
  6
Continuous
 62
     4
100
AcDbLine
 10
2468.701569879395
 20
3420.152821859858
 30
0.0
 11
2433.928240132989
 21
3410.835336236166
 31
0.0
  0
LINE
  5
1D4
330
20
100
AcDbEntity
  8
_1-0_
  6
Continuous
 62
     4
100
AcDbLine
 10
2468.701569879395
 20
3420.152821859858
 30
0.0
 11
2433.928240132989
 21
3429.470307483548
 31
0.0
  0
LINE
  5
1D5
330
20
100
AcDbEntity
  8
_1-0_
  6
Continuous
 62
     4
100
AcDbLine
 10
1308.704022479351
 20
3420.152821859858
 30
0.0
 11
1343.477352225757
 21
3429.470307483548
 31
0.0
  0
LINE
  5
1D6
330
20
100
AcDbEntity
  8
_1-0_
  6
Continuous
 62
     4
100
AcDbLine
 10
1308.704022479351
 20
3420.152821859858
 30
0.0
 11
1343.477352225757
 21
3410.835336236166
 31
0.0
  0
LINE
  5
1D7
330
20
100
AcDbEntity
  8
_1-0_
  6
Continuous
 62
     4
100
AcDbLine
 10
1308.704022479351
 20
3246.819488526524
 30
0.0
 11
1343.477352225757
 21
3256.136974150215
 31
0.0
  0
LINE
  5
1D8
330
20
100
AcDbEntity
  8
_1-0_
  6
Continuous
 62
     4
100
AcDbLine
 10
1308.704022479351
 20
3246.819488526524
 30
0.0
 11
1343.477352225757
 21
3237.502002902834
 31
0.0
  0
LINE
  5
1D9
330
20
100
AcDbEntity
  8
_1-0_
  6
Continuous
 62
     4
100
AcDbLine
 10
1488.704022479351
 20
3246.819488526524
 30
0.0
 11
1453.930692732944
 21
3237.502002902834
 31
0.0
  0
LINE
  5
1DA
330
20
100
AcDbEntity
  8
_1-0_
  6
Continuous
 62
     4
100
AcDbLine
 10
1488.704022479351
 20
3246.819488526524
 30
0.0
 11
1453.930692732944
 21
3256.136974150215
 31
0.0
  0
LINE
  5
1DB
330
20
100
AcDbEntity
  8
_1-0_
  6
Continuous
 62
     4
100
AcDbLine
 10
1488.704022479351
 20
3246.819488526524
 30
0.0
 11
1523.477352225757
 21
3256.136974150215
 31
0.0
  0
LINE
  5
1DC
330
20
100
AcDbEntity
  8
_1-0_
  6
Continuous
 62
     4
100
AcDbLine
 10
1488.704022479351
 20
3246.819488526524
 30
0.0
 11
1523.477352225757
 21
3237.502002902834
 31
0.0
  0
LINE
  5
1DD
330
20
100
AcDbEntity
  8
_1-0_
  6
Continuous
 62
     4
100
AcDbLine
 10
2288.701569879395
 20
3246.819488526524
 30
0.0
 11
2253.928240132989
 21
3237.502002902834
 31
0.0
  0
LINE
  5
1DE
330
20
100
AcDbEntity
  8
_1-0_
  6
Continuous
 62
     4
100
AcDbLine
 10
2288.701569879395
 20
3246.819488526524
 30
0.0
 11
2253.928240132989
 21
3256.136974150215
 31
0.0
  0
LINE
  5
1DF
330
20
100
AcDbEntity
  8
_1-0_
  6
Continuous
 62
     4
100
AcDbLine
 10
2288.701569879395
 20
3246.819488526524
 30
0.0
 11
2323.474899625801
 21
3256.136974150215
 31
0.0
  0
LINE
  5
1E0
330
20
100
AcDbEntity
  8
_1-0_
  6
Continuous
 62
     4
100
AcDbLine
 10
2288.701569879395
 20
3246.819488526524
 30
0.0
 11
2323.474899625801
 21
3237.502002902834
 31
0.0
  0
LINE
  5
1E1
330
20
100
AcDbEntity
  8
_1-0_
  6
Continuous
 62
     4
100
AcDbLine
 10
2468.701569879395
 20
3246.819488526524
 30
0.0
 11
2433.928240132989
 21
3237.502002902834
 31
0.0
  0
LINE
  5
1E2
330
20
100
AcDbEntity
  8
_1-0_
  6
Continuous
 62
     4
100
AcDbLine
 10
2468.701569879395
 20
3246.819488526524
 30
0.0
 11
2433.928240132989
 21
3256.136974150215
 31
0.0
  0
LINE
  5
1E3
330
20
100
AcDbEntity
  8
_1-0_
  6
Continuous
 62
     4
100
AcDbLine
 10
495.3694565618533
 20
3066.819704511663
 30
0.0
 11
495.3694565618533
 21
1626.818325362976
 31
0.0
  0
LINE
  5
1E4
330
20
100
AcDbEntity
  8
_1-0_
  6
Continuous
 62
     4
100
AcDbLine
 10
1175.369456561853
 20
1626.818325362976
 30
0.0
 11
482.03612322852
 21
1626.818325362976
 31
0.0
  0
LINE
  5
1E5
330
20
100
AcDbEntity
  8
_1-0_
  6
Continuous
 62
     4
100
AcDbLine
 10
1288.704022479351
 20
3066.819704511663
 30
0.0
 11
482.03612322852
 21
3066.819704511663
 31
0.0
  0
LINE
  5
1E6
330
20
100
AcDbEntity
  8
_1-0_
  6
Continuous
 62
     4
100
AcDbLine
 10
1175.369456561853
 20
2933.48637117833
 30
0.0
 11
655.3694565618534
 21
2933.48637117833
 31
0.0
  0
LINE
  5
1E7
330
20
100
AcDbEntity
  8
_1-0_
  6
Continuous
 62
     4
100
AcDbLine
 10
1175.369456561853
 20
2813.48637117833
 30
0.0
 11
655.3694565618534
 21
2813.48637117833
 31
0.0
  0
LINE
  5
1E8
330
20
100
AcDbEntity
  8
_1-0_
  6
Continuous
 62
     4
100
AcDbLine
 10
1175.369456561853
 20
2613.485337463491
 30
0.0
 11
828.7027898951869
 21
2613.485337463491
 31
0.0
  0
LINE
  5
1E9
330
20
100
AcDbEntity
  8
_1-0_
  6
Continuous
 62
     4
100
AcDbLine
 10
1175.369456561853
 20
2226.818963404233
 30
0.0
 11
1002.03612322852
 21
2226.818963404233
 31
0.0
  0
LINE
  5
1EA
330
20
100
AcDbEntity
  8
_1-0_
  6
Continuous
 62
     4
100
AcDbLine
 10
1175.369456561853
 20
1826.818963404233
 30
0.0
 11
1002.03612322852
 21
1826.818963404233
 31
0.0
  0
LINE
  5
1EB
330
20
100
AcDbEntity
  8
_1-0_
  6
Continuous
 62
     4
100
AcDbLine
 10
1175.369456561853
 20
1746.818325362976
 30
0.0
 11
655.3694565618534
 21
1746.818325362976
 31
0.0
  0
LINE
  5
1EC
330
20
100
AcDbEntity
  8
_1-0_
  6
Continuous
 62
     4
100
AcDbLine
 10
668.7027898951868
 20
1746.818325362976
 30
0.0
 11
668.7027898951868
 21
1626.818325362976
 31
0.0
  0
LINE
  5
1ED
330
20
100
AcDbEntity
  8
_1-0_
  6
Continuous
 62
     4
100
AcDbLine
 10
668.7027898951868
 20
2813.48637117833
 30
0.0
 11
668.7027898951868
 21
1746.818325362976
 31
0.0
  0
LINE
  5
1EE
330
20
100
AcDbEntity
  8
_1-0_
  6
Continuous
 62
     4
100
AcDbLine
 10
668.7027898951868
 20
3066.819704511663
 30
0.0
 11
668.7027898951868
 21
2933.48637117833
 31
0.0
  0
LINE
  5
1EF
330
20
100
AcDbEntity
  8
_1-0_
  6
Continuous
 62
     4
100
AcDbLine
 10
668.7027898951868
 20
2933.48637117833
 30
0.0
 11
668.7027898951868
 21
2813.48637117833
 31
0.0
  0
LINE
  5
1F0
330
20
100
AcDbEntity
  8
_1-0_
  6
Continuous
 62
     4
100
AcDbLine
 10
842.0361232285204
 20
2613.485337463491
 30
0.0
 11
842.0361232285204
 21
1746.818325362976
 31
0.0
  0
LINE
  5
1F1
330
20
100
AcDbEntity
  8
_1-0_
  6
Continuous
 62
     4
100
AcDbLine
 10
842.0361232285204
 20
2613.485337463491
 30
0.0
 11
842.0361232285204
 21
2813.48637117833
 31
0.0
  0
LINE
  5
1F2
330
20
100
AcDbEntity
  8
_1-0_
  6
Continuous
 62
     4
100
AcDbLine
 10
1015.369456561853
 20
2226.818963404233
 30
0.0
 11
1015.369456561853
 21
1826.818963404233
 31
0.0
  0
LINE
  5
1F3
330
20
100
AcDbEntity
  8
_1-0_
  6
Continuous
 62
     4
100
AcDbLine
 10
1015.369456561853
 20
2613.485337463491
 30
0.0
 11
1015.369456561853
 21
2226.818963404233
 31
0.0
  0
LINE
  5
1F4
330
20
100
AcDbEntity
  8
_1-0_
  6
Continuous
 62
     4
100
AcDbLine
 10
668.7027898951868
 20
3066.819704511663
 30
0.0
 11
678.0202755188776
 21
3032.046374765257
 31
0.0
  0
LINE
  5
1F5
330
20
100
AcDbEntity
  8
_1-0_
  6
Continuous
 62
     4
100
AcDbLine
 10
668.7027898951868
 20
3066.819704511663
 30
0.0
 11
659.385304271496
 21
3032.046374765257
 31
0.0
  0
LINE
  5
1F6
330
20
100
AcDbEntity
  8
_1-0_
  6
Continuous
 62
     4
100
AcDbLine
 10
668.7027898951868
 20
2933.48637117833
 30
0.0
 11
659.385304271496
 21
2968.259700924737
 31
0.0
  0
LINE
  5
1F7
330
20
100
AcDbEntity
  8
_1-0_
  6
Continuous
 62
     4
100
AcDbLine
 10
668.7027898951868
 20
2933.48637117833
 30
0.0
 11
678.0202755188776
 21
2968.259700924737
 31
0.0
  0
LINE
  5
1F8
330
20
100
AcDbEntity
  8
_1-0_
  6
Continuous
 62
     4
100
AcDbLine
 10
668.7027898951868
 20
2933.48637117833
 30
0.0
 11
678.0202755188776
 21
2898.713041431924
 31
0.0
  0
LINE
  5
1F9
330
20
100
AcDbEntity
  8
_1-0_
  6
Continuous
 62
     4
100
AcDbLine
 10
668.7027898951868
 20
2933.48637117833
 30
0.0
 11
659.385304271496
 21
2898.713041431924
 31
0.0
  0
LINE
  5
1FA
330
20
100
AcDbEntity
  8
_1-0_
  6
Continuous
 62
     4
100
AcDbLine
 10
668.7027898951868
 20
2813.48637117833
 30
0.0
 11
659.385304271496
 21
2848.259700924737
 31
0.0
  0
LINE
  5
1FB
330
20
100
AcDbEntity
  8
_1-0_
  6
Continuous
 62
     4
100
AcDbLine
 10
668.7027898951868
 20
2813.48637117833
 30
0.0
 11
678.0202755188776
 21
2848.259700924737
 31
0.0
  0
LINE
  5
1FC
330
20
100
AcDbEntity
  8
_1-0_
  6
Continuous
 62
     4
100
AcDbLine
 10
495.3694565618533
 20
3066.819704511663
 30
0.0
 11
504.6869421855442
 21
3032.046374765257
 31
0.0
  0
LINE
  5
1FD
330
20
100
AcDbEntity
  8
_1-0_
  6
Continuous
 62
     4
100
AcDbLine
 10
495.3694565618533
 20
3066.819704511663
 30
0.0
 11
486.0519709381625
 21
3032.046374765257
 31
0.0
  0
LINE
  5
1FE
330
20
100
AcDbEntity
  8
_1-0_
  6
Continuous
 62
     4
100
AcDbLine
 10
842.0361232285204
 20
2813.48637117833
 30
0.0
 11
851.3536088522108
 21
2778.713041431924
 31
0.0
  0
LINE
  5
1FF
330
20
100
AcDbEntity
  8
_1-0_
  6
Continuous
 62
     4
100
AcDbLine
 10
842.0361232285204
 20
2813.48637117833
 30
0.0
 11
832.7186376048295
 21
2778.713041431924
 31
0.0
  0
LINE
  5
200
330
20
100
AcDbEntity
  8
_1-0_
  6
Continuous
 62
     4
100
AcDbLine
 10
842.0361232285204
 20
2613.485337463491
 30
0.0
 11
832.7186376048295
 21
2648.258667209897
 31
0.0
  0
LINE
  5
201
330
20
100
AcDbEntity
  8
_1-0_
  6
Continuous
 62
     4
100
AcDbLine
 10
842.0361232285204
 20
2613.485337463491
 30
0.0
 11
851.3536088522108
 21
2648.258667209897
 31
0.0
  0
LINE
  5
202
330
20
100
AcDbEntity
  8
_1-0_
  6
Continuous
 62
     4
100
AcDbLine
 10
842.0361232285204
 20
2613.485337463491
 30
0.0
 11
851.3536088522108
 21
2578.712007717084
 31
0.0
  0
LINE
  5
203
330
20
100
AcDbEntity
  8
_1-0_
  6
Continuous
 62
     4
100
AcDbLine
 10
842.0361232285204
 20
2613.485337463491
 30
0.0
 11
832.7186376048295
 21
2578.712007717084
 31
0.0
  0
LINE
  5
204
330
20
100
AcDbEntity
  8
_1-0_
  6
Continuous
 62
     4
100
AcDbLine
 10
1015.369456561853
 20
2613.485337463491
 30
0.0
 11
1024.686942185544
 21
2578.712007717084
 31
0.0
  0
LINE
  5
205
330
20
100
AcDbEntity
  8
_1-0_
  6
Continuous
 62
     4
100
AcDbLine
 10
1015.369456561853
 20
2613.485337463491
 30
0.0
 11
1006.051970938163
 21
2578.712007717084
 31
0.0
  0
LINE
  5
206
330
20
100
AcDbEntity
  8
_1-0_
  6
Continuous
 62
     4
100
AcDbLine
 10
1015.369456561853
 20
2226.818963404233
 30
0.0
 11
1006.051970938163
 21
2261.59229315064
 31
0.0
  0
LINE
  5
207
330
20
100
AcDbEntity
  8
_1-0_
  6
Continuous
 62
     4
100
AcDbLine
 10
1015.369456561853
 20
2226.818963404233
 30
0.0
 11
1024.686942185544
 21
2261.59229315064
 31
0.0
  0
LINE
  5
208
330
20
100
AcDbEntity
  8
_1-0_
  6
Continuous
 62
     4
100
AcDbLine
 10
1015.369456561853
 20
2226.818963404233
 30
0.0
 11
1024.686942185544
 21
2192.045633657827
 31
0.0
  0
LINE
  5
209
330
20
100
AcDbEntity
  8
_1-0_
  6
Continuous
 62
     4
100
AcDbLine
 10
1015.369456561853
 20
2226.818963404233
 30
0.0
 11
1006.051970938163
 21
2192.045633657827
 31
0.0
  0
LINE
  5
20A
330
20
100
AcDbEntity
  8
_1-0_
  6
Continuous
 62
     4
100
AcDbLine
 10
1015.369456561853
 20
1826.818963404233
 30
0.0
 11
1006.051970938163
 21
1861.592293150639
 31
0.0
  0
LINE
  5
20B
330
20
100
AcDbEntity
  8
_1-0_
  6
Continuous
 62
     4
100
AcDbLine
 10
1015.369456561853
 20
1826.818963404233
 30
0.0
 11
1024.686942185544
 21
1861.592293150639
 31
0.0
  0
LINE
  5
20C
330
20
100
AcDbEntity
  8
_1-0_
  6
Continuous
 62
     4
100
AcDbLine
 10
842.0361232285204
 20
1746.818325362976
 30
0.0
 11
832.7186376048295
 21
1781.591655109383
 31
0.0
  0
LINE
  5
20D
330
20
100
AcDbEntity
  8
_1-0_
  6
Continuous
 62
     4
100
AcDbLine
 10
842.0361232285204
 20
1746.818325362976
 30
0.0
 11
851.3536088522108
 21
1781.591655109383
 31
0.0
  0
LINE
  5
20E
330
20
100
AcDbEntity
  8
_1-0_
  6
Continuous
 62
     4
100
AcDbLine
 10
668.7027898951868
 20
1746.818325362976
 30
0.0
 11
659.385304271496
 21
1781.591655109383
 31
0.0
  0
LINE
  5
20F
330
20
100
AcDbEntity
  8
_1-0_
  6
Continuous
 62
     4
100
AcDbLine
 10
668.7027898951868
 20
1746.818325362976
 30
0.0
 11
678.0202755188776
 21
1781.591655109383
 31
0.0
  0
LINE
  5
210
330
20
100
AcDbEntity
  8
_1-0_
  6
Continuous
 62
     4
100
AcDbLine
 10
668.7027898951868
 20
2813.48637117833
 30
0.0
 11
678.0202755188776
 21
2778.713041431924
 31
0.0
  0
LINE
  5
211
330
20
100
AcDbEntity
  8
_1-0_
  6
Continuous
 62
     4
100
AcDbLine
 10
668.7027898951868
 20
2813.48637117833
 30
0.0
 11
659.385304271496
 21
2778.713041431924
 31
0.0
  0
LINE
  5
212
330
20
100
AcDbEntity
  8
_1-0_
  6
Continuous
 62
     4
100
AcDbLine
 10
668.7027898951868
 20
1626.818325362976
 30
0.0
 11
659.385304271496
 21
1661.591655109382
 31
0.0
  0
LINE
  5
213
330
20
100
AcDbEntity
  8
_1-0_
  6
Continuous
 62
     4
100
AcDbLine
 10
668.7027898951868
 20
1626.818325362976
 30
0.0
 11
678.0202755188776
 21
1661.591655109382
 31
0.0
  0
LINE
  5
214
330
20
100
AcDbEntity
  8
_1-0_
  6
Continuous
 62
     4
100
AcDbLine
 10
668.7027898951868
 20
1746.818325362976
 30
0.0
 11
678.0202755188776
 21
1712.04499561657
 31
0.0
  0
LINE
  5
215
330
20
100
AcDbEntity
  8
_1-0_
  6
Continuous
 62
     4
100
AcDbLine
 10
668.7027898951868
 20
1746.818325362976
 30
0.0
 11
659.385304271496
 21
1712.04499561657
 31
0.0
  0
LINE
  5
216
330
20
100
AcDbEntity
  8
_1-0_
  6
Continuous
 62
     4
100
AcDbLine
 10
495.3694565618533
 20
1626.818325362976
 30
0.0
 11
486.0519709381625
 21
1661.591655109382
 31
0.0
  0
LINE
  5
217
330
20
100
AcDbEntity
  8
_1-0_
  6
Continuous
 62
     4
100
AcDbLine
 10
495.3694565618533
 20
1626.818325362976
 30
0.0
 11
504.6869421855442
 21
1661.591655109382
 31
0.0
  0
TEXT
  5
218
330
20
100
AcDbEntity
  8
_1-0_
 62
     7
100
AcDbText
 10
3565.44584717608
 20
2753.541663997533
 30
0.0
 40
60.0
  1
70
 50
90.0
100
AcDbText
  0
TEXT
  5
219
330
20
100
AcDbEntity
  8
_1-0_
 62
     7
100
AcDbText
 10
3735.150065921796
 20
2648.211493391636
 30
0.0
 40
60.0
  1
50
 50
90.0
100
AcDbText
  0
TEXT
  5
21A
330
20
100
AcDbEntity
  8
_1-0_
 62
     7
100
AcDbText
 10
3740.714138667558
 20
2255.400283127261
 30
0.0
 40
60.0
  1
200
 50
90.0
100
AcDbText
  0
TEXT
  5
21B
330
20
100
AcDbEntity
  8
_1-0_
 62
     7
100
AcDbText
 10
3740.679348408531
 20
1986.794019933554
 30
0.0
 40
60.0
  1
200
 50
90.0
100
AcDbText
  0
TEXT
  5
21C
330
20
100
AcDbEntity
  8
_1-0_
 62
     7
100
AcDbText
 10
3565.203943843104
 20
2122.228057014253
 30
0.0
 40
60.0
  1
900
 50
90.0
100
AcDbText
  0
TEXT
  5
21D
330
20
100
AcDbEntity
  8
_1-0_
 62
     7
100
AcDbText
 10
3394.439288393527
 20
2103.385060550852
 30
0.0
 40
60.0
  1
1040
 50
90.0
100
AcDbText
  0
TEXT
  5
21E
330
20
100
AcDbEntity
  8
_1-0_
 62
     7
100
AcDbText
 10
3735.332011574323
 20
1577.340799485586
 30
0.0
 40
60.0
  1
50
 50
90.0
100
AcDbText
  0
TEXT
  5
21F
330
20
100
AcDbEntity
  8
_1-0_
 62
     7
100
AcDbText
 10
3564.121744721895
 20
1492.260850927017
 30
0.0
 40
60.0
  1
70
 50
90.0
100
AcDbText
  0
TEXT
  5
220
330
20
100
AcDbEntity
  8
_1-0_
 62
     7
100
AcDbText
 10
2751.422034079949
 20
2463.661879755653
 30
0.0
 40
60.0
  1
150
 50
90.0
100
AcDbText
  0
TEXT
  5
221
330
20
100
AcDbEntity
  8
_1-0_
 62
     7
100
AcDbText
 10
1803.590992588503
 20
3431.887781647519
 30
0.0
 40
60.0
  1
φ870
100
AcDbText
  0
TEXT
  5
222
330
20
100
AcDbEntity
  8
_1-0_
 62
     7
100
AcDbText
 10
1803.590992588503
 20
3257.241261228737
 30
0.0
 40
60.0
  1
φ600
100
AcDbText
  0
TEXT
  5
223
330
20
100
AcDbEntity
  8
_1-0_
 62
     7
100
AcDbText
 10
2330.889140775977
 20
3258.920554694302
 30
0.0
 40
60.0
  1
135
100
AcDbText
  0
TEXT
  5
224
330
20
100
AcDbEntity
  8
_1-0_
 62
     7
100
AcDbText
 10
1348.502463420332
 20
3258.920554694302
 30
0.0
 40
60.0
  1
135
100
AcDbText
  0
TEXT
  5
225
330
20
100
AcDbEntity
  8
_1-0_
 62
     7
100
AcDbText
 10
1802.684331797235
 20
1462.202690649621
 30
0.0
 40
60.0
  1
φ180
100
AcDbText
  0
TEXT
  5
226
330
20
100
AcDbEntity
  8
_1-0_
 62
     7
100
AcDbText
 10
2031.273227292999
 20
1460.105544819384
 30
0.0
 40
60.0
  1
10
100
AcDbText
  0
TEXT
  5
227
330
20
100
AcDbEntity
  8
_1-0_
 62
     7
100
AcDbText
 10
1681.049873643526
 20
1460.105544819384
 30
0.0
 40
60.0
  1
10
100
AcDbText
  0
TEXT
  5
228
330
20
100
AcDbEntity
  8
_1-0_
 62
     7
100
AcDbText
 10
1840.432956741489
 20
1286.042440909766
 30
0.0
 40
60.0
  1
600
100
AcDbText
  0
TEXT
  5
229
330
20
100
AcDbEntity
  8
_1-0_
 62
     7
100
AcDbText
 10
1840.432956741489
 20
1111.979337000148
 30
0.0
 40
60.0
  1
900
100
AcDbText
  0
TEXT
  5
22A
330
20
100
AcDbEntity
  8
_1-0_
 62
     7
100
AcDbText
 10
1821.558644269362
 20
940.013378920767
 30
0.0
 40
60.0
  1
1040
100
AcDbText
  0
TEXT
  5
22B
330
20
100
AcDbEntity
  8
_1-0_
 62
     7
100
AcDbText
 10
1209.192061840345
 20
1114.076482830385
 30
0.0
 40
60.0
  1
70
100
AcDbText
  0
TEXT
  5
22C
330
20
100
AcDbEntity
  8
_1-0_
 62
     7
100
AcDbText
 10
2503.13103909618
 20
1114.076482830385
 30
0.0
 40
60.0
  1
70
100
AcDbText
  0
TEXT
  5
22D
330
20
100
AcDbEntity
  8
_1-0_
 62
     7
100
AcDbText
 10
657.1757582252707
 20
2949.441967634766
 30
0.0
 40
60.0
  1
100
 50
90.0
100
AcDbText
  0
TEXT
  5
22E
330
20
100
AcDbEntity
  8
_1-0_
 62
     7
100
AcDbText
 10
657.1757582252707
 20
2822.826844630441
 30
0.0
 40
60.0
  1
90
 50
90.0
100
AcDbText
  0
TEXT
  5
22F
330
20
100
AcDbEntity
  8
_1-0_
 62
     7
100
AcDbText
 10
830.8050584074589
 20
2661.369296144635
 30
0.0
 40
60.0
  1
150
 50
90.0
100
AcDbText
  0
TEXT
  5
230
330
20
100
AcDbEntity
  8
_1-0_
 62
     7
100
AcDbText
 10
1002.545815025185
 20
2370.550316150467
 30
0.0
 40
60.0
  1
290
 50
90.0
100
AcDbText
  0
TEXT
  5
231
330
20
100
AcDbEntity
  8
_1-0_
 62
     7
100
AcDbText
 10
1004.08423534455
 20
1975.176294073518
 30
0.0
 40
60.0
  1
300
 50
90.0
100
AcDbText
  0
TEXT
  5
232
330
20
100
AcDbEntity
  8
_1-0_
 62
     7
100
AcDbText
 10
830.2427392562425
 20
2130.55674632944
 30
0.0
 40
60.0
  1
650
 50
90.0
100
AcDbText
  0
TEXT
  5
233
330
20
100
AcDbEntity
  8
_1-0_
 62
     7
100
AcDbText
 10
657.9396634873003
 20
2230.554067088201
 30
0.0
 40
60.0
  1
800
 50
90.0
100
AcDbText
  0
TEXT
  5
234
330
20
100
AcDbEntity
  8
_1-0_
 62
     7
100
AcDbText
 10
658.0988104168901
 20
1655.227306826707
 30
0.0
 40
60.0
  1
90
 50
90.0
100
AcDbText
  0
TEXT
  5
235
330
20
100
AcDbEntity
  8
_1-0_
 62
     7
100
AcDbText
 10
484.7347551173507
 20
2277.513021112421
 30
0.0
 40
60.0
  1
1080
 50
90.0
100
AcDbText
  0
LINE
  5
236
330
20
100
AcDbEntity
  8
_1-0_
  6
Continuous
 62
     4
100
AcDbLine
 10
4346.329079281854
 20
1543.46233386816
 30
0.0
 11
4105.598071513551
 21
1299.120360983332
 31
0.0
  0
LINE
  5
237
330
20
100
AcDbEntity
  8
_1-0_
  6
Continuous
 62
     4
100
AcDbLine
 10
4346.329079281854
 20
1543.46233386816
 30
0.0
 11
4328.561657784052
 21
1512.152291815818
 31
0.0
  0
LINE
  5
238
330
20
100
AcDbEntity
  8
_1-0_
  6
Continuous
 62
     4
100
AcDbLine
 10
4346.329079281854
 20
1543.46233386816
 30
0.0
 11
4315.28701987884
 21
1525.230752806174
 31
0.0
  0
TEXT
  5
239
330
20
100
AcDbEntity
  8
_1-0_
 62
     7
100
AcDbText
 10
3565.997152131532
 20
1307.321375480473
 30
0.0
 40
60.0
  1
インサート M12
100
AcDbText
  0
LINE
  5
23A
330
20
100
AcDbEntity
  8
_1-0_
  6
Continuous
 62
     4
100
AcDbLine
 10
4105.598071513551
 20
1299.120360983332
 30
0.0
 11
3570.359239949882
 21
1299.120360983332
 31
0.0
  0
LINE
  5
23B
330
20
100
AcDbEntity
  8
_1-0_
  6
Continuous
 62
     4
100
AcDbLine
 10
1627.480603250524
 20
2404.312076689107
 30
0.0
 11
1655.011117803774
 21
2381.115724207881
 31
0.0
  0
LINE
  5
23C
330
20
100
AcDbEntity
  8
_1-0_
  6
Continuous
 62
     4
100
AcDbLine
 10
1627.480603250524
 20
2404.312076689107
 30
0.0
 11
1639.724551992283
 21
2370.458188888601
 31
0.0
  0
LINE
  5
23D
330
20
100
AcDbEntity
  8
_1-0_
  6
Continuous
 62
     4
100
AcDbLine
 10
1627.480603250524
 20
2404.312076689107
 30
0.0
 11
1716.369673556427
 21
2276.814622310944
 31
0.0
  0
TEXT
  5
23E
330
20
100
AcDbEntity
  8
_1-0_
 62
     7
100
AcDbText
 10
1732.619162649451
 20
2281.989610100023
 30
0.0
 40
60.0
  1
インサート M12
100
AcDbText
  0
LINE
  5
23F
330
20
100
AcDbEntity
  8
_1-0_
  6
Continuous
 62
     4
100
AcDbLine
 10
1716.369673556427
 20
2276.814622310944
 30
0.0
 11
2238.545493639704
 21
2276.814622310944
 31
0.0
  0
ENDSEC
  0
SECTION
  2
OBJECTS
  0
DICTIONARY
  5
C
330
0
100
AcDbDictionary
281
     1
  3
ACAD_COLOR
350
1B
  3
ACAD_GROUP
350
D
  3
ACAD_LAYOUT
350
19
  3
ACAD_MATERIAL
350
1A
  3
ACAD_MLINESTYLE
350
16
  3
ACAD_PLOTSETTINGS
350
18
  3
ACAD_PLOTSTYLENAME
350
E
  3
ACDBHEADERROUNDTRIPXREC
350
246
  3
AcDbVariableDictionary
350
242
  0
DICTIONARY
  5
1B
102
{ACAD_REACTORS
330
C
102
}
330
C
100
AcDbDictionary
281
     1
  0
DICTIONARY
  5
D
102
{ACAD_REACTORS
330
C
102
}
330
C
100
AcDbDictionary
281
     1
  0
DICTIONARY
  5
19
102
{ACAD_REACTORS
330
C
102
}
330
C
100
AcDbDictionary
281
     1
  3
Model
350
23
  3
レイアウト1
350
1F
  0
DICTIONARY
  5
1A
102
{ACAD_REACTORS
330
C
102
}
330
C
100
AcDbDictionary
281
     1
  0
DICTIONARY
  5
16
102
{ACAD_REACTORS
330
C
102
}
330
C
100
AcDbDictionary
281
     1
  3
Standard
350
17
  0
DICTIONARY
  5
18
102
{ACAD_REACTORS
330
C
102
}
330
C
100
AcDbDictionary
281
     1
  0
ACDBDICTIONARYWDFLT
  5
E
102
{ACAD_REACTORS
330
C
102
}
330
C
100
AcDbDictionary
281
     1
  3
Normal
350
F
100
AcDbDictionaryWithDefault
340
F
  0
DICTIONARY
  5
246
102
{ACAD_REACTORS
330
C
102
}
330
C
100
AcDbDictionary
281
     1
  3
COLORDICT
350
248
  3
MATERIALDICT
350
247
  0
DICTIONARY
  5
242
102
{ACAD_REACTORS
330
C
102
}
330
C
100
AcDbDictionary
281
     1
  3
DIMASSOC
350
243
  3
PROJECTNAME
350
244
  0
LAYOUT
  5
23
102
{ACAD_XDICTIONARY
360
24B
102
}
102
{ACAD_REACTORS
330
19
102
}
330
19
100
AcDbPlotSettings
  1

  2
RICOH imagio MP C3300 RPCS
  4

  6

 40
0.0
 41
0.0
 42
0.0
 43
0.0
 44
0.0
 45
0.0
 46
0.0
 47
0.0
 48
0.0
 49
0.0
140
0.0
141
0.0
142
1.0
143
1.0
 70
  1712
 72
     0
 73
     0
 74
     0
  7

 75
     0
147
1.0
148
0.0
149
0.0
100
AcDbLayout
  1
Model
 70
     1
 71
     0
 10
0.0
 20
0.0
 11
12.0
 21
9.0
 12
0.0
 22
0.0
 32
0.0
 14
0.0
 24
0.0
 34
0.0
 15
0.0
 25
0.0
 35
0.0
146
0.0
 13
0.0
 23
0.0
 33
0.0
 16
1.0
 26
0.0
 36
0.0
 17
0.0
 27
1.0
 37
0.0
 76
     0
330
20
  0
LAYOUT
  5
1F
102
{ACAD_XDICTIONARY
360
249
102
}
102
{ACAD_REACTORS
330
19
102
}
330
19
100
AcDbPlotSettings
  1

  2
RICOH imagio MP C3300 RPCS
  4

  6

 40
0.0
 41
0.0
 42
0.0
 43
0.0
 44
0.0
 45
0.0
 46
0.0
 47
0.0
 48
0.0
 49
0.0
140
0.0
141
0.0
142
1.0
143
1.0
 70
   688
 72
     0
 73
     0
 74
     5
  7

 75
    16
147
1.0
148
0.0
149
0.0
100
AcDbLayout
  1
レイアウト1
 70
     1
 71
     1
 10
0.0
 20
0.0
 11
12.0
 21
9.0
 12
0.0
 22
0.0
 32
0.0
 14
1.000000000000000E+20
 24
1.000000000000000E+20
 34
1.000000000000000E+20
 15
-1.000000000000000E+20
 25
-1.000000000000000E+20
 35
-1.000000000000000E+20
146
0.0
 13
0.0
 23
0.0
 33
0.0
 16
1.0
 26
0.0
 36
0.0
 17
0.0
 27
1.0
 37
0.0
 76
     0
330
1C
  0
MLINESTYLE
  5
17
102
{ACAD_REACTORS
330
16
102
}
330
16
100
AcDbMlineStyle
  2
STANDARD
 70
     0
  3

 62
   256
 51
90.0
 52
90.0
 71
     2
 49
0.5
 62
   256
  6
BYLAYER
 49
-0.5
 62
   256
  6
BYLAYER
  0
ACDBPLACEHOLDER
  5
F
102
{ACAD_REACTORS
330
E
102
}
330
E
  0
XRECORD
  5
248
102
{ACAD_REACTORS
330
246
102
}
330
246
100
AcDbXrecord
280
     1
340
1B
  0
XRECORD
  5
247
102
{ACAD_REACTORS
330
246
102
}
330
246
100
AcDbXrecord
280
     1
340
1A
  0
DICTIONARYVAR
  5
243
102
{ACAD_REACTORS
330
242
102
}
330
242
100
DictionaryVariables
280
     0
  1
1
  0
DICTIONARYVAR
  5
244
102
{ACAD_REACTORS
330
242
102
}
330
242
100
DictionaryVariables
280
     0
  1

  0
DICTIONARY
  5
24B
330
23
100
AcDbDictionary
280
     1
281
     1
  3
ACAD_XREC_ROUNDTRIP
360
24C
  0
DICTIONARY
  5
249
330
1F
100
AcDbDictionary
280
     1
281
     1
  3
ACAD_XREC_ROUNDTRIP
360
24A
  0
XRECORD
  5
24C
102
{ACAD_REACTORS
330
24B
102
}
330
24B
100
AcDbXrecord
280
     1
102
SHADEPLOT
 70
     0
102
SHADEPLOTRESLEVEL
 70
     2
102
SHADEPLOTCUSTOMDPI
 70
   300
  0
XRECORD
  5
24A
102
{ACAD_REACTORS
330
249
102
}
330
249
100
AcDbXrecord
280
     1
102
SHADEPLOT
 70
     0
102
SHADEPLOTRESLEVEL
 70
     2
102
SHADEPLOTCUSTOMDPI
 70
   300
  0
ENDSEC
  0
EOF
