  0
SECTION
  2
HEADER
  9
$ACADVER
  1
AC1015
  9
$ACADMAINTVER
 70
    20
  9
$DWGCODEPAGE
  3
ANSI_932
  9
$INSBASE
 10
0.0
 20
0.0
 30
0.0
  9
$EXTMIN
 10
116.1062727148019
 20
75.12589243138973
 30
-0.0015258207003583
  9
$EXTMAX
 10
4337.874079450121
 20
3032.576758906453
 30
0.0000000349246037
  9
$LIMMIN
 10
0.0
 20
0.0
  9
$LIMMAX
 10
4455.0
 20
3150.0
  9
$ORTHOMODE
 70
     1
  9
$REGENMODE
 70
     1
  9
$FILLMODE
 70
     1
  9
$QTEXTMODE
 70
     0
  9
$MIRRTEXT
 70
     0
  9
$LTSCALE
 40
15.0
  9
$ATTMODE
 70
     1
  9
$TEXTSIZE
 40
0.2
  9
$TRACEWID
 40
0.05
  9
$TEXTSTYLE
  7
STANDARD
  9
$CLAYER
  8
0
  9
$CELTYPE
  6
CONTINUOUS
  9
$CECOLOR
 62
   256
  9
$CELTSCALE
 40
1.0
  9
$DISPSILH
 70
     0
  9
$DIMSCALE
 40
1.0
  9
$DIMASZ
 40
0.18
  9
$DIMEXO
 40
0.0625
  9
$DIMDLI
 40
0.38
  9
$DIMRND
 40
0.0
  9
$DIMDLE
 40
0.0
  9
$DIMEXE
 40
0.18
  9
$DIMTP
 40
0.0
  9
$DIMTM
 40
0.0
  9
$DIMTXT
 40
0.18
  9
$DIMCEN
 40
0.09
  9
$DIMTSZ
 40
0.0
  9
$DIMTOL
 70
     0
  9
$DIMLIM
 70
     0
  9
$DIMTIH
 70
     1
  9
$DIMTOH
 70
     1
  9
$DIMSE1
 70
     0
  9
$DIMSE2
 70
     0
  9
$DIMTAD
 70
     0
  9
$DIMZIN
 70
     0
  9
$DIMBLK
  1

  9
$DIMASO
 70
     1
  9
$DIMSHO
 70
     1
  9
$DIMPOST
  1

  9
$DIMAPOST
  1

  9
$DIMALT
 70
     0
  9
$DIMALTD
 70
     2
  9
$DIMALTF
 40
25.4
  9
$DIMLFAC
 40
1.0
  9
$DIMTOFL
 70
     0
  9
$DIMTVP
 40
0.0
  9
$DIMTIX
 70
     0
  9
$DIMSOXD
 70
     0
  9
$DIMSAH
 70
     0
  9
$DIMBLK1
  1

  9
$DIMBLK2
  1

  9
$DIMSTYLE
  2
Standard
  9
$DIMCLRD
 70
     0
  9
$DIMCLRE
 70
     0
  9
$DIMCLRT
 70
     0
  9
$DIMTFAC
 40
1.0
  9
$DIMGAP
 40
0.09
  9
$DIMJUST
 70
     0
  9
$DIMSD1
 70
     0
  9
$DIMSD2
 70
     0
  9
$DIMTOLJ
 70
     1
  9
$DIMTZIN
 70
     0
  9
$DIMALTZ
 70
     0
  9
$DIMALTTZ
 70
     0
  9
$DIMUPT
 70
     0
  9
$DIMDEC
 70
     4
  9
$DIMTDEC
 70
     4
  9
$DIMALTU
 70
     2
  9
$DIMALTTD
 70
     2
  9
$DIMTXSTY
  7
STANDARD
  9
$DIMAUNIT
 70
     0
  9
$DIMADEC
 70
     0
  9
$DIMALTRND
 40
0.0
  9
$DIMAZIN
 70
     0
  9
$DIMDSEP
 70
    46
  9
$DIMATFIT
 70
     3
  9
$DIMFRAC
 70
     0
  9
$DIMLDRBLK
  1

  9
$DIMLUNIT
 70
     2
  9
$DIMLWD
 70
    -2
  9
$DIMLWE
 70
    -2
  9
$DIMTMOVE
 70
     0
  9
$LUNITS
 70
     2
  9
$LUPREC
 70
     4
  9
$SKETCHINC
 40
0.1
  9
$FILLETRAD
 40
0.0
  9
$AUNITS
 70
     0
  9
$AUPREC
 70
     0
  9
$MENU
  1
.
  9
$ELEVATION
 40
0.0
  9
$PELEVATION
 40
0.0
  9
$THICKNESS
 40
0.0
  9
$LIMCHECK
 70
     0
  9
$CHAMFERA
 40
0.0
  9
$CHAMFERB
 40
0.0
  9
$CHAMFERC
 40
0.0
  9
$CHAMFERD
 40
0.0
  9
$SKPOLY
 70
     0
  9
$TDCREATE
 40
2457253.378429988
  9
$TDUCREATE
 40
2457253.003429988
  9
$TDUPDATE
 40
2457253.392858750
  9
$TDUUPDATE
 40
2457253.017858750
  9
$TDINDWG
 40
0.0144296644
  9
$TDUSRTIMER
 40
0.0144296644
  9
$USRTIMER
 70
     1
  9
$ANGBASE
 50
0.0
  9
$ANGDIR
 70
     0
  9
$PDMODE
 70
     0
  9
$PDSIZE
 40
0.0
  9
$PLINEWID
 40
0.0
  9
$SPLFRAME
 70
     0
  9
$SPLINETYPE
 70
     6
  9
$SPLINESEGS
 70
     8
  9
$HANDSEED
  5
282
  9
$SURFTAB1
 70
     6
  9
$SURFTAB2
 70
     6
  9
$SURFTYPE
 70
     6
  9
$SURFU
 70
     6
  9
$SURFV
 70
     6
  9
$UCSBASE
  2

  9
$UCSNAME
  2

  9
$UCSORG
 10
0.0
 20
0.0
 30
0.0
  9
$UCSXDIR
 10
1.0
 20
0.0
 30
0.0
  9
$UCSYDIR
 10
0.0
 20
1.0
 30
0.0
  9
$UCSORTHOREF
  2

  9
$UCSORTHOVIEW
 70
     0
  9
$UCSORGTOP
 10
0.0
 20
0.0
 30
0.0
  9
$UCSORGBOTTOM
 10
0.0
 20
0.0
 30
0.0
  9
$UCSORGLEFT
 10
0.0
 20
0.0
 30
0.0
  9
$UCSORGRIGHT
 10
0.0
 20
0.0
 30
0.0
  9
$UCSORGFRONT
 10
0.0
 20
0.0
 30
0.0
  9
$UCSORGBACK
 10
0.0
 20
0.0
 30
0.0
  9
$PUCSBASE
  2

  9
$PUCSNAME
  2

  9
$PUCSORG
 10
0.0
 20
0.0
 30
0.0
  9
$PUCSXDIR
 10
1.0
 20
0.0
 30
0.0
  9
$PUCSYDIR
 10
0.0
 20
1.0
 30
0.0
  9
$PUCSORTHOREF
  2

  9
$PUCSORTHOVIEW
 70
     0
  9
$PUCSORGTOP
 10
0.0
 20
0.0
 30
0.0
  9
$PUCSORGBOTTOM
 10
0.0
 20
0.0
 30
0.0
  9
$PUCSORGLEFT
 10
0.0
 20
0.0
 30
0.0
  9
$PUCSORGRIGHT
 10
0.0
 20
0.0
 30
0.0
  9
$PUCSORGFRONT
 10
0.0
 20
0.0
 30
0.0
  9
$PUCSORGBACK
 10
0.0
 20
0.0
 30
0.0
  9
$USERI1
 70
     0
  9
$USERI2
 70
     0
  9
$USERI3
 70
     0
  9
$USERI4
 70
     0
  9
$USERI5
 70
     0
  9
$USERR1
 40
0.0
  9
$USERR2
 40
0.0
  9
$USERR3
 40
0.0
  9
$USERR4
 40
0.0
  9
$USERR5
 40
0.0
  9
$WORLDVIEW
 70
     1
  9
$SHADEDGE
 70
     3
  9
$SHADEDIF
 70
    70
  9
$TILEMODE
 70
     1
  9
$MAXACTVP
 70
    64
  9
$PINSBASE
 10
0.0
 20
0.0
 30
0.0
  9
$PLIMCHECK
 70
     0
  9
$PEXTMIN
 10
1.000000000000000E+20
 20
1.000000000000000E+20
 30
1.000000000000000E+20
  9
$PEXTMAX
 10
-1.000000000000000E+20
 20
-1.000000000000000E+20
 30
-1.000000000000000E+20
  9
$PLIMMIN
 10
0.0
 20
0.0
  9
$PLIMMAX
 10
12.0
 20
9.0
  9
$UNITMODE
 70
     0
  9
$VISRETAIN
 70
     1
  9
$PLINEGEN
 70
     0
  9
$PSLTSCALE
 70
     1
  9
$TREEDEPTH
 70
  3020
  9
$CMLSTYLE
  2
Standard
  9
$CMLJUST
 70
     0
  9
$CMLSCALE
 40
1.0
  9
$PROXYGRAPHICS
 70
     1
  9
$MEASUREMENT
 70
     0
  9
$CELWEIGHT
370
    -1
  9
$ENDCAPS
280
     0
  9
$JOINSTYLE
280
     0
  9
$LWDISPLAY
290
     0
  9
$INSUNITS
 70
     0
  9
$HYPERLINKBASE
  1

  9
$STYLESHEET
  1

  9
$XEDIT
290
     1
  9
$CEPSNTYPE
380
     0
  9
$PSTYLEMODE
290
     1
  9
$FINGERPRINTGUID
  2
{5B22B878-0BA0-4CDD-9D39-5B5D9C82A443}
  9
$VERSIONGUID
  2
{C08CAB30-6A8C-4C0D-B244-B66F9EC7D4CD}
  9
$EXTNAMES
290
     1
  9
$PSVPSCALE
 40
0.0
  9
$OLESTARTUP
290
     0
  0
ENDSEC
  0
SECTION
  2
CLASSES
  0
CLASS
  1
ACDBDICTIONARYWDFLT
  2
AcDbDictionaryWithDefault
  3
ObjectDBX Classes
 90
        0
280
     0
281
     0
  0
CLASS
  1
DICTIONARYVAR
  2
AcDbDictionaryVar
  3
ObjectDBX Classes
 90
        0
280
     0
281
     0
  0
CLASS
  1
ACDBPLACEHOLDER
  2
AcDbPlaceHolder
  3
ObjectDBX Classes
 90
        0
280
     0
281
     0
  0
CLASS
  1
LAYOUT
  2
AcDbLayout
  3
ObjectDBX Classes
 90
        0
280
     0
281
     0
  0
ENDSEC
  0
SECTION
  2
TABLES
  0
TABLE
  2
VPORT
  5
8
330
0
100
AcDbSymbolTable
 70
     3
  0
VPORT
  5
27A
330
8
100
AcDbSymbolTableRecord
100
AcDbViewportTableRecord
  2
*Active
 70
     0
 10
0.0
 20
0.0
 11
1.0
 21
1.0
 12
3099.238834864918
 22
915.9337778042241
 13
0.0
 23
0.0
 14
1.0
 24
1.0
 15
0.0
 25
0.0
 16
0.0
 26
0.0
 36
1.0
 17
0.0
 27
0.0
 37
0.0
 40
4480.465633609137
 41
1.609333333333333
 42
50.0
 43
0.0
 44
0.0
 50
0.0
 51
0.0
 71
     0
 72
   100
 73
     1
 74
     1
 75
     0
 76
     0
 77
     0
 78
     0
281
     0
 65
     1
110
0.0
120
0.0
130
0.0
111
1.0
121
0.0
131
0.0
112
0.0
122
1.0
132
0.0
 79
     0
146
0.0
  0
ENDTAB
  0
TABLE
  2
LTYPE
  5
5
330
0
100
AcDbSymbolTable
 70
    35
  0
LTYPE
  5
13
330
5
100
AcDbSymbolTableRecord
100
AcDbLinetypeTableRecord
  2
ByBlock
 70
     0
  3

 72
    65
 73
     0
 40
0.0
  0
LTYPE
  5
14
330
5
100
AcDbSymbolTableRecord
100
AcDbLinetypeTableRecord
  2
ByLayer
 70
     0
  3

 72
    65
 73
     0
 40
0.0
  0
LTYPE
  5
15
330
5
100
AcDbSymbolTableRecord
100
AcDbLinetypeTableRecord
  2
CONTINUOUS
 70
     0
  3
実線
 72
    65
 73
     0
 40
0.0
  0
LTYPE
  5
24
330
5
100
AcDbSymbolTableRecord
100
AcDbLinetypeTableRecord
  2
DASHED1
 70
     0
  3
--  --  --  --  --  --  --  --  
 72
    65
 73
     2
 40
2.5
 49
1.25
 74
     0
 49
-1.25
 74
     0
  0
LTYPE
  5
25
330
5
100
AcDbSymbolTableRecord
100
AcDbLinetypeTableRecord
  2
DASHED2
 70
     0
  3
----    ----    ----    ----    
 72
    65
 73
     2
 40
5.0
 49
2.5
 74
     0
 49
-2.5
 74
     0
  0
LTYPE
  5
26
330
5
100
AcDbSymbolTableRecord
100
AcDbLinetypeTableRecord
  2
DASHED3
 70
     0
  3
------  ------  ------  ------  
 72
    65
 73
     2
 40
5.0
 49
3.75
 74
     0
 49
-1.25
 74
     0
  0
LTYPE
  5
27
330
5
100
AcDbSymbolTableRecord
100
AcDbLinetypeTableRecord
  2
CENTER1
 70
     0
  3
----- - ----- - ----- - ----- - 
 72
    65
 73
     4
 40
10.0
 49
6.25
 74
     0
 49
-1.25
 74
     0
 49
1.25
 74
     0
 49
-1.25
 74
     0
  0
LTYPE
  5
28
330
5
100
AcDbSymbolTableRecord
100
AcDbLinetypeTableRecord
  2
CENTER2
 70
     0
  3
----------  --  ----------  --  
 72
    65
 73
     4
 40
20.0
 49
12.5
 74
     0
 49
-2.5
 74
     0
 49
2.5
 74
     0
 49
-2.5
 74
     0
  0
LTYPE
  5
29
330
5
100
AcDbSymbolTableRecord
100
AcDbLinetypeTableRecord
  2
PHANTOM1
 70
     0
  3
--- - - --- - - --- - - --- - - 
 72
    65
 73
     6
 40
10.0
 49
3.25
 74
     0
 49
-1.25
 74
     0
 49
1.25
 74
     0
 49
-1.25
 74
     0
 49
1.25
 74
     0
 49
-1.25
 74
     0
  0
LTYPE
  5
2A
330
5
100
AcDbSymbolTableRecord
100
AcDbLinetypeTableRecord
  2
PHANTOM2
 70
     0
  3
--------  -  -  --------  -  -  
 72
    65
 73
     6
 40
20.0
 49
10.0
 74
     0
 49
-2.5
 74
     0
 49
1.25
 74
     0
 49
-2.5
 74
     0
 49
1.25
 74
     0
 49
-2.5
 74
     0
  0
LTYPE
  5
2B
330
5
100
AcDbSymbolTableRecord
100
AcDbLinetypeTableRecord
  2
DOT
 70
     0
  3
-   -   -   -   -   -   -   -   
 72
    65
 73
     2
 40
2.5
 49
0.625
 74
     0
 49
-1.875
 74
     0
  0
LTYPE
  5
2C
330
5
100
AcDbSymbolTableRecord
100
AcDbLinetypeTableRecord
  2
DUMMY
 70
     0
  3
ダミー
 72
    65
 73
     0
 40
0.0
  0
LTYPE
  5
2D
330
5
100
AcDbSymbolTableRecord
100
AcDbLinetypeTableRecord
  2
RAND1
 70
     0
  3
ランダム線1
 72
    65
 73
     4
 40
10.0
 49
1.0
 74
     0
 49
-2.0
 74
     0
 49
3.0
 74
     0
 49
-4.0
 74
     0
  0
LTYPE
  5
2E
330
5
100
AcDbSymbolTableRecord
100
AcDbLinetypeTableRecord
  2
RAND2
 70
     0
  3
ランダム線2
 72
    65
 73
     4
 40
14.0
 49
2.0
 74
     0
 49
-3.0
 74
     0
 49
4.0
 74
     0
 49
-5.0
 74
     0
  0
LTYPE
  5
2F
330
5
100
AcDbSymbolTableRecord
100
AcDbLinetypeTableRecord
  2
RAND3
 70
     0
  3
ランダム線3
 72
    65
 73
     4
 40
18.0
 49
3.0
 74
     0
 49
-4.0
 74
     0
 49
5.0
 74
     0
 49
-6.0
 74
     0
  0
LTYPE
  5
30
330
5
100
AcDbSymbolTableRecord
100
AcDbLinetypeTableRecord
  2
RAND4
 70
     0
  3
ランダム線4
 72
    65
 73
     4
 40
22.0
 49
4.0
 74
     0
 49
-5.0
 74
     0
 49
6.0
 74
     0
 49
-7.0
 74
     0
  0
LTYPE
  5
31
330
5
100
AcDbSymbolTableRecord
100
AcDbLinetypeTableRecord
  2
RAND5
 70
     0
  3
ランダム線5
 72
    65
 73
     4
 40
26.0
 49
5.0
 74
     0
 49
-6.0
 74
     0
 49
7.0
 74
     0
 49
-8.0
 74
     0
  0
LTYPE
  5
32
330
5
100
AcDbSymbolTableRecord
100
AcDbLinetypeTableRecord
  2
LONG1
 70
     0
  3
----------  --  ----------  --  
 72
    65
 73
     4
 40
40.0
 49
32.5
 74
     0
 49
-2.5
 74
     0
 49
2.5
 74
     0
 49
-2.5
 74
     0
  0
LTYPE
  5
33
330
5
100
AcDbSymbolTableRecord
100
AcDbLinetypeTableRecord
  2
LONG2
 70
     0
  3
--------  -  -  --------  -  -  
 72
    65
 73
     6
 40
40.0
 49
30.0
 74
     0
 49
-2.5
 74
     0
 49
1.25
 74
     0
 49
-2.5
 74
     0
 49
1.25
 74
     0
 49
-2.5
 74
     0
  0
LTYPE
  5
34
330
5
100
AcDbSymbolTableRecord
100
AcDbLinetypeTableRecord
  2
LONG3
 70
     0
  3
+++++++++++++++..+++++++++++++++
 72
    65
 73
     2
 40
40.0
 49
37.5
 74
     0
 49
-2.5
 74
     0
  0
LTYPE
  5
35
330
5
100
AcDbSymbolTableRecord
100
AcDbLinetypeTableRecord
  2
LONG4
 70
     0
  3
+++++++++++++++..+++++++++++++++
 72
    65
 73
     2
 40
80.0
 49
75.0
 74
     0
 49
-5.0
 74
     0
  0
LTYPE
  5
36
330
5
100
AcDbSymbolTableRecord
100
AcDbLinetypeTableRecord
  2
LONG5
 70
     0
  3
----------  --  ----------  --  
 72
    65
 73
     4
 40
60.0
 49
37.5
 74
     0
 49
-7.5
 74
     0
 49
7.5
 74
     0
 49
-7.5
 74
     0
  0
LTYPE
  5
37
330
5
100
AcDbSymbolTableRecord
100
AcDbLinetypeTableRecord
  2
DASHED
 70
     0
  3
-------   -------------   ------
 72
    65
 73
     2
 40
7.5
 49
6.0
 74
     0
 49
-1.5
 74
     0
  0
LTYPE
  5
38
330
5
100
AcDbSymbolTableRecord
100
AcDbLinetypeTableRecord
  2
DASHED_SPACED
 70
     0
  3
----        --------        ----
 72
    65
 73
     2
 40
12.0
 49
6.0
 74
     0
 49
-6.0
 74
     0
  0
LTYPE
  5
39
330
5
100
AcDbSymbolTableRecord
100
AcDbLinetypeTableRecord
  2
LONG_DASHED_DOTTED
 70
     0
  3
------------- --- --------------
 72
    65
 73
     4
 40
15.25
 49
12.0
 74
     0
 49
-1.5
 74
     0
 49
0.25
 74
     0
 49
-1.5
 74
     0
  0
LTYPE
  5
3A
330
5
100
AcDbSymbolTableRecord
100
AcDbLinetypeTableRecord
  2
LONG_DASHED_DOUBLE-DOTTED
 70
     0
  3
----------- --- --- ------------
 72
    65
 73
     6
 40
17.0
 49
12.0
 74
     0
 49
-1.5
 74
     0
 49
0.25
 74
     0
 49
-1.5
 74
     0
 49
0.25
 74
     0
 49
-1.5
 74
     0
  0
LTYPE
  5
3B
330
5
100
AcDbSymbolTableRecord
100
AcDbLinetypeTableRecord
  2
LONG_DASHED_TRIPLICATE-DOTTED
 70
     0
  3
--------- --- --- --- ----------
 72
    65
 73
     8
 40
18.75
 49
12.0
 74
     0
 49
-1.5
 74
     0
 49
0.25
 74
     0
 49
-1.5
 74
     0
 49
0.25
 74
     0
 49
-1.5
 74
     0
 49
0.25
 74
     0
 49
-1.5
 74
     0
  0
LTYPE
  5
3C
330
5
100
AcDbSymbolTableRecord
100
AcDbLinetypeTableRecord
  2
DOTTED
 70
     0
  3
   -       -       -       -    
 72
    65
 73
     2
 40
1.75
 49
0.25
 74
     0
 49
-1.5
 74
     0
  0
LTYPE
  5
3D
330
5
100
AcDbSymbolTableRecord
100
AcDbLinetypeTableRecord
  2
CHAIN
 70
     0
  3
-------------- -- --------------
 72
    65
 73
     4
 40
18.5
 49
12.0
 74
     0
 49
-1.5
 74
     0
 49
3.5
 74
     0
 49
-1.5
 74
     0
  0
LTYPE
  5
3E
330
5
100
AcDbSymbolTableRecord
100
AcDbLinetypeTableRecord
  2
CHAIN_DOUBLE_DASH
 70
     0
  3
------------ -- -- -------------
 72
    65
 73
     6
 40
23.5
 49
12.0
 74
     0
 49
-1.5
 74
     0
 49
3.5
 74
     0
 49
-1.5
 74
     0
 49
3.5
 74
     0
 49
-1.5
 74
     0
  0
LTYPE
  5
3F
330
5
100
AcDbSymbolTableRecord
100
AcDbLinetypeTableRecord
  2
DASHED_DOTTED
 70
     0
  3
-----------     -     ----------
 72
    65
 73
     4
 40
9.25
 49
6.0
 74
     0
 49
-1.5
 74
     0
 49
0.25
 74
     0
 49
-1.5
 74
     0
  0
LTYPE
  5
40
330
5
100
AcDbSymbolTableRecord
100
AcDbLinetypeTableRecord
  2
DOUBLE-DASHED_DOTTED
 70
     0
  3
------   -----------   -   -----
 72
    65
 73
     6
 40
16.75
 49
6.0
 74
     0
 49
-1.5
 74
     0
 49
6.0
 74
     0
 49
-1.5
 74
     0
 49
0.25
 74
     0
 49
-1.5
 74
     0
  0
LTYPE
  5
41
330
5
100
AcDbSymbolTableRecord
100
AcDbLinetypeTableRecord
  2
DASHED_DOUBLE-DOTTED
 70
     0
  3
---------    -    -    ---------
 72
    65
 73
     6
 40
11.0
 49
6.0
 74
     0
 49
-1.5
 74
     0
 49
0.25
 74
     0
 49
-1.5
 74
     0
 49
0.25
 74
     0
 49
-1.5
 74
     0
  0
LTYPE
  5
42
330
5
100
AcDbSymbolTableRecord
100
AcDbLinetypeTableRecord
  2
DOUBLE-DASHED_DOUBLE-DOTTED
 70
     0
  3
-----   ---------   -   -   ----
 72
    65
 73
     8
 40
18.5
 49
6.0
 74
     0
 49
-1.5
 74
     0
 49
6.0
 74
     0
 49
-1.5
 74
     0
 49
0.25
 74
     0
 49
-1.5
 74
     0
 49
0.25
 74
     0
 49
-1.5
 74
     0
  0
LTYPE
  5
43
330
5
100
AcDbSymbolTableRecord
100
AcDbLinetypeTableRecord
  2
DASHED_TRIPLICATE-DOTTED
 70
     0
  3
-------    -    -    -    ------
 72
    65
 73
     8
 40
12.75
 49
6.0
 74
     0
 49
-1.5
 74
     0
 49
0.25
 74
     0
 49
-1.5
 74
     0
 49
0.25
 74
     0
 49
-1.5
 74
     0
 49
0.25
 74
     0
 49
-1.5
 74
     0
  0
LTYPE
  5
44
330
5
100
AcDbSymbolTableRecord
100
AcDbLinetypeTableRecord
  2
DOUBLE-DASHED_TRIPLICATE-DOTTED
 70
     0
  3
-----  ---------  -  -  -  -----
 72
    65
 73
    10
 40
20.25
 49
6.0
 74
     0
 49
-1.5
 74
     0
 49
6.0
 74
     0
 49
-1.5
 74
     0
 49
0.25
 74
     0
 49
-1.5
 74
     0
 49
0.25
 74
     0
 49
-1.5
 74
     0
 49
0.25
 74
     0
 49
-1.5
 74
     0
  0
LTYPE
  5
45
330
5
100
AcDbSymbolTableRecord
100
AcDbLinetypeTableRecord
  2
UNDEFINED
 70
     0
  3
--------------------------------
 72
    65
 73
     0
 40
0.0
  0
ENDTAB
  0
TABLE
  2
LAYER
  5
2
330
0
100
AcDbSymbolTable
 70
     3
  0
LAYER
  5
10
330
2
100
AcDbSymbolTableRecord
100
AcDbLayerTableRecord
  2
0
 70
     0
 62
     7
  6
CONTINUOUS
370
    -3
390
F
  0
LAYER
  5
47
330
2
100
AcDbSymbolTableRecord
100
AcDbLayerTableRecord
  2
_0-0_
 70
     0
 62
     7
  6
CONTINUOUS
370
    -3
390
F
  0
LAYER
  5
48
330
2
100
AcDbSymbolTableRecord
100
AcDbLayerTableRecord
  2
ADD_LINE
 70
     0
 62
     7
  6
CONTINUOUS
370
    -3
390
F
  0
ENDTAB
  0
TABLE
  2
STYLE
  5
3
330
0
100
AcDbSymbolTable
 70
     2
  0
STYLE
  5
11
330
3
100
AcDbSymbolTableRecord
100
AcDbTextStyleTableRecord
  2
STANDARD
 70
     0
 40
0.0
 41
1.0
 50
0.0
 71
     0
 42
0.2
  3
txt
  4
bigfont.shx
  0
STYLE
  5
46
330
3
100
AcDbSymbolTableRecord
100
AcDbTextStyleTableRecord
  2
TATEGAKI
 70
     4
 40
0.0
 41
1.0
 50
0.0
 71
     0
 42
1.0
  3
txt
  4
bigfont.shx
  0
ENDTAB
  0
TABLE
  2
VIEW
  5
6
330
0
100
AcDbSymbolTable
 70
     0
  0
ENDTAB
  0
TABLE
  2
UCS
  5
7
330
0
100
AcDbSymbolTable
 70
     0
  0
ENDTAB
  0
TABLE
  2
APPID
  5
9
330
0
100
AcDbSymbolTable
 70
     1
  0
APPID
  5
12
330
9
100
AcDbSymbolTableRecord
100
AcDbRegAppTableRecord
  2
ACAD
 70
     0
  0
ENDTAB
  0
TABLE
  2
DIMSTYLE
  5
A
330
0
100
AcDbSymbolTable
 70
     1
100
AcDbDimStyleTable
 71
     0
  0
DIMSTYLE
105
274
330
A
100
AcDbSymbolTableRecord
100
AcDbDimStyleTableRecord
  2
Standard
 70
     0
340
11
  0
ENDTAB
  0
TABLE
  2
BLOCK_RECORD
  5
1
330
0
100
AcDbSymbolTable
 70
     0
  0
BLOCK_RECORD
  5
20
330
1
100
AcDbSymbolTableRecord
100
AcDbBlockTableRecord
  2
*Model_Space
340
23
  0
BLOCK_RECORD
  5
1C
330
1
100
AcDbSymbolTableRecord
100
AcDbBlockTableRecord
  2
*Paper_Space
340
1F
  0
ENDTAB
  0
ENDSEC
  0
SECTION
  2
BLOCKS
  0
BLOCK
  5
21
330
20
100
AcDbEntity
  8
0
100
AcDbBlockBegin
  2
*Model_Space
 70
     0
 10
0.0
 20
0.0
 30
0.0
  3
*Model_Space
  1

  0
ENDBLK
  5
22
330
20
100
AcDbEntity
  8
0
100
AcDbBlockEnd
  0
BLOCK
  5
1D
330
1C
100
AcDbEntity
 67
     1
  8
0
100
AcDbBlockBegin
  2
*Paper_Space
 70
     0
 10
0.0
 20
0.0
 30
0.0
  3
*Paper_Space
  1

  0
ENDBLK
  5
1E
330
1C
100
AcDbEntity
 67
     1
  8
0
100
AcDbBlockEnd
  0
ENDSEC
  0
SECTION
  2
ENTITIES
  0
LINE
  5
4C
330
20
100
AcDbEntity
  8
_0-0_
  6
Continuous
 62
     7
100
AcDbLine
 10
4337.78204806994
 20
425.2908367814914
 30
0.0
 11
2537.78204806994
 21
425.2908367814914
 31
0.0
  0
LINE
  5
4D
330
20
100
AcDbEntity
  8
_0-0_
  6
Continuous
 62
     7
100
AcDbLine
 10
4337.78204806994
 20
355.2908367814913
 30
0.0
 11
2537.78204806994
 21
355.2908367814913
 31
0.0
  0
LINE
  5
4E
330
20
100
AcDbEntity
  8
_0-0_
  6
Continuous
 62
     7
100
AcDbLine
 10
4337.78204806994
 20
285.2908367814912
 30
0.0
 11
2537.78204806994
 21
285.2908367814912
 31
0.0
  0
LINE
  5
4F
330
20
100
AcDbEntity
  8
_0-0_
  6
Continuous
 62
     7
100
AcDbLine
 10
3537.782048069941
 20
495.2908367814914
 30
0.0
 11
3537.782048069941
 21
75.29083678149106
 31
0.0
  0
LINE
  5
50
330
20
100
AcDbEntity
  8
_0-0_
  6
Continuous
 62
     7
100
AcDbLine
 10
3787.782048069941
 20
495.2908367814914
 30
0.0
 11
3787.782048069941
 21
145.2908367814911
 31
0.0
  0
LINE
  5
51
330
20
100
AcDbEntity
  8
_0-0_
  6
Continuous
 62
     7
100
AcDbLine
 10
2787.78204806994
 20
495.2908367814914
 30
0.0
 11
2787.78204806994
 21
75.29083678149106
 31
0.0
  0
LINE
  5
52
330
20
100
AcDbEntity
  8
_0-0_
  6
Continuous
 62
     7
100
AcDbLine
 10
2537.78204806994
 20
495.2908367814914
 30
0.0
 11
2537.78204806994
 21
75.29083678149106
 31
0.0
  0
LINE
  5
53
330
20
100
AcDbEntity
  8
_0-0_
  6
Continuous
 62
     7
100
AcDbLine
 10
4337.78204806994
 20
145.2908367814911
 30
0.0
 11
2537.78204806994
 21
145.2908367814911
 31
0.0
  0
LINE
  5
54
330
20
100
AcDbEntity
  8
_0-0_
  6
Continuous
 62
     7
100
AcDbLine
 10
4337.78204806994
 20
215.2908367814912
 30
0.0
 11
2537.78204806994
 21
215.2908367814912
 31
0.0
  0
LINE
  5
55
330
20
100
AcDbEntity
  8
_0-0_
  6
Continuous
 62
     7
100
AcDbLine
 10
4337.78204806994
 20
495.2908367814914
 30
0.0
 11
2537.78204806994
 21
495.2908367814914
 31
0.0
  0
LINE
  5
56
330
20
100
AcDbEntity
  8
_0-0_
  6
Continuous
 62
     7
100
AcDbLine
 10
3037.78204806994
 20
145.2908367814911
 30
0.0
 11
3037.78204806994
 21
75.29083678149106
 31
0.0
  0
LINE
  5
57
330
20
100
AcDbEntity
  8
_0-0_
  6
Continuous
 62
     7
100
AcDbLine
 10
3287.782048069941
 20
145.2908367814911
 30
0.0
 11
3287.782048069941
 21
75.29083678149106
 31
0.0
  0
TEXT
  5
58
330
20
100
AcDbEntity
  8
_0-0_
 62
     7
100
AcDbText
 10
2573.027933994244
 20
436.3412213652611
 30
0.0
 40
45.0
  1
製 品 名
100
AcDbText
  0
TEXT
  5
59
330
20
100
AcDbEntity
  8
_0-0_
 62
     7
100
AcDbText
 10
2950.250980266265
 20
436.7211162356497
 30
0.0
 40
45.0
  1
ＦＫ式ハンドホール
100
AcDbText
  0
TEXT
  5
5A
330
20
100
AcDbEntity
  8
_0-0_
 62
     7
100
AcDbText
 10
3075.578365943259
 20
88.25954216668613
 30
0.0
 40
45.0
  1
製　　図
100
AcDbText
  0
TEXT
  5
5B
330
20
100
AcDbEntity
  8
_0-0_
 62
     7
100
AcDbText
 10
3382.367484386125
 20
84.93870022554128
 30
0.0
 40
45.0
  1
H.O
100
AcDbText
  0
TEXT
  5
5C
330
20
100
AcDbEntity
  8
_0-0_
 62
     7
100
AcDbText
 10
3574.094194245001
 20
435.538242065277
 30
0.0
 40
45.0
  1
縮　　尺
100
AcDbText
  0
TEXT
  5
5D
330
20
100
AcDbEntity
  8
_0-0_
 62
     7
100
AcDbText
 10
3574.184011344725
 20
367.6589689487145
 30
0.0
 40
45.0
  1
参考重量
100
AcDbText
  0
TEXT
  5
5E
330
20
100
AcDbEntity
  8
_0-0_
 62
     7
100
AcDbText
 10
3575.109127471885
 20
295.4774567553627
 30
0.0
 40
45.0
  1
設計Ｎｏ
100
AcDbText
  0
TEXT
  5
5F
330
20
100
AcDbEntity
  8
_0-0_
 62
     7
100
AcDbText
 10
3575.109127471885
 20
225.4470641004053
 30
0.0
 40
45.0
  1
図面Ｎｏ
100
AcDbText
  0
TEXT
  5
60
330
20
100
AcDbEntity
  8
_0-0_
 62
     7
100
AcDbText
 10
3575.109127471885
 20
157.446537899215
 30
0.0
 40
45.0
  1
製 図 日
100
AcDbText
  0
TEXT
  5
61
330
20
100
AcDbEntity
  8
_0-0_
 62
     7
100
AcDbText
 10
3577.552152584384
 20
88.10324605714811
 30
0.0
 40
45.0
  1
株式会社　丸治コンクリート工業所
 41
0.75
100
AcDbText
  0
TEXT
  5
62
330
20
100
AcDbEntity
  8
_0-0_
 62
     7
100
AcDbText
 10
4004.425882443579
 20
435.538242065277
 30
0.0
 40
45.0
  1
1/15
100
AcDbText
  0
TEXT
  5
63
330
20
100
AcDbEntity
  8
_0-0_
 62
     7
100
AcDbText
 10
3988.740250584174
 20
369.0408591692437
 30
0.0
 40
45.0
  1
1185kg
 41
0.9
100
AcDbText
  0
TEXT
  5
64
330
20
100
AcDbEntity
  8
_0-0_
 62
     7
100
AcDbText
 10
3885.617440586086
 20
156.9657790532794
 30
0.0
 40
45.0
  1
平成　年　月　日
100
AcDbText
  0
TEXT
  5
65
330
20
100
AcDbEntity
  8
_0-0_
 62
     7
100
AcDbText
 10
2574.846108640196
 20
227.6963838140651
 30
0.0
 40
45.0
  1
寸　　法
100
AcDbText
  0
TEXT
  5
66
330
20
100
AcDbEntity
  8
_0-0_
 62
     7
100
AcDbText
 10
2574.846108640196
 20
85.92617208733479
 30
0.0
 40
45.0
  1
検　　図
100
AcDbText
  0
TEXT
  5
67
330
20
100
AcDbEntity
  8
_0-0_
 62
     7
100
AcDbText
 10
2574.846108640196
 20
158.7270916226828
 30
0.0
 40
45.0
  1
摘　　要
100
AcDbText
  0
TEXT
  5
68
330
20
100
AcDbEntity
  8
_0-0_
 62
     7
100
AcDbText
 10
2846.608314169578
 20
157.4498825080276
 30
0.0
 40
45.0
  1
国土交通省仕様　H2-9
100
AcDbText
  0
TEXT
  5
69
330
20
100
AcDbEntity
  8
_0-0_
 62
     7
100
AcDbText
 10
2940.999529870595
 20
224.1875255818974
 30
0.0
 40
45.0
  1
900×900×900
100
AcDbText
  0
TEXT
  5
6A
330
20
100
AcDbEntity
  8
_0-0_
 62
     7
100
AcDbText
 10
2573.08799484282
 20
366.8256327554157
 30
0.0
 40
45.0
  1
型　　式
100
AcDbText
  0
TEXT
  5
6B
330
20
100
AcDbEntity
  8
_0-0_
 62
     7
100
AcDbText
 10
2573.568899525541
 20
297.9428851201026
 30
0.0
 40
45.0
  1
呼 び 名
100
AcDbText
  0
TEXT
  5
6C
330
20
100
AcDbEntity
  8
_0-0_
 62
     7
100
AcDbText
 10
2987.384652673835
 20
297.9428851201026
 30
0.0
 40
45.0
  1
H-0909(CR-600)
 41
0.75
100
AcDbText
  0
TEXT
  5
6D
330
20
100
AcDbEntity
  8
_0-0_
 62
     7
100
AcDbText
 10
3102.333472992806
 20
368.18938642614
 30
0.0
 40
45.0
  1
900型
100
AcDbText
  0
TEXT
  5
6E
330
20
100
AcDbEntity
  8
_0-0_
 62
     7
100
AcDbText
 10
3801.707817045731
 20
227.6454219602871
 30
0.0
 40
45.0
  1
FKHH-H0909-CR600
 41
0.75
100
AcDbText
  0
LINE
  5
6F
330
20
100
AcDbEntity
  8
_0-0_
  6
DASHED1
 62
   136
100
AcDbLine
 10
3120.395520392409
 20
1325.964193279036
 30
0.0
 11
3720.39552039241
 21
1325.964193279036
 31
0.0
  0
LINE
  5
70
330
20
100
AcDbEntity
  8
_0-0_
  6
Continuous
 62
     4
100
AcDbLine
 10
2900.39552039241
 20
2670.964193279037
 30
0.0
 11
3940.395520392409
 21
2670.964193279037
 31
0.0
  0
LINE
  5
71
330
20
100
AcDbEntity
  8
_0-0_
  6
Continuous
 62
     4
100
AcDbLine
 10
3940.395520392409
 20
2680.964193279037
 30
0.0
 11
3940.395520392409
 21
2350.964193279037
 31
0.0
  0
LINE
  5
72
330
20
100
AcDbEntity
  8
_0-0_
  6
Continuous
 62
     4
100
AcDbLine
 10
2900.39552039241
 20
2350.964193279037
 30
0.0
 11
2900.39552039241
 21
2680.964193279037
 31
0.0
  0
LINE
  5
73
330
20
100
AcDbEntity
  8
_0-0_
  6
Continuous
 62
     4
100
AcDbLine
 10
2560.39552039241
 20
2330.964193279037
 30
0.0
 11
2560.39552039241
 21
1290.964193279036
 31
0.0
  0
LINE
  5
74
330
20
100
AcDbEntity
  8
_0-0_
  6
Continuous
 62
     4
100
AcDbLine
 10
2880.39552039241
 20
2330.964193279037
 30
0.0
 11
2550.39552039241
 21
2330.964193279037
 31
0.0
  0
LINE
  5
75
330
20
100
AcDbEntity
  8
_0-0_
  6
Continuous
 62
     4
100
AcDbLine
 10
2880.39552039241
 20
1290.964193279036
 30
0.0
 11
2550.39552039241
 21
1290.964193279036
 31
0.0
  0
LINE
  5
76
330
20
100
AcDbEntity
  8
_0-0_
  6
Continuous
 62
     7
100
AcDbLine
 10
2900.39552039241
 20
1300.964193279037
 30
0.0
 11
2910.39552039241
 21
1290.964193279036
 31
0.0
  0
LINE
  5
77
330
20
100
AcDbEntity
  8
_0-0_
  6
Continuous
 62
     7
100
AcDbLine
 10
2900.39552039241
 20
2320.964193279037
 30
0.0
 11
2900.39552039241
 21
1300.964193279037
 31
0.0
  0
LINE
  5
78
330
20
100
AcDbEntity
  8
_0-0_
  6
Continuous
 62
     7
100
AcDbLine
 10
2910.39552039241
 20
2330.964193279037
 30
0.0
 11
2900.39552039241
 21
2320.964193279037
 31
0.0
  0
LINE
  5
79
330
20
100
AcDbEntity
  8
_0-0_
  6
Continuous
 62
     7
100
AcDbLine
 10
2910.39552039241
 20
2330.964193279037
 30
0.0
 11
3930.39552039241
 21
2330.964193279037
 31
0.0
  0
LINE
  5
7A
330
20
100
AcDbEntity
  8
_0-0_
  6
Continuous
 62
     7
100
AcDbLine
 10
3930.39552039241
 20
2330.964193279037
 30
0.0
 11
3940.395520392409
 21
2320.964193279037
 31
0.0
  0
LINE
  5
7B
330
20
100
AcDbEntity
  8
_0-0_
  6
Continuous
 62
     7
100
AcDbLine
 10
3940.395520392409
 20
2320.964193279037
 30
0.0
 11
3940.395520392409
 21
1300.964193279037
 31
0.0
  0
LINE
  5
7C
330
20
100
AcDbEntity
  8
_0-0_
  6
Continuous
 62
     7
100
AcDbLine
 10
3940.395520392409
 20
1300.964193279037
 30
0.0
 11
3930.39552039241
 21
1290.964193279036
 31
0.0
  0
LINE
  5
7D
330
20
100
AcDbEntity
  8
_0-0_
  6
Continuous
 62
     7
100
AcDbLine
 10
2910.39552039241
 20
1290.964193279036
 30
0.0
 11
3930.39552039241
 21
1290.964193279036
 31
0.0
  0
CIRCLE
  5
7E
330
20
100
AcDbEntity
  8
_0-0_
  6
Continuous
 62
     7
100
AcDbCircle
 10
3420.39552039241
 20
1810.964193279037
 30
0.0
 40
300.0
  0
CIRCLE
  5
7F
330
20
100
AcDbEntity
  8
_0-0_
  6
Continuous
 62
     7
100
AcDbCircle
 10
3420.39552039241
 20
1810.964193279037
 30
0.0
 40
435.0
  0
LINE
  5
80
330
20
100
AcDbEntity
  8
_0-0_
  6
DASHED1
 62
   136
100
AcDbLine
 10
3020.395520392409
 20
2260.964193279036
 30
0.0
 11
3020.395520392409
 21
1360.964193279037
 31
0.0
  0
LINE
  5
81
330
20
100
AcDbEntity
  8
_0-0_
  6
DASHED1
 62
   136
100
AcDbLine
 10
3820.395520392409
 20
2260.964193279036
 30
0.0
 11
3820.395520392409
 21
1360.964193279037
 31
0.0
  0
LINE
  5
82
330
20
100
AcDbEntity
  8
_0-0_
  6
DASHED1
 62
   136
100
AcDbLine
 10
2970.39552039241
 20
2210.964193279036
 30
0.0
 11
3870.39552039241
 21
2210.964193279036
 31
0.0
  0
LINE
  5
83
330
20
100
AcDbEntity
  8
_0-0_
  6
DASHED1
 62
   136
100
AcDbLine
 10
2970.39552039241
 20
1410.964193279037
 30
0.0
 11
3870.39552039241
 21
1410.964193279037
 31
0.0
  0
LINE
  5
84
330
20
100
AcDbEntity
  8
_0-0_
  6
DASHED1
 62
   136
100
AcDbLine
 10
3020.395520392409
 20
2260.964193279036
 30
0.0
 11
2970.39552039241
 21
2210.964193279036
 31
0.0
  0
LINE
  5
85
330
20
100
AcDbEntity
  8
_0-0_
  6
DASHED1
 62
   136
100
AcDbLine
 10
3020.395520392409
 20
2260.964193279036
 30
0.0
 11
3820.395520392409
 21
2260.964193279036
 31
0.0
  0
LINE
  5
86
330
20
100
AcDbEntity
  8
_0-0_
  6
DASHED1
 62
   136
100
AcDbLine
 10
3820.395520392409
 20
2260.964193279036
 30
0.0
 11
3870.39552039241
 21
2210.964193279036
 31
0.0
  0
LINE
  5
87
330
20
100
AcDbEntity
  8
_0-0_
  6
DASHED1
 62
   136
100
AcDbLine
 10
3870.39552039241
 20
2210.964193279036
 30
0.0
 11
3870.39552039241
 21
1410.964193279037
 31
0.0
  0
LINE
  5
88
330
20
100
AcDbEntity
  8
_0-0_
  6
DASHED1
 62
   136
100
AcDbLine
 10
3870.39552039241
 20
1410.964193279037
 30
0.0
 11
3820.395520392409
 21
1360.964193279037
 31
0.0
  0
LINE
  5
89
330
20
100
AcDbEntity
  8
_0-0_
  6
DASHED1
 62
   136
100
AcDbLine
 10
3020.395520392409
 20
1360.964193279037
 30
0.0
 11
3820.395520392409
 21
1360.964193279037
 31
0.0
  0
LINE
  5
8A
330
20
100
AcDbEntity
  8
_0-0_
  6
DASHED1
 62
   136
100
AcDbLine
 10
2970.39552039241
 20
1410.964193279037
 30
0.0
 11
3020.395520392409
 21
1360.964193279037
 31
0.0
  0
LINE
  5
8B
330
20
100
AcDbEntity
  8
_0-0_
  6
DASHED1
 62
   136
100
AcDbLine
 10
2970.39552039241
 20
2210.964193279036
 30
0.0
 11
2970.39552039241
 21
1410.964193279037
 31
0.0
  0
LINE
  5
8C
330
20
100
AcDbEntity
  8
_0-0_
  6
DASHED1
 62
   136
100
AcDbLine
 10
3632.527554748373
 20
2023.096227635001
 30
0.0
 11
3820.395520392409
 21
2210.964193279036
 31
0.0
  0
LINE
  5
8D
330
20
100
AcDbEntity
  8
_0-0_
  6
DASHED1
 62
   136
100
AcDbLine
 10
3632.527554748373
 20
1598.832158923072
 30
0.0
 11
3820.395520392409
 21
1410.964193279037
 31
0.0
  0
LINE
  5
8E
330
20
100
AcDbEntity
  8
_0-0_
  6
DASHED1
 62
   136
100
AcDbLine
 10
3208.263486036445
 20
1598.832158923072
 30
0.0
 11
3020.395520392409
 21
1410.964193279037
 31
0.0
  0
LINE
  5
8F
330
20
100
AcDbEntity
  8
_0-0_
  6
DASHED1
 62
   136
100
AcDbLine
 10
3208.263486036445
 20
2023.096227635001
 30
0.0
 11
3020.395520392409
 21
2210.964193279036
 31
0.0
  0
LINE
  5
90
330
20
100
AcDbEntity
  8
_0-0_
  6
DASHED1
 62
   136
100
AcDbLine
 10
3110.39552039241
 20
2330.964193279037
 30
0.0
 11
3120.395520392409
 21
2295.964193279037
 31
0.0
  0
LINE
  5
91
330
20
100
AcDbEntity
  8
_0-0_
  6
DASHED1
 62
   136
100
AcDbLine
 10
3730.395520392409
 20
2330.964193279037
 30
0.0
 11
3720.39552039241
 21
2295.964193279037
 31
0.0
  0
LINE
  5
92
330
20
100
AcDbEntity
  8
_0-0_
  6
DASHED1
 62
   136
100
AcDbLine
 10
3120.395520392409
 20
2295.964193279037
 30
0.0
 11
3720.39552039241
 21
2295.964193279037
 31
0.0
  0
LINE
  5
93
330
20
100
AcDbEntity
  8
_0-0_
  6
DASHED1
 62
   136
100
AcDbLine
 10
3120.395520392409
 20
1325.964193279036
 30
0.0
 11
3110.39552039241
 21
1290.964193279036
 31
0.0
  0
LINE
  5
94
330
20
100
AcDbEntity
  8
_0-0_
  6
DASHED1
 62
   136
100
AcDbLine
 10
3720.39552039241
 20
1325.964193279036
 30
0.0
 11
3730.395520392409
 21
1290.964193279036
 31
0.0
  0
LINE
  5
95
330
20
100
AcDbEntity
  8
_0-0_
  6
DASHED1
 62
   136
100
AcDbLine
 10
3940.395520392409
 20
2120.964193279037
 30
0.0
 11
3905.395520392409
 21
2110.964193279036
 31
0.0
  0
LINE
  5
96
330
20
100
AcDbEntity
  8
_0-0_
  6
DASHED1
 62
   136
100
AcDbLine
 10
3905.395520392409
 20
1510.964193279036
 30
0.0
 11
3940.395520392409
 21
1500.964193279037
 31
0.0
  0
LINE
  5
97
330
20
100
AcDbEntity
  8
_0-0_
  6
DASHED1
 62
   136
100
AcDbLine
 10
3905.395520392409
 20
2110.964193279036
 30
0.0
 11
3905.395520392409
 21
1510.964193279036
 31
0.0
  0
LINE
  5
98
330
20
100
AcDbEntity
  8
_0-0_
  6
DASHED1
 62
   136
100
AcDbLine
 10
2900.39552039241
 20
2120.964193279037
 30
0.0
 11
2935.39552039241
 21
2110.964193279036
 31
0.0
  0
LINE
  5
99
330
20
100
AcDbEntity
  8
_0-0_
  6
DASHED1
 62
   136
100
AcDbLine
 10
2935.39552039241
 20
2110.964193279036
 30
0.0
 11
2935.39552039241
 21
1510.964193279036
 31
0.0
  0
LINE
  5
9A
330
20
100
AcDbEntity
  8
_0-0_
  6
DASHED1
 62
   136
100
AcDbLine
 10
2935.39552039241
 20
1510.964193279036
 30
0.0
 11
2900.39552039241
 21
1500.964193279037
 31
0.0
  0
LINE
  5
9B
330
20
100
AcDbEntity
  8
_0-0_
  6
Continuous
 62
     4
100
AcDbLine
 10
3702.303306628181
 20
1913.570236276737
 30
0.0
 11
3138.487734156637
 21
1708.358150281336
 31
0.0
  0
LINE
  5
9C
330
20
100
AcDbEntity
  8
_0-0_
  6
Continuous
 62
     4
100
AcDbLine
 10
3829.16181043428
 20
1959.742955625702
 30
0.0
 11
3702.303306628181
 21
1913.570236276737
 31
0.0
  0
LINE
  5
9D
330
20
100
AcDbEntity
  8
_0-0_
  6
Continuous
 62
     4
100
AcDbLine
 10
3138.487734156637
 20
1708.358150281336
 30
0.0
 11
3011.62923035054
 21
1662.18543093237
 31
0.0
  0
LINE
  5
9E
330
20
100
AcDbEntity
  8
_0-0_
  6
Continuous
 62
     4
100
AcDbLine
 10
3829.16181043428
 20
1959.742955625702
 30
0.0
 11
3810.730889437778
 21
1946.837485807804
 31
0.0
  0
LINE
  5
9F
330
20
100
AcDbEntity
  8
_0-0_
  6
Continuous
 62
     4
100
AcDbLine
 10
3829.16181043428
 20
1959.742955625702
 30
0.0
 11
3806.747429727215
 21
1957.78195141388
 31
0.0
  0
LINE
  5
A0
330
20
100
AcDbEntity
  8
_0-0_
  6
Continuous
 62
     4
100
AcDbLine
 10
3702.303306628181
 20
1913.570236276737
 30
0.0
 11
3720.734227624684
 21
1926.475706094636
 31
0.0
  0
LINE
  5
A1
330
20
100
AcDbEntity
  8
_0-0_
  6
Continuous
 62
     4
100
AcDbLine
 10
3702.303306628181
 20
1913.570236276737
 30
0.0
 11
3724.717687335246
 21
1915.53124048856
 31
0.0
  0
LINE
  5
A2
330
20
100
AcDbEntity
  8
_0-0_
  6
Continuous
 62
     4
100
AcDbLine
 10
3702.303306628181
 20
1913.570236276737
 30
0.0
 11
3683.872385631679
 21
1900.664766458839
 31
0.0
  0
LINE
  5
A3
330
20
100
AcDbEntity
  8
_0-0_
  6
Continuous
 62
     4
100
AcDbLine
 10
3702.303306628181
 20
1913.570236276737
 30
0.0
 11
3679.888925921118
 21
1911.609232064915
 31
0.0
  0
LINE
  5
A4
330
20
100
AcDbEntity
  8
_0-0_
  6
Continuous
 62
     4
100
AcDbLine
 10
3138.487734156637
 20
1708.358150281336
 30
0.0
 11
3156.91865515314
 21
1721.263620099234
 31
0.0
  0
LINE
  5
A5
330
20
100
AcDbEntity
  8
_0-0_
  6
Continuous
 62
     4
100
AcDbLine
 10
3138.487734156637
 20
1708.358150281336
 30
0.0
 11
3160.902114863702
 21
1710.319154493159
 31
0.0
  0
LINE
  5
A6
330
20
100
AcDbEntity
  8
_0-0_
  6
Continuous
 62
     4
100
AcDbLine
 10
3138.487734156637
 20
1708.358150281336
 30
0.0
 11
3120.056813160135
 21
1695.452680463437
 31
0.0
  0
LINE
  5
A7
330
20
100
AcDbEntity
  8
_0-0_
  6
Continuous
 62
     4
100
AcDbLine
 10
3138.487734156637
 20
1708.358150281336
 30
0.0
 11
3116.073353449573
 21
1706.397146069514
 31
0.0
  0
LINE
  5
A8
330
20
100
AcDbEntity
  8
_0-0_
  6
Continuous
 62
     4
100
AcDbLine
 10
3011.62923035054
 20
1662.18543093237
 30
0.0
 11
3030.060151347041
 21
1675.090900750269
 31
0.0
  0
LINE
  5
A9
330
20
100
AcDbEntity
  8
_0-0_
  6
Continuous
 62
     4
100
AcDbLine
 10
3011.62923035054
 20
1662.18543093237
 30
0.0
 11
3034.043611057604
 21
1664.146435144193
 31
0.0
  0
LINE
  5
AA
330
20
100
AcDbEntity
  8
_0-0_
  6
Continuous
 62
     4
100
AcDbLine
 10
3720.39552039241
 20
1270.964193279036
 30
0.0
 11
3720.39552039241
 21
1160.964193279036
 31
0.0
  0
LINE
  5
AB
330
20
100
AcDbEntity
  8
_0-0_
  6
Continuous
 62
     4
100
AcDbLine
 10
3120.395520392409
 20
1270.964193279036
 30
0.0
 11
3120.395520392409
 21
1160.964193279036
 31
0.0
  0
LINE
  5
AC
330
20
100
AcDbEntity
  8
_0-0_
  6
Continuous
 62
     4
100
AcDbLine
 10
3120.395520392409
 20
1170.964193279036
 30
0.0
 11
3720.39552039241
 21
1170.964193279036
 31
0.0
  0
LINE
  5
AD
330
20
100
AcDbEntity
  8
_0-0_
  6
Continuous
 62
     4
100
AcDbLine
 10
3120.395520392409
 20
1170.964193279036
 30
0.0
 11
3142.128851483913
 21
1176.787621793843
 31
0.0
  0
LINE
  5
AE
330
20
100
AcDbEntity
  8
_0-0_
  6
Continuous
 62
     4
100
AcDbLine
 10
3120.395520392409
 20
1170.964193279036
 30
0.0
 11
3142.128851483913
 21
1165.14076476423
 31
0.0
  0
LINE
  5
AF
330
20
100
AcDbEntity
  8
_0-0_
  6
Continuous
 62
     4
100
AcDbLine
 10
3720.39552039241
 20
1170.964193279036
 30
0.0
 11
3698.662189300906
 21
1165.14076476423
 31
0.0
  0
LINE
  5
B0
330
20
100
AcDbEntity
  8
_0-0_
  6
Continuous
 62
     4
100
AcDbLine
 10
3720.39552039241
 20
1170.964193279036
 30
0.0
 11
3698.662189300906
 21
1176.787621793843
 31
0.0
  0
LINE
  5
B1
330
20
100
AcDbEntity
  8
_0-0_
  6
Continuous
 62
     4
100
AcDbLine
 10
2970.39552039241
 20
2350.964193279037
 30
0.0
 11
2970.39552039241
 21
2570.964193279037
 31
0.0
  0
LINE
  5
B2
330
20
100
AcDbEntity
  8
_0-0_
  6
Continuous
 62
     4
100
AcDbLine
 10
3870.39552039241
 20
2570.964193279037
 30
0.0
 11
3870.39552039241
 21
2350.964193279037
 31
0.0
  0
LINE
  5
B3
330
20
100
AcDbEntity
  8
_0-0_
  6
Continuous
 62
     4
100
AcDbLine
 10
2900.39552039241
 20
2560.964193279037
 30
0.0
 11
2970.39552039241
 21
2560.964193279037
 31
0.0
  0
LINE
  5
B4
330
20
100
AcDbEntity
  8
_0-0_
  6
Continuous
 62
     4
100
AcDbLine
 10
3870.39552039241
 20
2560.964193279037
 30
0.0
 11
3940.395520392409
 21
2560.964193279037
 31
0.0
  0
LINE
  5
B5
330
20
100
AcDbEntity
  8
_0-0_
  6
Continuous
 62
     4
100
AcDbLine
 10
3870.39552039241
 20
2560.964193279037
 30
0.0
 11
2970.39552039241
 21
2560.964193279037
 31
0.0
  0
LINE
  5
B6
330
20
100
AcDbEntity
  8
_0-0_
  6
Continuous
 62
     4
100
AcDbLine
 10
3020.395520392409
 20
2350.964193279037
 30
0.0
 11
3020.395520392409
 21
2460.964193279037
 31
0.0
  0
LINE
  5
B7
330
20
100
AcDbEntity
  8
_0-0_
  6
Continuous
 62
     4
100
AcDbLine
 10
3820.395520392409
 20
2460.964193279037
 30
0.0
 11
3820.395520392409
 21
2350.964193279037
 31
0.0
  0
LINE
  5
B8
330
20
100
AcDbEntity
  8
_0-0_
  6
Continuous
 62
     4
100
AcDbLine
 10
3780.395520392409
 20
2450.964193279037
 30
0.0
 11
3820.395520392409
 21
2450.964193279037
 31
0.0
  0
LINE
  5
B9
330
20
100
AcDbEntity
  8
_0-0_
  6
Continuous
 62
     4
100
AcDbLine
 10
3870.39552039241
 20
2450.964193279037
 30
0.0
 11
3910.395520392409
 21
2450.964193279037
 31
0.0
  0
LINE
  5
BA
330
20
100
AcDbEntity
  8
_0-0_
  6
Continuous
 62
     4
100
AcDbLine
 10
2930.395520392409
 20
2450.964193279037
 30
0.0
 11
2970.39552039241
 21
2450.964193279037
 31
0.0
  0
LINE
  5
BB
330
20
100
AcDbEntity
  8
_0-0_
  6
Continuous
 62
     4
100
AcDbLine
 10
3020.395520392409
 20
2450.964193279037
 30
0.0
 11
3060.39552039241
 21
2450.964193279037
 31
0.0
  0
LINE
  5
BC
330
20
100
AcDbEntity
  8
_0-0_
  6
Continuous
 62
     4
100
AcDbLine
 10
3020.395520392409
 20
2450.964193279037
 30
0.0
 11
2970.39552039241
 21
2450.964193279037
 31
0.0
  0
LINE
  5
BD
330
20
100
AcDbEntity
  8
_0-0_
  6
Continuous
 62
     4
100
AcDbLine
 10
3870.39552039241
 20
2450.964193279037
 30
0.0
 11
3820.395520392409
 21
2450.964193279037
 31
0.0
  0
LINE
  5
BE
330
20
100
AcDbEntity
  8
_0-0_
  6
Continuous
 62
     4
100
AcDbLine
 10
2900.39552039241
 20
2670.964193279037
 30
0.0
 11
2922.128851483913
 21
2676.787621793843
 31
0.0
  0
LINE
  5
BF
330
20
100
AcDbEntity
  8
_0-0_
  6
Continuous
 62
     4
100
AcDbLine
 10
2900.39552039241
 20
2670.964193279037
 30
0.0
 11
2922.128851483913
 21
2665.140764764229
 31
0.0
  0
LINE
  5
C0
330
20
100
AcDbEntity
  8
_0-0_
  6
Continuous
 62
     4
100
AcDbLine
 10
3940.395520392409
 20
2670.964193279037
 30
0.0
 11
3918.662189300905
 21
2665.140764764229
 31
0.0
  0
LINE
  5
C1
330
20
100
AcDbEntity
  8
_0-0_
  6
Continuous
 62
     4
100
AcDbLine
 10
3940.395520392409
 20
2670.964193279037
 30
0.0
 11
3918.662189300905
 21
2676.787621793843
 31
0.0
  0
LINE
  5
C2
330
20
100
AcDbEntity
  8
_0-0_
  6
Continuous
 62
     4
100
AcDbLine
 10
3870.39552039241
 20
2560.964193279037
 30
0.0
 11
3892.128851483914
 21
2566.787621793844
 31
0.0
  0
LINE
  5
C3
330
20
100
AcDbEntity
  8
_0-0_
  6
Continuous
 62
     4
100
AcDbLine
 10
3870.39552039241
 20
2560.964193279037
 30
0.0
 11
3892.128851483914
 21
2555.14076476423
 31
0.0
  0
LINE
  5
C4
330
20
100
AcDbEntity
  8
_0-0_
  6
Continuous
 62
     4
100
AcDbLine
 10
3940.395520392409
 20
2680.964193279037
 30
0.0
 11
3946.218948907216
 21
2659.230862187532
 31
0.0
  0
LINE
  5
C5
330
20
100
AcDbEntity
  8
_0-0_
  6
Continuous
 62
     4
100
AcDbLine
 10
3940.395520392409
 20
2680.964193279037
 30
0.0
 11
3934.572091877603
 21
2659.230862187532
 31
0.0
  0
LINE
  5
C6
330
20
100
AcDbEntity
  8
_0-0_
  6
Continuous
 62
     4
100
AcDbLine
 10
3940.395520392409
 20
2560.964193279037
 30
0.0
 11
3918.662189300905
 21
2555.14076476423
 31
0.0
  0
LINE
  5
C7
330
20
100
AcDbEntity
  8
_0-0_
  6
Continuous
 62
     4
100
AcDbLine
 10
3940.395520392409
 20
2560.964193279037
 30
0.0
 11
3918.662189300905
 21
2566.787621793844
 31
0.0
  0
LINE
  5
C8
330
20
100
AcDbEntity
  8
_0-0_
  6
Continuous
 62
     4
100
AcDbLine
 10
3870.39552039241
 20
2560.964193279037
 30
0.0
 11
3848.662189300905
 21
2555.14076476423
 31
0.0
  0
LINE
  5
C9
330
20
100
AcDbEntity
  8
_0-0_
  6
Continuous
 62
     4
100
AcDbLine
 10
3870.39552039241
 20
2560.964193279037
 30
0.0
 11
3848.662189300905
 21
2566.787621793844
 31
0.0
  0
LINE
  5
CA
330
20
100
AcDbEntity
  8
_0-0_
  6
Continuous
 62
     4
100
AcDbLine
 10
2970.39552039241
 20
2560.964193279037
 30
0.0
 11
2992.128851483913
 21
2566.787621793844
 31
0.0
  0
LINE
  5
CB
330
20
100
AcDbEntity
  8
_0-0_
  6
Continuous
 62
     4
100
AcDbLine
 10
2970.39552039241
 20
2560.964193279037
 30
0.0
 11
2992.128851483913
 21
2555.14076476423
 31
0.0
  0
LINE
  5
CC
330
20
100
AcDbEntity
  8
_0-0_
  6
Continuous
 62
     4
100
AcDbLine
 10
2970.39552039241
 20
2560.964193279037
 30
0.0
 11
2948.662189300905
 21
2555.14076476423
 31
0.0
  0
LINE
  5
CD
330
20
100
AcDbEntity
  8
_0-0_
  6
Continuous
 62
     4
100
AcDbLine
 10
2970.39552039241
 20
2560.964193279037
 30
0.0
 11
2948.662189300905
 21
2566.787621793844
 31
0.0
  0
LINE
  5
CE
330
20
100
AcDbEntity
  8
_0-0_
  6
Continuous
 62
     4
100
AcDbLine
 10
2900.39552039241
 20
2560.964193279037
 30
0.0
 11
2922.128851483913
 21
2566.787621793844
 31
0.0
  0
LINE
  5
CF
330
20
100
AcDbEntity
  8
_0-0_
  6
Continuous
 62
     4
100
AcDbLine
 10
2900.39552039241
 20
2560.964193279037
 30
0.0
 11
2922.128851483913
 21
2555.14076476423
 31
0.0
  0
LINE
  5
D0
330
20
100
AcDbEntity
  8
_0-0_
  6
Continuous
 62
     4
100
AcDbLine
 10
2970.39552039241
 20
2450.964193279037
 30
0.0
 11
2948.662189300905
 21
2445.14076476423
 31
0.0
  0
LINE
  5
D1
330
20
100
AcDbEntity
  8
_0-0_
  6
Continuous
 62
     4
100
AcDbLine
 10
2970.39552039241
 20
2450.964193279037
 30
0.0
 11
2948.662189300905
 21
2456.787621793845
 31
0.0
  0
LINE
  5
D2
330
20
100
AcDbEntity
  8
_0-0_
  6
Continuous
 62
     4
100
AcDbLine
 10
3020.395520392409
 20
2450.964193279037
 30
0.0
 11
3042.128851483913
 21
2456.787621793845
 31
0.0
  0
LINE
  5
D3
330
20
100
AcDbEntity
  8
_0-0_
  6
Continuous
 62
     4
100
AcDbLine
 10
3020.395520392409
 20
2450.964193279037
 30
0.0
 11
3042.128851483913
 21
2445.14076476423
 31
0.0
  0
LINE
  5
D4
330
20
100
AcDbEntity
  8
_0-0_
  6
Continuous
 62
     4
100
AcDbLine
 10
3820.395520392409
 20
2450.964193279037
 30
0.0
 11
3798.662189300905
 21
2445.14076476423
 31
0.0
  0
LINE
  5
D5
330
20
100
AcDbEntity
  8
_0-0_
  6
Continuous
 62
     4
100
AcDbLine
 10
3820.395520392409
 20
2450.964193279037
 30
0.0
 11
3798.662189300905
 21
2456.787621793845
 31
0.0
  0
LINE
  5
D6
330
20
100
AcDbEntity
  8
_0-0_
  6
Continuous
 62
     4
100
AcDbLine
 10
3870.39552039241
 20
2450.964193279037
 30
0.0
 11
3892.128851483914
 21
2456.787621793845
 31
0.0
  0
LINE
  5
D7
330
20
100
AcDbEntity
  8
_0-0_
  6
Continuous
 62
     4
100
AcDbLine
 10
3870.39552039241
 20
2450.964193279037
 30
0.0
 11
3892.128851483914
 21
2445.14076476423
 31
0.0
  0
LINE
  5
D8
330
20
100
AcDbEntity
  8
_0-0_
  6
Continuous
 62
     4
100
AcDbLine
 10
2880.39552039241
 20
1360.964193279037
 30
0.0
 11
2660.395520392409
 21
1360.964193279037
 31
0.0
  0
LINE
  5
D9
330
20
100
AcDbEntity
  8
_0-0_
  6
Continuous
 62
     4
100
AcDbLine
 10
2880.39552039241
 20
2260.964193279036
 30
0.0
 11
2660.395520392409
 21
2260.964193279036
 31
0.0
  0
LINE
  5
DA
330
20
100
AcDbEntity
  8
_0-0_
  6
Continuous
 62
     4
100
AcDbLine
 10
2670.395520392409
 20
2330.964193279037
 30
0.0
 11
2670.395520392409
 21
2260.964193279036
 31
0.0
  0
LINE
  5
DB
330
20
100
AcDbEntity
  8
_0-0_
  6
Continuous
 62
     4
100
AcDbLine
 10
2670.395520392409
 20
1360.964193279037
 30
0.0
 11
2670.395520392409
 21
1290.964193279036
 31
0.0
  0
LINE
  5
DC
330
20
100
AcDbEntity
  8
_0-0_
  6
Continuous
 62
     4
100
AcDbLine
 10
2670.395520392409
 20
2260.964193279036
 30
0.0
 11
2670.395520392409
 21
1360.964193279037
 31
0.0
  0
LINE
  5
DD
330
20
100
AcDbEntity
  8
_0-0_
  6
Continuous
 62
     4
100
AcDbLine
 10
2880.39552039241
 20
1410.964193279037
 30
0.0
 11
2770.395520392409
 21
1410.964193279037
 31
0.0
  0
LINE
  5
DE
330
20
100
AcDbEntity
  8
_0-0_
  6
Continuous
 62
     4
100
AcDbLine
 10
2880.39552039241
 20
2210.964193279036
 30
0.0
 11
2770.395520392409
 21
2210.964193279036
 31
0.0
  0
LINE
  5
DF
330
20
100
AcDbEntity
  8
_0-0_
  6
Continuous
 62
     4
100
AcDbLine
 10
2780.39552039241
 20
2300.964193279037
 30
0.0
 11
2780.39552039241
 21
2260.964193279036
 31
0.0
  0
LINE
  5
E0
330
20
100
AcDbEntity
  8
_0-0_
  6
Continuous
 62
     4
100
AcDbLine
 10
2780.39552039241
 20
2210.964193279036
 30
0.0
 11
2780.39552039241
 21
2170.964193279036
 31
0.0
  0
LINE
  5
E1
330
20
100
AcDbEntity
  8
_0-0_
  6
Continuous
 62
     4
100
AcDbLine
 10
2780.39552039241
 20
1450.964193279036
 30
0.0
 11
2780.39552039241
 21
1410.964193279037
 31
0.0
  0
LINE
  5
E2
330
20
100
AcDbEntity
  8
_0-0_
  6
Continuous
 62
     4
100
AcDbLine
 10
2780.39552039241
 20
1360.964193279037
 30
0.0
 11
2780.39552039241
 21
1320.964193279037
 31
0.0
  0
LINE
  5
E3
330
20
100
AcDbEntity
  8
_0-0_
  6
Continuous
 62
     4
100
AcDbLine
 10
2780.39552039241
 20
2260.964193279036
 30
0.0
 11
2780.39552039241
 21
2210.964193279036
 31
0.0
  0
LINE
  5
E4
330
20
100
AcDbEntity
  8
_0-0_
  6
Continuous
 62
     4
100
AcDbLine
 10
2780.39552039241
 20
1410.964193279037
 30
0.0
 11
2780.39552039241
 21
1360.964193279037
 31
0.0
  0
LINE
  5
E5
330
20
100
AcDbEntity
  8
_0-0_
  6
Continuous
 62
     4
100
AcDbLine
 10
2560.39552039241
 20
2330.964193279037
 30
0.0
 11
2566.218948907216
 21
2309.230862187533
 31
0.0
  0
LINE
  5
E6
330
20
100
AcDbEntity
  8
_0-0_
  6
Continuous
 62
     4
100
AcDbLine
 10
2560.39552039241
 20
2330.964193279037
 30
0.0
 11
2554.572091877604
 21
2309.230862187533
 31
0.0
  0
LINE
  5
E7
330
20
100
AcDbEntity
  8
_0-0_
  6
Continuous
 62
     4
100
AcDbLine
 10
2670.395520392409
 20
2330.964193279037
 30
0.0
 11
2676.218948907216
 21
2309.230862187533
 31
0.0
  0
LINE
  5
E8
330
20
100
AcDbEntity
  8
_0-0_
  6
Continuous
 62
     4
100
AcDbLine
 10
2670.395520392409
 20
2330.964193279037
 30
0.0
 11
2664.572091877603
 21
2309.230862187533
 31
0.0
  0
LINE
  5
E9
330
20
100
AcDbEntity
  8
_0-0_
  6
Continuous
 62
     4
100
AcDbLine
 10
2670.395520392409
 20
2260.964193279036
 30
0.0
 11
2664.572091877603
 21
2282.697524370541
 31
0.0
  0
LINE
  5
EA
330
20
100
AcDbEntity
  8
_0-0_
  6
Continuous
 62
     4
100
AcDbLine
 10
2670.395520392409
 20
2260.964193279036
 30
0.0
 11
2676.218948907216
 21
2282.697524370541
 31
0.0
  0
LINE
  5
EB
330
20
100
AcDbEntity
  8
_0-0_
  6
Continuous
 62
     4
100
AcDbLine
 10
2780.39552039241
 20
2260.964193279036
 30
0.0
 11
2774.572091877602
 21
2282.697524370541
 31
0.0
  0
LINE
  5
EC
330
20
100
AcDbEntity
  8
_0-0_
  6
Continuous
 62
     4
100
AcDbLine
 10
2780.39552039241
 20
2260.964193279036
 30
0.0
 11
2786.218948907216
 21
2282.697524370541
 31
0.0
  0
LINE
  5
ED
330
20
100
AcDbEntity
  8
_0-0_
  6
Continuous
 62
     4
100
AcDbLine
 10
2780.39552039241
 20
2210.964193279036
 30
0.0
 11
2786.218948907216
 21
2189.230862187533
 31
0.0
  0
LINE
  5
EE
330
20
100
AcDbEntity
  8
_0-0_
  6
Continuous
 62
     4
100
AcDbLine
 10
2780.39552039241
 20
2210.964193279036
 30
0.0
 11
2774.572091877602
 21
2189.230862187533
 31
0.0
  0
LINE
  5
EF
330
20
100
AcDbEntity
  8
_0-0_
  6
Continuous
 62
     4
100
AcDbLine
 10
2780.39552039241
 20
1410.964193279037
 30
0.0
 11
2774.572091877602
 21
1432.697524370541
 31
0.0
  0
LINE
  5
F0
330
20
100
AcDbEntity
  8
_0-0_
  6
Continuous
 62
     4
100
AcDbLine
 10
2780.39552039241
 20
1410.964193279037
 30
0.0
 11
2786.218948907216
 21
1432.697524370541
 31
0.0
  0
LINE
  5
F1
330
20
100
AcDbEntity
  8
_0-0_
  6
Continuous
 62
     4
100
AcDbLine
 10
2780.39552039241
 20
1360.964193279037
 30
0.0
 11
2786.218948907216
 21
1339.230862187533
 31
0.0
  0
LINE
  5
F2
330
20
100
AcDbEntity
  8
_0-0_
  6
Continuous
 62
     4
100
AcDbLine
 10
2780.39552039241
 20
1360.964193279037
 30
0.0
 11
2774.572091877602
 21
1339.230862187533
 31
0.0
  0
LINE
  5
F3
330
20
100
AcDbEntity
  8
_0-0_
  6
Continuous
 62
     4
100
AcDbLine
 10
2670.395520392409
 20
1360.964193279037
 30
0.0
 11
2664.572091877603
 21
1382.697524370541
 31
0.0
  0
LINE
  5
F4
330
20
100
AcDbEntity
  8
_0-0_
  6
Continuous
 62
     4
100
AcDbLine
 10
2670.395520392409
 20
1360.964193279037
 30
0.0
 11
2676.218948907216
 21
1382.697524370541
 31
0.0
  0
LINE
  5
F5
330
20
100
AcDbEntity
  8
_0-0_
  6
Continuous
 62
     4
100
AcDbLine
 10
2670.395520392409
 20
1360.964193279037
 30
0.0
 11
2676.218948907216
 21
1339.230862187533
 31
0.0
  0
LINE
  5
F6
330
20
100
AcDbEntity
  8
_0-0_
  6
Continuous
 62
     4
100
AcDbLine
 10
2670.395520392409
 20
1360.964193279037
 30
0.0
 11
2664.572091877603
 21
1339.230862187533
 31
0.0
  0
LINE
  5
F7
330
20
100
AcDbEntity
  8
_0-0_
  6
Continuous
 62
     4
100
AcDbLine
 10
2670.395520392409
 20
1290.964193279036
 30
0.0
 11
2664.572091877603
 21
1312.69752437054
 31
0.0
  0
LINE
  5
F8
330
20
100
AcDbEntity
  8
_0-0_
  6
Continuous
 62
     4
100
AcDbLine
 10
2670.395520392409
 20
1290.964193279036
 30
0.0
 11
2676.218948907216
 21
1312.69752437054
 31
0.0
  0
LINE
  5
F9
330
20
100
AcDbEntity
  8
_0-0_
  6
Continuous
 62
     4
100
AcDbLine
 10
2560.39552039241
 20
1290.964193279036
 30
0.0
 11
2554.572091877604
 21
1312.69752437054
 31
0.0
  0
LINE
  5
FA
330
20
100
AcDbEntity
  8
_0-0_
  6
Continuous
 62
     4
100
AcDbLine
 10
2560.39552039241
 20
1290.964193279036
 30
0.0
 11
2566.218948907216
 21
1312.69752437054
 31
0.0
  0
LINE
  5
FB
330
20
100
AcDbEntity
  8
_0-0_
  6
Continuous
 62
     4
100
AcDbLine
 10
3630.395520392409
 20
1330.964193279037
 30
0.0
 11
3790.395520392409
 21
1170.964193279036
 31
0.0
  0
LINE
  5
FC
330
20
100
AcDbEntity
  8
_0-0_
  6
Continuous
 62
     4
100
AcDbLine
 10
3630.395520392409
 20
1330.964193279037
 30
0.0
 11
3649.881091977559
 21
1319.714193279036
 31
0.0
  0
LINE
  5
FD
330
20
100
AcDbEntity
  8
_0-0_
  6
Continuous
 62
     4
100
AcDbLine
 10
3630.395520392409
 20
1330.964193279037
 30
0.0
 11
3641.64552039241
 21
1311.478621693886
 31
0.0
  0
LINE
  5
FE
330
20
100
AcDbEntity
  8
_0-0_
  6
Continuous
 62
     4
100
AcDbLine
 10
3790.395520392409
 20
1170.964193279036
 30
0.0
 11
4247.735712845661
 21
1170.964193279036
 31
0.0
  0
TEXT
  5
FF
330
20
100
AcDbEntity
  8
_0-0_
 62
     7
100
AcDbText
 10
3377.394647046194
 20
2685.632155807441
 30
0.0
 40
45.0
  1
1040
100
AcDbText
  0
TEXT
  5
100
330
20
100
AcDbEntity
  8
_0-0_
 62
     7
100
AcDbText
 10
3387.434929808622
 20
2570.168904039512
 30
0.0
 40
45.0
  1
900
100
AcDbText
  0
TEXT
  5
101
330
20
100
AcDbEntity
  8
_0-0_
 62
     7
100
AcDbText
 10
2915.541639974477
 20
2571.842284499917
 30
0.0
 40
45.0
  1
70
100
AcDbText
  0
TEXT
  5
102
330
20
100
AcDbEntity
  8
_0-0_
 62
     7
100
AcDbText
 10
3860.102009559845
 20
2573.515664960321
 30
0.0
 40
45.0
  1
70
100
AcDbText
  0
TEXT
  5
103
330
20
100
AcDbEntity
  8
_0-0_
 62
     7
100
AcDbText
 10
3798.186932524869
 20
2463.072554573607
 30
0.0
 40
45.0
  1
50
100
AcDbText
  0
TEXT
  5
104
330
20
100
AcDbEntity
  8
_0-0_
 62
     7
100
AcDbText
 10
2975.783336549049
 20
2459.725793652797
 30
0.0
 40
45.0
  1
50
100
AcDbText
  0
TEXT
  5
105
330
20
100
AcDbEntity
  8
_0-0_
 62
     7
100
AcDbText
 10
2659.104786953236
 20
2249.175452444653
 30
0.0
 40
45.0
  1
70
 50
90.0
100
AcDbText
  0
TEXT
  5
106
330
20
100
AcDbEntity
  8
_0-0_
 62
     7
100
AcDbText
 10
2765.966497231304
 20
2187.908594834003
 30
0.0
 40
45.0
  1
50
 50
90.0
100
AcDbText
  0
TEXT
  5
107
330
20
100
AcDbEntity
  8
_0-0_
 62
     7
100
AcDbText
 10
2546.809430389842
 20
1765.760559480221
 30
0.0
 40
45.0
  1
1040
 50
90.0
100
AcDbText
  0
TEXT
  5
108
330
20
100
AcDbEntity
  8
_0-0_
 62
     7
100
AcDbText
 10
2657.293571524794
 20
1774.81663662243
 30
0.0
 40
45.0
  1
900
 50
90.0
100
AcDbText
  0
TEXT
  5
109
330
20
100
AcDbEntity
  8
_0-0_
 62
     7
100
AcDbText
 10
2769.588928088188
 20
1365.481949794577
 30
0.0
 40
45.0
  1
50
 50
90.0
100
AcDbText
  0
TEXT
  5
10A
330
20
100
AcDbEntity
  8
_0-0_
 62
     7
100
AcDbText
 10
2659.104786953236
 20
1303.900625227555
 30
0.0
 40
45.0
  1
70
 50
90.0
100
AcDbText
  0
TEXT
  5
10B
330
20
100
AcDbEntity
  8
_0-0_
 62
     7
100
AcDbText
 10
3314.402489784099
 20
1790.437979870087
 30
0.0
 40
45.0
  1
φ600
 50
19.99999999999992
100
AcDbText
  0
TEXT
  5
10C
330
20
100
AcDbEntity
  8
_0-0_
 62
     7
100
AcDbText
 10
3021.166322073767
 20
1683.156616384813
 30
0.0
 40
45.0
  1
135
 50
19.99999999999999
100
AcDbText
  0
TEXT
  5
10D
330
20
100
AcDbEntity
  8
_0-0_
 62
     7
100
AcDbText
 10
3710.241253666314
 20
1936.598101756156
 30
0.0
 40
45.0
  1
135
 50
19.99999999999995
100
AcDbText
  0
TEXT
  5
10E
330
20
100
AcDbEntity
  8
_0-0_
 62
     7
100
AcDbText
 10
3386.015808570114
 20
1179.098962014835
 30
0.0
 40
45.0
  1
600
100
AcDbText
  0
TEXT
  5
10F
330
20
100
AcDbEntity
  8
_0-0_
 62
     7
100
AcDbText
 10
3811.128426833305
 20
1180.132958684674
 30
0.0
 40
45.0
  1
インサート　M12
100
AcDbText
  0
LINE
  5
110
330
20
100
AcDbEntity
  8
_0-0_
  6
DASHED1
 62
     6
100
AcDbLine
 10
3210.39552039241
 20
2290.964193279036
 30
0.0
 11
3210.39552039241
 21
2260.964193279036
 31
0.0
  0
LINE
  5
111
330
20
100
AcDbEntity
  8
_0-0_
  6
DASHED1
 62
     6
100
AcDbLine
 10
3210.39552039241
 20
2290.964193279036
 30
0.0
 11
3230.395520392409
 21
2290.964193279036
 31
0.0
  0
LINE
  5
112
330
20
100
AcDbEntity
  8
_0-0_
  6
DASHED1
 62
     6
100
AcDbLine
 10
3230.395520392409
 20
2290.964193279036
 30
0.0
 11
3230.395520392409
 21
2260.964193279036
 31
0.0
  0
LINE
  5
113
330
20
100
AcDbEntity
  8
_0-0_
  6
DASHED1
 62
     6
100
AcDbLine
 10
3410.395520392409
 20
2290.964193279036
 30
0.0
 11
3410.395520392409
 21
2260.964193279036
 31
0.0
  0
LINE
  5
114
330
20
100
AcDbEntity
  8
_0-0_
  6
DASHED1
 62
     6
100
AcDbLine
 10
3410.395520392409
 20
2290.964193279036
 30
0.0
 11
3430.395520392409
 21
2290.964193279036
 31
0.0
  0
LINE
  5
115
330
20
100
AcDbEntity
  8
_0-0_
  6
DASHED1
 62
     6
100
AcDbLine
 10
3430.395520392409
 20
2290.964193279036
 30
0.0
 11
3430.395520392409
 21
2260.964193279036
 31
0.0
  0
LINE
  5
116
330
20
100
AcDbEntity
  8
_0-0_
  6
DASHED1
 62
     6
100
AcDbLine
 10
3610.39552039241
 20
2290.964193279036
 30
0.0
 11
3610.39552039241
 21
2260.964193279036
 31
0.0
  0
LINE
  5
117
330
20
100
AcDbEntity
  8
_0-0_
  6
DASHED1
 62
     6
100
AcDbLine
 10
3610.39552039241
 20
2290.964193279036
 30
0.0
 11
3630.395520392409
 21
2290.964193279036
 31
0.0
  0
LINE
  5
118
330
20
100
AcDbEntity
  8
_0-0_
  6
DASHED1
 62
     6
100
AcDbLine
 10
3630.395520392409
 20
2290.964193279036
 30
0.0
 11
3630.395520392409
 21
2260.964193279036
 31
0.0
  0
LINE
  5
119
330
20
100
AcDbEntity
  8
_0-0_
  6
DASHED1
 62
     6
100
AcDbLine
 10
3870.39552039241
 20
2000.964193279036
 30
0.0
 11
3900.39552039241
 21
2000.964193279036
 31
0.0
  0
LINE
  5
11A
330
20
100
AcDbEntity
  8
_0-0_
  6
DASHED1
 62
     6
100
AcDbLine
 10
3870.39552039241
 20
2020.964193279037
 30
0.0
 11
3900.39552039241
 21
2020.964193279037
 31
0.0
  0
LINE
  5
11B
330
20
100
AcDbEntity
  8
_0-0_
  6
DASHED1
 62
     6
100
AcDbLine
 10
3900.39552039241
 20
2020.964193279037
 30
0.0
 11
3900.39552039241
 21
2000.964193279036
 31
0.0
  0
LINE
  5
11C
330
20
100
AcDbEntity
  8
_0-0_
  6
DASHED1
 62
     6
100
AcDbLine
 10
3870.39552039241
 20
1820.964193279037
 30
0.0
 11
3900.39552039241
 21
1820.964193279037
 31
0.0
  0
LINE
  5
11D
330
20
100
AcDbEntity
  8
_0-0_
  6
DASHED1
 62
     6
100
AcDbLine
 10
3870.39552039241
 20
1800.964193279037
 30
0.0
 11
3900.39552039241
 21
1800.964193279037
 31
0.0
  0
LINE
  5
11E
330
20
100
AcDbEntity
  8
_0-0_
  6
DASHED1
 62
     6
100
AcDbLine
 10
3900.39552039241
 20
1820.964193279037
 30
0.0
 11
3900.39552039241
 21
1800.964193279037
 31
0.0
  0
LINE
  5
11F
330
20
100
AcDbEntity
  8
_0-0_
  6
DASHED1
 62
     6
100
AcDbLine
 10
3870.39552039241
 20
1620.964193279036
 30
0.0
 11
3900.39552039241
 21
1620.964193279036
 31
0.0
  0
LINE
  5
120
330
20
100
AcDbEntity
  8
_0-0_
  6
DASHED1
 62
     6
100
AcDbLine
 10
3870.39552039241
 20
1600.964193279036
 30
0.0
 11
3900.39552039241
 21
1600.964193279036
 31
0.0
  0
LINE
  5
121
330
20
100
AcDbEntity
  8
_0-0_
  6
DASHED1
 62
     6
100
AcDbLine
 10
3900.39552039241
 20
1620.964193279036
 30
0.0
 11
3900.39552039241
 21
1600.964193279036
 31
0.0
  0
LINE
  5
122
330
20
100
AcDbEntity
  8
_0-0_
  6
DASHED1
 62
     6
100
AcDbLine
 10
3210.39552039241
 20
1360.964193279037
 30
0.0
 11
3210.39552039241
 21
1330.964193279037
 31
0.0
  0
LINE
  5
123
330
20
100
AcDbEntity
  8
_0-0_
  6
DASHED1
 62
     6
100
AcDbLine
 10
3210.39552039241
 20
1330.964193279037
 30
0.0
 11
3230.395520392409
 21
1330.964193279037
 31
0.0
  0
LINE
  5
124
330
20
100
AcDbEntity
  8
_0-0_
  6
DASHED1
 62
     6
100
AcDbLine
 10
3230.395520392409
 20
1360.964193279037
 30
0.0
 11
3230.395520392409
 21
1330.964193279037
 31
0.0
  0
LINE
  5
125
330
20
100
AcDbEntity
  8
_0-0_
  6
DASHED1
 62
     6
100
AcDbLine
 10
3410.395520392409
 20
1360.964193279037
 30
0.0
 11
3410.395520392409
 21
1330.964193279037
 31
0.0
  0
LINE
  5
126
330
20
100
AcDbEntity
  8
_0-0_
  6
DASHED1
 62
     6
100
AcDbLine
 10
3410.395520392409
 20
1330.964193279037
 30
0.0
 11
3430.395520392409
 21
1330.964193279037
 31
0.0
  0
LINE
  5
127
330
20
100
AcDbEntity
  8
_0-0_
  6
DASHED1
 62
     6
100
AcDbLine
 10
3430.395520392409
 20
1360.964193279037
 30
0.0
 11
3430.395520392409
 21
1330.964193279037
 31
0.0
  0
LINE
  5
128
330
20
100
AcDbEntity
  8
_0-0_
  6
DASHED1
 62
     6
100
AcDbLine
 10
3610.39552039241
 20
1360.964193279037
 30
0.0
 11
3610.39552039241
 21
1330.964193279037
 31
0.0
  0
LINE
  5
129
330
20
100
AcDbEntity
  8
_0-0_
  6
DASHED1
 62
     6
100
AcDbLine
 10
3610.39552039241
 20
1330.964193279037
 30
0.0
 11
3630.395520392409
 21
1330.964193279037
 31
0.0
  0
LINE
  5
12A
330
20
100
AcDbEntity
  8
_0-0_
  6
DASHED1
 62
     6
100
AcDbLine
 10
3630.395520392409
 20
1360.964193279037
 30
0.0
 11
3630.395520392409
 21
1330.964193279037
 31
0.0
  0
LINE
  5
12B
330
20
100
AcDbEntity
  8
_0-0_
  6
DASHED1
 62
     6
100
AcDbLine
 10
2940.39552039241
 20
2020.964193279037
 30
0.0
 11
2970.39552039241
 21
2020.964193279037
 31
0.0
  0
LINE
  5
12C
330
20
100
AcDbEntity
  8
_0-0_
  6
DASHED1
 62
     6
100
AcDbLine
 10
2940.39552039241
 20
2020.964193279037
 30
0.0
 11
2940.39552039241
 21
2000.964193279036
 31
0.0
  0
LINE
  5
12D
330
20
100
AcDbEntity
  8
_0-0_
  6
DASHED1
 62
     6
100
AcDbLine
 10
2940.39552039241
 20
2000.964193279036
 30
0.0
 11
2970.39552039241
 21
2000.964193279036
 31
0.0
  0
LINE
  5
12E
330
20
100
AcDbEntity
  8
_0-0_
  6
DASHED1
 62
     6
100
AcDbLine
 10
2940.39552039241
 20
1820.964193279037
 30
0.0
 11
2970.39552039241
 21
1820.964193279037
 31
0.0
  0
LINE
  5
12F
330
20
100
AcDbEntity
  8
_0-0_
  6
DASHED1
 62
     6
100
AcDbLine
 10
2940.39552039241
 20
1820.964193279037
 30
0.0
 11
2940.39552039241
 21
1800.964193279037
 31
0.0
  0
LINE
  5
130
330
20
100
AcDbEntity
  8
_0-0_
  6
DASHED1
 62
     6
100
AcDbLine
 10
2940.39552039241
 20
1800.964193279037
 30
0.0
 11
2970.39552039241
 21
1800.964193279037
 31
0.0
  0
LINE
  5
131
330
20
100
AcDbEntity
  8
_0-0_
  6
DASHED1
 62
     6
100
AcDbLine
 10
2940.39552039241
 20
1620.964193279036
 30
0.0
 11
2970.39552039241
 21
1620.964193279036
 31
0.0
  0
LINE
  5
132
330
20
100
AcDbEntity
  8
_0-0_
  6
DASHED1
 62
     6
100
AcDbLine
 10
2940.39552039241
 20
1600.964193279036
 30
0.0
 11
2970.39552039241
 21
1600.964193279036
 31
0.0
  0
LINE
  5
133
330
20
100
AcDbEntity
  8
_0-0_
  6
DASHED1
 62
     6
100
AcDbLine
 10
2940.39552039241
 20
1620.964193279036
 30
0.0
 11
2940.39552039241
 21
1600.964193279036
 31
0.0
  0
LINE
  5
134
330
20
100
AcDbEntity
  8
_0-0_
  6
Continuous
 62
   136
100
AcDbLine
 10
3349.684842273755
 20
1881.674871397692
 30
0.0
 11
3208.263486036445
 21
2023.096227635001
 31
0.0
  0
LINE
  5
135
330
20
100
AcDbEntity
  8
_0-0_
  6
Continuous
 62
   136
100
AcDbLine
 10
3491.106198511064
 20
1881.674871397692
 30
0.0
 11
3632.527554748373
 21
2023.096227635001
 31
0.0
  0
LINE
  5
136
330
20
100
AcDbEntity
  8
_0-0_
  6
Continuous
 62
   136
100
AcDbLine
 10
3491.106198511064
 20
1740.253515160382
 30
0.0
 11
3632.527554748373
 21
1598.832158923072
 31
0.0
  0
LINE
  5
137
330
20
100
AcDbEntity
  8
_0-0_
  6
Continuous
 62
   136
100
AcDbLine
 10
3349.684842273755
 20
1740.253515160382
 30
0.0
 11
3208.263486036445
 21
1598.832158923072
 31
0.0
  0
LINE
  5
138
330
20
100
AcDbEntity
  8
_0-0_
  6
Continuous
 62
     4
100
AcDbLine
 10
4060.395520392409
 20
2110.964193279036
 30
0.0
 11
4060.395520392409
 21
1510.964193279036
 31
0.0
  0
LINE
  5
139
330
20
100
AcDbEntity
  8
_0-0_
  6
Continuous
 62
     4
100
AcDbLine
 10
3960.39552039241
 20
2110.964193279036
 30
0.0
 11
4070.395520392409
 21
2110.964193279036
 31
0.0
  0
LINE
  5
13A
330
20
100
AcDbEntity
  8
_0-0_
  6
Continuous
 62
     4
100
AcDbLine
 10
3960.39552039241
 20
1510.964193279036
 30
0.0
 11
4070.395520392409
 21
1510.964193279036
 31
0.0
  0
LINE
  5
13B
330
20
100
AcDbEntity
  8
_0-0_
  6
Continuous
 62
     4
100
AcDbLine
 10
4060.395520392409
 20
2110.964193279036
 30
0.0
 11
4066.218948907216
 21
2089.230862187532
 31
0.0
  0
LINE
  5
13C
330
20
100
AcDbEntity
  8
_0-0_
  6
Continuous
 62
     4
100
AcDbLine
 10
4060.395520392409
 20
2110.964193279036
 30
0.0
 11
4054.572091877602
 21
2089.230862187532
 31
0.0
  0
LINE
  5
13D
330
20
100
AcDbEntity
  8
_0-0_
  6
Continuous
 62
     4
100
AcDbLine
 10
4060.395520392409
 20
1510.964193279036
 30
0.0
 11
4054.572091877602
 21
1532.69752437054
 31
0.0
  0
LINE
  5
13E
330
20
100
AcDbEntity
  8
_0-0_
  6
Continuous
 62
     4
100
AcDbLine
 10
4060.395520392409
 20
1510.964193279036
 30
0.0
 11
4066.218948907216
 21
1532.69752437054
 31
0.0
  0
TEXT
  5
13F
330
20
100
AcDbEntity
  8
_0-0_
 62
     7
100
AcDbText
 10
4052.649079297086
 20
1776.12994422674
 30
0.0
 40
45.0
  1
600
 50
90.0
100
AcDbText
  0
LINE
  5
140
330
20
100
AcDbEntity
  8
_0-0_
  6
Continuous
 62
     4
100
AcDbLine
 10
2880.39552039241
 20
1810.964193279037
 30
0.0
 11
2770.395520392409
 21
1810.964193279037
 31
0.0
  0
LINE
  5
141
330
20
100
AcDbEntity
  8
_0-0_
  6
Continuous
 62
     4
100
AcDbLine
 10
2880.39552039241
 20
2010.964193279037
 30
0.0
 11
2770.395520392409
 21
2010.964193279037
 31
0.0
  0
LINE
  5
142
330
20
100
AcDbEntity
  8
_0-0_
  6
Continuous
 62
     4
100
AcDbLine
 10
2880.39552039241
 20
1610.964193279037
 30
0.0
 11
2770.395520392409
 21
1610.964193279037
 31
0.0
  0
LINE
  5
143
330
20
100
AcDbEntity
  8
_0-0_
  6
Continuous
 62
     4
100
AcDbLine
 10
2780.39552039241
 20
1610.964193279037
 30
0.0
 11
2780.39552039241
 21
1810.964193279037
 31
0.0
  0
LINE
  5
144
330
20
100
AcDbEntity
  8
_0-0_
  6
Continuous
 62
     4
100
AcDbLine
 10
2780.39552039241
 20
2010.964193279037
 30
0.0
 11
2780.39552039241
 21
1810.964193279037
 31
0.0
  0
LINE
  5
145
330
20
100
AcDbEntity
  8
_0-0_
  6
Continuous
 62
     4
100
AcDbLine
 10
2780.39552039241
 20
2010.964193279037
 30
0.0
 11
2786.218948907216
 21
1989.230862187532
 31
0.0
  0
LINE
  5
146
330
20
100
AcDbEntity
  8
_0-0_
  6
Continuous
 62
     4
100
AcDbLine
 10
2780.39552039241
 20
2010.964193279037
 30
0.0
 11
2774.572091877602
 21
1989.230862187532
 31
0.0
  0
LINE
  5
147
330
20
100
AcDbEntity
  8
_0-0_
  6
Continuous
 62
     4
100
AcDbLine
 10
2780.39552039241
 20
1810.964193279037
 30
0.0
 11
2774.572091877602
 21
1832.697524370541
 31
0.0
  0
LINE
  5
148
330
20
100
AcDbEntity
  8
_0-0_
  6
Continuous
 62
     4
100
AcDbLine
 10
2780.39552039241
 20
1810.964193279037
 30
0.0
 11
2786.218948907216
 21
1832.697524370541
 31
0.0
  0
LINE
  5
149
330
20
100
AcDbEntity
  8
_0-0_
  6
Continuous
 62
     4
100
AcDbLine
 10
2780.39552039241
 20
1810.964193279037
 30
0.0
 11
2786.218948907216
 21
1789.230862187532
 31
0.0
  0
LINE
  5
14A
330
20
100
AcDbEntity
  8
_0-0_
  6
Continuous
 62
     4
100
AcDbLine
 10
2780.39552039241
 20
1810.964193279037
 30
0.0
 11
2774.572091877602
 21
1789.230862187532
 31
0.0
  0
LINE
  5
14B
330
20
100
AcDbEntity
  8
_0-0_
  6
Continuous
 62
     4
100
AcDbLine
 10
2780.39552039241
 20
1610.964193279037
 30
0.0
 11
2774.572091877602
 21
1632.69752437054
 31
0.0
  0
LINE
  5
14C
330
20
100
AcDbEntity
  8
_0-0_
  6
Continuous
 62
     4
100
AcDbLine
 10
2780.39552039241
 20
1610.964193279037
 30
0.0
 11
2786.218948907216
 21
1632.69752437054
 31
0.0
  0
TEXT
  5
14D
330
20
100
AcDbEntity
  8
_0-0_
 62
     7
100
AcDbText
 10
2772.361131894953
 20
1876.961392288091
 30
0.0
 40
45.0
  1
200
 50
90.0
100
AcDbText
  0
TEXT
  5
14E
330
20
100
AcDbEntity
  8
_0-0_
 62
     7
100
AcDbText
 10
2773.963013594614
 20
1676.726179830492
 30
0.0
 40
45.0
  1
200
 50
90.0
100
AcDbText
  0
LINE
  5
14F
330
20
100
AcDbEntity
  8
_0-0_
  6
Continuous
 62
     4
100
AcDbLine
 10
3420.39552039241
 20
2350.964193279037
 30
0.0
 11
3420.39552039241
 21
2460.964193279037
 31
0.0
  0
LINE
  5
150
330
20
100
AcDbEntity
  8
_0-0_
  6
Continuous
 62
     4
100
AcDbLine
 10
3620.39552039241
 20
2350.964193279037
 30
0.0
 11
3620.39552039241
 21
2460.964193279037
 31
0.0
  0
LINE
  5
151
330
20
100
AcDbEntity
  8
_0-0_
  6
Continuous
 62
     4
100
AcDbLine
 10
3220.39552039241
 20
2350.964193279037
 30
0.0
 11
3220.39552039241
 21
2460.964193279037
 31
0.0
  0
LINE
  5
152
330
20
100
AcDbEntity
  8
_0-0_
  6
Continuous
 62
     4
100
AcDbLine
 10
3620.39552039241
 20
2450.964193279037
 30
0.0
 11
3420.39552039241
 21
2450.964193279037
 31
0.0
  0
LINE
  5
153
330
20
100
AcDbEntity
  8
_0-0_
  6
Continuous
 62
     4
100
AcDbLine
 10
3420.39552039241
 20
2450.964193279037
 30
0.0
 11
3220.39552039241
 21
2450.964193279037
 31
0.0
  0
LINE
  5
154
330
20
100
AcDbEntity
  8
_0-0_
  6
Continuous
 62
     4
100
AcDbLine
 10
3620.39552039241
 20
2450.964193279037
 30
0.0
 11
3598.662189300905
 21
2445.14076476423
 31
0.0
  0
LINE
  5
155
330
20
100
AcDbEntity
  8
_0-0_
  6
Continuous
 62
     4
100
AcDbLine
 10
3620.39552039241
 20
2450.964193279037
 30
0.0
 11
3598.662189300905
 21
2456.787621793845
 31
0.0
  0
LINE
  5
156
330
20
100
AcDbEntity
  8
_0-0_
  6
Continuous
 62
     4
100
AcDbLine
 10
3420.39552039241
 20
2450.964193279037
 30
0.0
 11
3442.128851483913
 21
2456.787621793845
 31
0.0
  0
LINE
  5
157
330
20
100
AcDbEntity
  8
_0-0_
  6
Continuous
 62
     4
100
AcDbLine
 10
3420.39552039241
 20
2450.964193279037
 30
0.0
 11
3442.128851483913
 21
2445.14076476423
 31
0.0
  0
LINE
  5
158
330
20
100
AcDbEntity
  8
_0-0_
  6
Continuous
 62
     4
100
AcDbLine
 10
3420.39552039241
 20
2450.964193279037
 30
0.0
 11
3398.662189300905
 21
2445.14076476423
 31
0.0
  0
LINE
  5
159
330
20
100
AcDbEntity
  8
_0-0_
  6
Continuous
 62
     4
100
AcDbLine
 10
3420.39552039241
 20
2450.964193279037
 30
0.0
 11
3398.662189300905
 21
2456.787621793845
 31
0.0
  0
LINE
  5
15A
330
20
100
AcDbEntity
  8
_0-0_
  6
Continuous
 62
     4
100
AcDbLine
 10
3220.39552039241
 20
2450.964193279037
 30
0.0
 11
3242.128851483914
 21
2456.787621793845
 31
0.0
  0
LINE
  5
15B
330
20
100
AcDbEntity
  8
_0-0_
  6
Continuous
 62
     4
100
AcDbLine
 10
3220.39552039241
 20
2450.964193279037
 30
0.0
 11
3242.128851483914
 21
2445.14076476423
 31
0.0
  0
TEXT
  5
15C
330
20
100
AcDbEntity
  8
_0-0_
 62
     7
100
AcDbText
 10
3285.905197846017
 20
2458.138873862319
 30
0.0
 40
45.0
  1
200
100
AcDbText
  0
TEXT
  5
15D
330
20
100
AcDbEntity
  8
_0-0_
 62
     7
100
AcDbText
 10
3486.960316515066
 20
2456.901611593586
 30
0.0
 40
45.0
  1
200
100
AcDbText
  0
CIRCLE
  5
15E
330
20
100
AcDbEntity
  8
_0-0_
  6
Continuous
 62
   136
100
AcDbCircle
 10
3420.39552039241
 20
1810.964193279037
 30
0.0
 40
100.0
  0
CIRCLE
  5
15F
330
20
100
AcDbEntity
  8
_0-0_
  6
Continuous
 62
   136
100
AcDbCircle
 10
3420.39552039241
 20
1810.964193279037
 30
0.0
 40
90.0
  0
LINE
  5
160
330
20
100
AcDbEntity
  8
_0-0_
  6
Continuous
 62
     7
100
AcDbLine
 10
1164.797581780823
 20
1290.964193279036
 30
0.0
 11
1764.797581780823
 21
1290.964193279036
 31
0.0
  0
LINE
  5
161
330
20
100
AcDbEntity
  8
_0-0_
  6
Continuous
 62
     4
100
AcDbLine
 10
494.7975817808231
 20
2330.964193279037
 30
0.0
 11
494.7975817808231
 21
1150.964193279036
 31
0.0
  0
LINE
  5
162
330
20
100
AcDbEntity
  8
_0-0_
  6
Continuous
 62
     4
100
AcDbLine
 10
924.7975817808233
 20
1150.964193279036
 30
0.0
 11
484.7975817808228
 21
1150.964193279036
 31
0.0
  0
LINE
  5
163
330
20
100
AcDbEntity
  8
_0-0_
  6
Continuous
 62
     7
100
AcDbLine
 10
944.7975817808236
 20
1690.964193279037
 30
0.0
 11
1984.797581780823
 21
1690.964193279037
 31
0.0
  0
LINE
  5
164
330
20
100
AcDbEntity
  8
_0-0_
  6
DASHED1
 62
   136
100
AcDbLine
 10
1164.797581780823
 20
2330.964193279037
 30
0.0
 11
1164.797581780823
 21
2230.964193279036
 31
0.0
  0
LINE
  5
165
330
20
100
AcDbEntity
  8
_0-0_
  6
DASHED1
 62
   136
100
AcDbLine
 10
1764.797581780823
 20
2330.964193279037
 30
0.0
 11
1764.797581780823
 21
2230.964193279036
 31
0.0
  0
LINE
  5
166
330
20
100
AcDbEntity
  8
_0-0_
  6
Continuous
 62
     4
100
AcDbLine
 10
1009.797581780823
 20
2330.964193279037
 30
0.0
 11
484.7975817808228
 21
2330.964193279037
 31
0.0
  0
LINE
  5
167
330
20
100
AcDbEntity
  8
_0-0_
  6
Continuous
 62
     7
100
AcDbLine
 10
1034.322550589295
 20
2321.463569448476
 30
0.0
 11
1029.797581780823
 21
2230.964193279036
 31
0.0
  0
ARC
  5
168
330
20
100
AcDbEntity
  8
_0-0_
  6
Continuous
 62
     7
100
AcDbCircle
 10
1044.310073978074
 20
2320.964193279037
 30
0.0
 40
10.0
100
AcDbArc
 50
90.0
 51
177.1375947738882
  0
LINE
  5
169
330
20
100
AcDbEntity
  8
_0-0_
  6
Continuous
 62
     7
100
AcDbLine
 10
1885.285089583572
 20
2330.964193279037
 30
0.0
 11
1044.310073978074
 21
2330.964193279037
 31
0.0
  0
LINE
  5
16A
330
20
100
AcDbEntity
  8
_0-0_
  6
Continuous
 62
     7
100
AcDbLine
 10
1895.272612972351
 20
2321.463569448476
 30
0.0
 11
1899.797581780823
 21
2230.964193279036
 31
0.0
  0
ARC
  5
16B
330
20
100
AcDbEntity
  8
_0-0_
  6
Continuous
 62
     7
100
AcDbCircle
 10
1885.285089583572
 20
2320.964193279037
 30
0.0
 40
10.0
100
AcDbArc
 50
2.862405226111732
 51
90.00000000000003
  0
LINE
  5
16C
330
20
100
AcDbEntity
  8
_0-0_
  6
Continuous
 62
     4
100
AcDbLine
 10
1764.797581780823
 20
2460.964193279037
 30
0.0
 11
1764.797581780823
 21
2350.964193279037
 31
0.0
  0
LINE
  5
16D
330
20
100
AcDbEntity
  8
_0-0_
  6
Continuous
 62
     4
100
AcDbLine
 10
1164.797581780823
 20
2460.964193279037
 30
0.0
 11
1164.797581780823
 21
2350.964193279037
 31
0.0
  0
LINE
  5
16E
330
20
100
AcDbEntity
  8
_0-0_
  6
Continuous
 62
     4
100
AcDbLine
 10
1029.797581780823
 20
2450.964193279037
 30
0.0
 11
1164.797581780823
 21
2450.964193279037
 31
0.0
  0
LINE
  5
16F
330
20
100
AcDbEntity
  8
_0-0_
  6
Continuous
 62
     4
100
AcDbLine
 10
1764.797581780823
 20
2450.964193279037
 30
0.0
 11
1899.797581780823
 21
2450.964193279037
 31
0.0
  0
LINE
  5
170
330
20
100
AcDbEntity
  8
_0-0_
  6
Continuous
 62
     4
100
AcDbLine
 10
1764.797581780823
 20
2450.964193279037
 30
0.0
 11
1164.797581780823
 21
2450.964193279037
 31
0.0
  0
LINE
  5
171
330
20
100
AcDbEntity
  8
_0-0_
  6
Continuous
 62
     4
100
AcDbLine
 10
1764.797581780823
 20
2450.964193279037
 30
0.0
 11
1786.530912872327
 21
2456.787621793845
 31
0.0
  0
LINE
  5
172
330
20
100
AcDbEntity
  8
_0-0_
  6
Continuous
 62
     4
100
AcDbLine
 10
1764.797581780823
 20
2450.964193279037
 30
0.0
 11
1786.530912872327
 21
2445.14076476423
 31
0.0
  0
LINE
  5
173
330
20
100
AcDbEntity
  8
_0-0_
  6
Continuous
 62
     4
100
AcDbLine
 10
1899.797581780823
 20
2450.964193279037
 30
0.0
 11
1878.064250689319
 21
2445.14076476423
 31
0.0
  0
LINE
  5
174
330
20
100
AcDbEntity
  8
_0-0_
  6
Continuous
 62
     4
100
AcDbLine
 10
1899.797581780823
 20
2450.964193279037
 30
0.0
 11
1878.064250689319
 21
2456.787621793845
 31
0.0
  0
LINE
  5
175
330
20
100
AcDbEntity
  8
_0-0_
  6
Continuous
 62
     4
100
AcDbLine
 10
1764.797581780823
 20
2450.964193279037
 30
0.0
 11
1743.064250689319
 21
2445.14076476423
 31
0.0
  0
LINE
  5
176
330
20
100
AcDbEntity
  8
_0-0_
  6
Continuous
 62
     4
100
AcDbLine
 10
1764.797581780823
 20
2450.964193279037
 30
0.0
 11
1743.064250689319
 21
2456.787621793845
 31
0.0
  0
LINE
  5
177
330
20
100
AcDbEntity
  8
_0-0_
  6
Continuous
 62
     4
100
AcDbLine
 10
1164.797581780823
 20
2450.964193279037
 30
0.0
 11
1186.530912872327
 21
2456.787621793845
 31
0.0
  0
LINE
  5
178
330
20
100
AcDbEntity
  8
_0-0_
  6
Continuous
 62
     4
100
AcDbLine
 10
1164.797581780823
 20
2450.964193279037
 30
0.0
 11
1186.530912872327
 21
2445.14076476423
 31
0.0
  0
LINE
  5
179
330
20
100
AcDbEntity
  8
_0-0_
  6
Continuous
 62
     4
100
AcDbLine
 10
1164.797581780823
 20
2450.964193279037
 30
0.0
 11
1143.064250689319
 21
2445.14076476423
 31
0.0
  0
LINE
  5
17A
330
20
100
AcDbEntity
  8
_0-0_
  6
Continuous
 62
     4
100
AcDbLine
 10
1164.797581780823
 20
2450.964193279037
 30
0.0
 11
1143.064250689319
 21
2456.787621793845
 31
0.0
  0
LINE
  5
17B
330
20
100
AcDbEntity
  8
_0-0_
  6
Continuous
 62
     4
100
AcDbLine
 10
1029.797581780823
 20
2450.964193279037
 30
0.0
 11
1051.530912872327
 21
2456.787621793845
 31
0.0
  0
LINE
  5
17C
330
20
100
AcDbEntity
  8
_0-0_
  6
Continuous
 62
     4
100
AcDbLine
 10
1029.797581780823
 20
2450.964193279037
 30
0.0
 11
1051.530912872327
 21
2445.14076476423
 31
0.0
  0
LINE
  5
17D
330
20
100
AcDbEntity
  8
_0-0_
  6
DASHED1
 62
   136
100
AcDbLine
 10
1064.797581780823
 20
2140.964193279037
 30
0.0
 11
1064.797581780823
 21
1240.964193279036
 31
0.0
  0
LINE
  5
17E
330
20
100
AcDbEntity
  8
_0-0_
  6
DASHED1
 62
   136
100
AcDbLine
 10
1014.797581780823
 20
2090.964193279036
 30
0.0
 11
1914.797581780823
 21
2090.964193279036
 31
0.0
  0
LINE
  5
17F
330
20
100
AcDbEntity
  8
_0-0_
  6
DASHED1
 62
   136
100
AcDbLine
 10
1864.797581780823
 20
2140.964193279037
 30
0.0
 11
1864.797581780823
 21
1240.964193279036
 31
0.0
  0
LINE
  5
180
330
20
100
AcDbEntity
  8
_0-0_
  6
DASHED1
 62
   136
100
AcDbLine
 10
1014.797581780823
 20
1290.964193279036
 30
0.0
 11
1914.797581780823
 21
1290.964193279036
 31
0.0
  0
LINE
  5
181
330
20
100
AcDbEntity
  8
_0-0_
  6
DASHED1
 62
   136
100
AcDbLine
 10
1064.797581780823
 20
2140.964193279037
 30
0.0
 11
1014.797581780823
 21
2090.964193279036
 31
0.0
  0
LINE
  5
182
330
20
100
AcDbEntity
  8
_0-0_
  6
DASHED1
 62
   136
100
AcDbLine
 10
1064.797581780823
 20
2140.964193279037
 30
0.0
 11
1864.797581780823
 21
2140.964193279037
 31
0.0
  0
LINE
  5
183
330
20
100
AcDbEntity
  8
_0-0_
  6
DASHED1
 62
   136
100
AcDbLine
 10
1864.797581780823
 20
2140.964193279037
 30
0.0
 11
1914.797581780823
 21
2090.964193279036
 31
0.0
  0
LINE
  5
184
330
20
100
AcDbEntity
  8
_0-0_
  6
DASHED1
 62
   136
100
AcDbLine
 10
1914.797581780823
 20
2090.964193279036
 30
0.0
 11
1914.797581780823
 21
1290.964193279036
 31
0.0
  0
LINE
  5
185
330
20
100
AcDbEntity
  8
_0-0_
  6
DASHED1
 62
   136
100
AcDbLine
 10
1914.797581780823
 20
1290.964193279036
 30
0.0
 11
1864.797581780823
 21
1240.964193279036
 31
0.0
  0
LINE
  5
186
330
20
100
AcDbEntity
  8
_0-0_
  6
DASHED1
 62
   136
100
AcDbLine
 10
1014.797581780823
 20
1290.964193279036
 30
0.0
 11
1064.797581780823
 21
1240.964193279036
 31
0.0
  0
LINE
  5
187
330
20
100
AcDbEntity
  8
_0-0_
  6
DASHED1
 62
   136
100
AcDbLine
 10
1014.797581780823
 20
2090.964193279036
 30
0.0
 11
1014.797581780823
 21
1290.964193279036
 31
0.0
  0
LINE
  5
188
330
20
100
AcDbEntity
  8
_0-0_
  6
DASHED1
 62
   136
100
AcDbLine
 10
1364.797581780823
 20
1230.964193279036
 30
0.0
 11
1374.797581780823
 21
1200.964193279036
 31
0.0
  0
LINE
  5
189
330
20
100
AcDbEntity
  8
_0-0_
  6
DASHED1
 62
   136
100
AcDbLine
 10
1564.797581780823
 20
1230.964193279036
 30
0.0
 11
1554.797581780823
 21
1200.964193279036
 31
0.0
  0
LINE
  5
18A
330
20
100
AcDbEntity
  8
_0-0_
  6
DASHED1
 62
   136
100
AcDbLine
 10
1374.797581780823
 20
1200.964193279036
 30
0.0
 11
1554.797581780823
 21
1200.964193279036
 31
0.0
  0
LINE
  5
18B
330
20
100
AcDbEntity
  8
_0-0_
  6
DASHED1
 62
   136
100
AcDbLine
 10
1064.797581780823
 20
1240.964193279036
 30
0.0
 11
1364.797581780823
 21
1230.964193279036
 31
0.0
  0
LINE
  5
18C
330
20
100
AcDbEntity
  8
_0-0_
  6
DASHED1
 62
   136
100
AcDbLine
 10
1864.797581780823
 20
1240.964193279036
 30
0.0
 11
1564.797581780823
 21
1230.964193279036
 31
0.0
  0
LINE
  5
18D
330
20
100
AcDbEntity
  8
_0-0_
  6
DASHED1
 62
   136
100
AcDbLine
 10
979.7975817808234
 20
1590.964193279036
 30
0.0
 11
979.7975817808234
 21
1290.964193279036
 31
0.0
  0
LINE
  5
18E
330
20
100
AcDbEntity
  8
_0-0_
  6
DASHED1
 62
   136
100
AcDbLine
 10
979.7975817808234
 20
1590.964193279036
 30
0.0
 11
944.7975817808236
 21
1600.964193279036
 31
0.0
  0
LINE
  5
18F
330
20
100
AcDbEntity
  8
_0-0_
  6
DASHED1
 62
   136
100
AcDbLine
 10
979.7975817808234
 20
1290.964193279036
 30
0.0
 11
944.7975817808236
 21
1280.964193279036
 31
0.0
  0
LINE
  5
190
330
20
100
AcDbEntity
  8
_0-0_
  6
DASHED1
 62
   136
100
AcDbLine
 10
1949.797581780823
 20
1590.964193279036
 30
0.0
 11
1949.797581780823
 21
1290.964193279036
 31
0.0
  0
LINE
  5
191
330
20
100
AcDbEntity
  8
_0-0_
  6
DASHED1
 62
   136
100
AcDbLine
 10
1984.797581780823
 20
1600.964193279036
 30
0.0
 11
1949.797581780823
 21
1590.964193279036
 31
0.0
  0
LINE
  5
192
330
20
100
AcDbEntity
  8
_0-0_
  6
DASHED1
 62
   136
100
AcDbLine
 10
1984.797581780823
 20
1280.964193279036
 30
0.0
 11
1949.797581780823
 21
1290.964193279036
 31
0.0
  0
LINE
  5
193
330
20
100
AcDbEntity
  8
_0-0_
  6
DASHED1
 62
   136
100
AcDbLine
 10
1164.797581780823
 20
2230.964193279036
 30
0.0
 11
1164.797581780823
 21
2140.964193279037
 31
0.0
  0
LINE
  5
194
330
20
100
AcDbEntity
  8
_0-0_
  6
DASHED1
 62
   136
100
AcDbLine
 10
1764.797581780823
 20
2230.964193279036
 30
0.0
 11
1764.797581780823
 21
2140.964193279037
 31
0.0
  0
LINE
  5
195
330
20
100
AcDbEntity
  8
_0-0_
  6
Continuous
 62
     7
100
AcDbLine
 10
1164.797581780823
 20
1590.964193279036
 30
0.0
 11
1764.797581780823
 21
1590.964193279036
 31
0.0
  0
LINE
  5
196
330
20
100
AcDbEntity
  8
_0-0_
  6
Continuous
 62
     7
100
AcDbLine
 10
1764.797581780823
 20
1590.964193279036
 30
0.0
 11
1764.797581780823
 21
1290.964193279036
 31
0.0
  0
LINE
  5
197
330
20
100
AcDbEntity
  8
_0-0_
  6
Continuous
 62
     7
100
AcDbLine
 10
1164.797581780823
 20
1590.964193279036
 30
0.0
 11
1164.797581780823
 21
1290.964193279036
 31
0.0
  0
LINE
  5
198
330
20
100
AcDbEntity
  8
_0-0_
  6
Continuous
 62
     7
100
AcDbLine
 10
1154.797581780823
 20
1280.964193279036
 30
0.0
 11
1774.797581780823
 21
1280.964193279036
 31
0.0
  0
LINE
  5
199
330
20
100
AcDbEntity
  8
_0-0_
  6
Continuous
 62
     7
100
AcDbLine
 10
1774.797581780823
 20
1600.964193279036
 30
0.0
 11
1774.797581780823
 21
1280.964193279036
 31
0.0
  0
LINE
  5
19A
330
20
100
AcDbEntity
  8
_0-0_
  6
Continuous
 62
     7
100
AcDbLine
 10
1154.797581780823
 20
1600.964193279036
 30
0.0
 11
1774.797581780823
 21
1600.964193279036
 31
0.0
  0
LINE
  5
19B
330
20
100
AcDbEntity
  8
_0-0_
  6
Continuous
 62
     7
100
AcDbLine
 10
1154.797581780823
 20
1600.964193279036
 30
0.0
 11
1154.797581780823
 21
1280.964193279036
 31
0.0
  0
LINE
  5
19C
330
20
100
AcDbEntity
  8
_0-0_
  6
Continuous
 62
     7
100
AcDbLine
 10
1154.797581780823
 20
1600.964193279036
 30
0.0
 11
1164.797581780823
 21
1590.964193279036
 31
0.0
  0
LINE
  5
19D
330
20
100
AcDbEntity
  8
_0-0_
  6
Continuous
 62
     7
100
AcDbLine
 10
1774.797581780823
 20
1600.964193279036
 30
0.0
 11
1764.797581780823
 21
1590.964193279036
 31
0.0
  0
LINE
  5
19E
330
20
100
AcDbEntity
  8
_0-0_
  6
Continuous
 62
     7
100
AcDbLine
 10
1764.797581780823
 20
1290.964193279036
 30
0.0
 11
1774.797581780823
 21
1280.964193279036
 31
0.0
  0
LINE
  5
19F
330
20
100
AcDbEntity
  8
_0-0_
  6
Continuous
 62
     7
100
AcDbLine
 10
1164.797581780823
 20
1290.964193279036
 30
0.0
 11
1154.797581780823
 21
1280.964193279036
 31
0.0
  0
LINE
  5
1A0
330
20
100
AcDbEntity
  8
_0-0_
  6
Continuous
 62
     4
100
AcDbLine
 10
1264.797581780823
 20
1760.964193279036
 30
0.0
 11
1464.797581780823
 21
1760.964193279036
 31
0.0
  0
LINE
  5
1A1
330
20
100
AcDbEntity
  8
_0-0_
  6
Continuous
 62
     4
100
AcDbLine
 10
1664.797581780823
 20
1760.964193279036
 30
0.0
 11
1464.797581780823
 21
1760.964193279036
 31
0.0
  0
LINE
  5
1A2
330
20
100
AcDbEntity
  8
_0-0_
  6
Continuous
 62
     4
100
AcDbLine
 10
1264.797581780823
 20
1860.964193279037
 30
0.0
 11
1264.797581780823
 21
1750.964193279036
 31
0.0
  0
LINE
  5
1A3
330
20
100
AcDbEntity
  8
_0-0_
  6
Continuous
 62
     4
100
AcDbLine
 10
1464.797581780823
 20
1860.964193279037
 30
0.0
 11
1464.797581780823
 21
1750.964193279036
 31
0.0
  0
LINE
  5
1A4
330
20
100
AcDbEntity
  8
_0-0_
  6
Continuous
 62
     4
100
AcDbLine
 10
1664.797581780823
 20
1860.964193279037
 30
0.0
 11
1664.797581780823
 21
1750.964193279036
 31
0.0
  0
LINE
  5
1A5
330
20
100
AcDbEntity
  8
_0-0_
  6
Continuous
 62
     4
100
AcDbLine
 10
1264.797581780823
 20
1760.964193279036
 30
0.0
 11
1286.530912872327
 21
1766.787621793843
 31
0.0
  0
LINE
  5
1A6
330
20
100
AcDbEntity
  8
_0-0_
  6
Continuous
 62
     4
100
AcDbLine
 10
1264.797581780823
 20
1760.964193279036
 30
0.0
 11
1286.530912872327
 21
1755.14076476423
 31
0.0
  0
LINE
  5
1A7
330
20
100
AcDbEntity
  8
_0-0_
  6
Continuous
 62
     4
100
AcDbLine
 10
1464.797581780823
 20
1760.964193279036
 30
0.0
 11
1443.064250689319
 21
1755.14076476423
 31
0.0
  0
LINE
  5
1A8
330
20
100
AcDbEntity
  8
_0-0_
  6
Continuous
 62
     4
100
AcDbLine
 10
1464.797581780823
 20
1760.964193279036
 30
0.0
 11
1443.064250689319
 21
1766.787621793843
 31
0.0
  0
LINE
  5
1A9
330
20
100
AcDbEntity
  8
_0-0_
  6
Continuous
 62
     4
100
AcDbLine
 10
1464.797581780823
 20
1760.964193279036
 30
0.0
 11
1486.530912872327
 21
1766.787621793843
 31
0.0
  0
LINE
  5
1AA
330
20
100
AcDbEntity
  8
_0-0_
  6
Continuous
 62
     4
100
AcDbLine
 10
1464.797581780823
 20
1760.964193279036
 30
0.0
 11
1486.530912872327
 21
1755.14076476423
 31
0.0
  0
LINE
  5
1AB
330
20
100
AcDbEntity
  8
_0-0_
  6
Continuous
 62
     4
100
AcDbLine
 10
1664.797581780823
 20
1760.964193279036
 30
0.0
 11
1643.064250689319
 21
1755.14076476423
 31
0.0
  0
LINE
  5
1AC
330
20
100
AcDbEntity
  8
_0-0_
  6
Continuous
 62
     4
100
AcDbLine
 10
1664.797581780823
 20
1760.964193279036
 30
0.0
 11
1643.064250689319
 21
1766.787621793843
 31
0.0
  0
LINE
  5
1AD
330
20
100
AcDbEntity
  8
_0-0_
  6
Continuous
 62
     4
100
AcDbLine
 10
2004.797581780823
 20
1690.964193279037
 30
0.0
 11
2114.797581780823
 21
1690.964193279037
 31
0.0
  0
LINE
  5
1AE
330
20
100
AcDbEntity
  8
_0-0_
  6
Continuous
 62
     4
100
AcDbLine
 10
2004.797581780823
 20
1620.964193279036
 30
0.0
 11
2114.797581780823
 21
1620.964193279036
 31
0.0
  0
LINE
  5
1AF
330
20
100
AcDbEntity
  8
_0-0_
  6
Continuous
 62
     4
100
AcDbLine
 10
2004.797581780823
 20
1890.964193279037
 30
0.0
 11
2114.797581780823
 21
1890.964193279037
 31
0.0
  0
LINE
  5
1B0
330
20
100
AcDbEntity
  8
_0-0_
  6
Continuous
 62
     4
100
AcDbLine
 10
2104.797581780823
 20
1890.964193279037
 30
0.0
 11
2104.797581780823
 21
1690.964193279037
 31
0.0
  0
LINE
  5
1B1
330
20
100
AcDbEntity
  8
_0-0_
  6
Continuous
 62
     4
100
AcDbLine
 10
2104.797581780823
 20
1690.964193279037
 30
0.0
 11
2104.797581780823
 21
1620.964193279036
 31
0.0
  0
LINE
  5
1B2
330
20
100
AcDbEntity
  8
_0-0_
  6
Continuous
 62
     4
100
AcDbLine
 10
2104.797581780823
 20
1890.964193279037
 30
0.0
 11
2110.621010295631
 21
1869.230862187532
 31
0.0
  0
LINE
  5
1B3
330
20
100
AcDbEntity
  8
_0-0_
  6
Continuous
 62
     4
100
AcDbLine
 10
2104.797581780823
 20
1890.964193279037
 30
0.0
 11
2098.974153266016
 21
1869.230862187532
 31
0.0
  0
LINE
  5
1B4
330
20
100
AcDbEntity
  8
_0-0_
  6
Continuous
 62
     4
100
AcDbLine
 10
2104.797581780823
 20
1690.964193279037
 30
0.0
 11
2098.974153266016
 21
1712.69752437054
 31
0.0
  0
LINE
  5
1B5
330
20
100
AcDbEntity
  8
_0-0_
  6
Continuous
 62
     4
100
AcDbLine
 10
2104.797581780823
 20
1690.964193279037
 30
0.0
 11
2110.621010295631
 21
1712.69752437054
 31
0.0
  0
LINE
  5
1B6
330
20
100
AcDbEntity
  8
_0-0_
  6
Continuous
 62
     4
100
AcDbLine
 10
2104.797581780823
 20
1690.964193279037
 30
0.0
 11
2110.621010295631
 21
1669.230862187532
 31
0.0
  0
LINE
  5
1B7
330
20
100
AcDbEntity
  8
_0-0_
  6
Continuous
 62
     4
100
AcDbLine
 10
2104.797581780823
 20
1690.964193279037
 30
0.0
 11
2098.974153266016
 21
1669.230862187532
 31
0.0
  0
LINE
  5
1B8
330
20
100
AcDbEntity
  8
_0-0_
  6
Continuous
 62
     4
100
AcDbLine
 10
2104.797581780823
 20
1620.964193279036
 30
0.0
 11
2098.974153266016
 21
1642.697524370541
 31
0.0
  0
LINE
  5
1B9
330
20
100
AcDbEntity
  8
_0-0_
  6
Continuous
 62
     4
100
AcDbLine
 10
2104.797581780823
 20
1620.964193279036
 30
0.0
 11
2110.621010295631
 21
1642.697524370541
 31
0.0
  0
LINE
  5
1BA
330
20
100
AcDbEntity
  8
_0-0_
  6
Continuous
 62
     4
100
AcDbLine
 10
924.7975817808233
 20
2230.964193279036
 30
0.0
 11
594.7975817808229
 21
2230.964193279036
 31
0.0
  0
LINE
  5
1BB
330
20
100
AcDbEntity
  8
_0-0_
  6
Continuous
 62
     4
100
AcDbLine
 10
924.7975817808233
 20
2140.964193279037
 30
0.0
 11
594.7975817808229
 21
2140.964193279037
 31
0.0
  0
LINE
  5
1BC
330
20
100
AcDbEntity
  8
_0-0_
  6
Continuous
 62
     4
100
AcDbLine
 10
924.7975817808233
 20
1690.964193279037
 30
0.0
 11
704.7975817808231
 21
1690.964193279037
 31
0.0
  0
LINE
  5
1BD
330
20
100
AcDbEntity
  8
_0-0_
  6
Continuous
 62
     4
100
AcDbLine
 10
714.7975817808231
 20
2140.964193279037
 30
0.0
 11
714.7975817808231
 21
1690.964193279037
 31
0.0
  0
LINE
  5
1BE
330
20
100
AcDbEntity
  8
_0-0_
  6
Continuous
 62
     4
100
AcDbLine
 10
714.7975817808231
 20
1690.964193279037
 30
0.0
 11
714.7975817808231
 21
1240.964193279036
 31
0.0
  0
LINE
  5
1BF
330
20
100
AcDbEntity
  8
_0-0_
  6
Continuous
 62
     4
100
AcDbLine
 10
924.7975817808233
 20
1590.964193279036
 30
0.0
 11
814.797581780823
 21
1590.964193279036
 31
0.0
  0
LINE
  5
1C0
330
20
100
AcDbEntity
  8
_0-0_
  6
Continuous
 62
     4
100
AcDbLine
 10
924.7975817808233
 20
1290.964193279036
 30
0.0
 11
814.797581780823
 21
1290.964193279036
 31
0.0
  0
LINE
  5
1C1
330
20
100
AcDbEntity
  8
_0-0_
  6
Continuous
 62
     4
100
AcDbLine
 10
824.7975817808235
 20
1590.964193279036
 30
0.0
 11
824.7975817808235
 21
1290.964193279036
 31
0.0
  0
LINE
  5
1C2
330
20
100
AcDbEntity
  8
_0-0_
  6
Continuous
 62
     4
100
AcDbLine
 10
824.7975817808235
 20
1590.964193279036
 30
0.0
 11
824.7975817808235
 21
1690.964193279037
 31
0.0
  0
LINE
  5
1C3
330
20
100
AcDbEntity
  8
_0-0_
  6
Continuous
 62
     4
100
AcDbLine
 10
924.7975817808233
 20
1240.964193279036
 30
0.0
 11
594.7975817808229
 21
1240.964193279036
 31
0.0
  0
LINE
  5
1C4
330
20
100
AcDbEntity
  8
_0-0_
  6
Continuous
 62
     4
100
AcDbLine
 10
604.7975817808232
 20
2330.964193279037
 30
0.0
 11
604.7975817808232
 21
2230.964193279036
 31
0.0
  0
LINE
  5
1C5
330
20
100
AcDbEntity
  8
_0-0_
  6
Continuous
 62
     4
100
AcDbLine
 10
604.7975817808232
 20
2140.964193279037
 30
0.0
 11
604.7975817808232
 21
1240.964193279036
 31
0.0
  0
LINE
  5
1C6
330
20
100
AcDbEntity
  8
_0-0_
  6
Continuous
 62
     4
100
AcDbLine
 10
604.7975817808232
 20
2230.964193279036
 30
0.0
 11
604.7975817808232
 21
2140.964193279037
 31
0.0
  0
LINE
  5
1C7
330
20
100
AcDbEntity
  8
_0-0_
  6
Continuous
 62
     4
100
AcDbLine
 10
604.7975817808232
 20
1240.964193279036
 30
0.0
 11
604.7975817808232
 21
1150.964193279036
 31
0.0
  0
LINE
  5
1C8
330
20
100
AcDbEntity
  8
_0-0_
  6
Continuous
 62
     4
100
AcDbLine
 10
494.7975817808231
 20
2330.964193279037
 30
0.0
 11
500.6210102956297
 21
2309.230862187533
 31
0.0
  0
LINE
  5
1C9
330
20
100
AcDbEntity
  8
_0-0_
  6
Continuous
 62
     4
100
AcDbLine
 10
494.7975817808231
 20
2330.964193279037
 30
0.0
 11
488.9741532660162
 21
2309.230862187533
 31
0.0
  0
LINE
  5
1CA
330
20
100
AcDbEntity
  8
_0-0_
  6
Continuous
 62
     4
100
AcDbLine
 10
494.7975817808231
 20
1150.964193279036
 30
0.0
 11
488.9741532660162
 21
1172.69752437054
 31
0.0
  0
LINE
  5
1CB
330
20
100
AcDbEntity
  8
_0-0_
  6
Continuous
 62
     4
100
AcDbLine
 10
494.7975817808231
 20
1150.964193279036
 30
0.0
 11
500.6210102956297
 21
1172.69752437054
 31
0.0
  0
LINE
  5
1CC
330
20
100
AcDbEntity
  8
_0-0_
  6
Continuous
 62
     4
100
AcDbLine
 10
604.7975817808232
 20
2330.964193279037
 30
0.0
 11
610.6210102956301
 21
2309.230862187533
 31
0.0
  0
LINE
  5
1CD
330
20
100
AcDbEntity
  8
_0-0_
  6
Continuous
 62
     4
100
AcDbLine
 10
604.7975817808232
 20
2330.964193279037
 30
0.0
 11
598.9741532660164
 21
2309.230862187533
 31
0.0
  0
LINE
  5
1CE
330
20
100
AcDbEntity
  8
_0-0_
  6
Continuous
 62
     4
100
AcDbLine
 10
604.7975817808232
 20
2230.964193279036
 30
0.0
 11
598.9741532660164
 21
2252.697524370541
 31
0.0
  0
LINE
  5
1CF
330
20
100
AcDbEntity
  8
_0-0_
  6
Continuous
 62
     4
100
AcDbLine
 10
604.7975817808232
 20
2230.964193279036
 30
0.0
 11
610.6210102956301
 21
2252.697524370541
 31
0.0
  0
LINE
  5
1D0
330
20
100
AcDbEntity
  8
_0-0_
  6
Continuous
 62
     4
100
AcDbLine
 10
604.7975817808232
 20
2230.964193279036
 30
0.0
 11
610.6210102956301
 21
2209.230862187532
 31
0.0
  0
LINE
  5
1D1
330
20
100
AcDbEntity
  8
_0-0_
  6
Continuous
 62
     4
100
AcDbLine
 10
604.7975817808232
 20
2230.964193279036
 30
0.0
 11
598.9741532660164
 21
2209.230862187532
 31
0.0
  0
LINE
  5
1D2
330
20
100
AcDbEntity
  8
_0-0_
  6
Continuous
 62
     4
100
AcDbLine
 10
604.7975817808232
 20
2140.964193279037
 30
0.0
 11
598.9741532660164
 21
2162.697524370541
 31
0.0
  0
LINE
  5
1D3
330
20
100
AcDbEntity
  8
_0-0_
  6
Continuous
 62
     4
100
AcDbLine
 10
604.7975817808232
 20
2140.964193279037
 30
0.0
 11
610.6210102956301
 21
2162.697524370541
 31
0.0
  0
LINE
  5
1D4
330
20
100
AcDbEntity
  8
_0-0_
  6
Continuous
 62
     4
100
AcDbLine
 10
604.7975817808232
 20
2140.964193279037
 30
0.0
 11
610.6210102956301
 21
2119.230862187532
 31
0.0
  0
LINE
  5
1D5
330
20
100
AcDbEntity
  8
_0-0_
  6
Continuous
 62
     4
100
AcDbLine
 10
604.7975817808232
 20
2140.964193279037
 30
0.0
 11
598.9741532660164
 21
2119.230862187532
 31
0.0
  0
LINE
  5
1D6
330
20
100
AcDbEntity
  8
_0-0_
  6
Continuous
 62
     4
100
AcDbLine
 10
604.7975817808232
 20
1240.964193279036
 30
0.0
 11
598.9741532660164
 21
1262.69752437054
 31
0.0
  0
LINE
  5
1D7
330
20
100
AcDbEntity
  8
_0-0_
  6
Continuous
 62
     4
100
AcDbLine
 10
604.7975817808232
 20
1240.964193279036
 30
0.0
 11
610.6210102956301
 21
1262.69752437054
 31
0.0
  0
LINE
  5
1D8
330
20
100
AcDbEntity
  8
_0-0_
  6
Continuous
 62
     4
100
AcDbLine
 10
604.7975817808232
 20
1240.964193279036
 30
0.0
 11
610.6210102956301
 21
1219.230862187532
 31
0.0
  0
LINE
  5
1D9
330
20
100
AcDbEntity
  8
_0-0_
  6
Continuous
 62
     4
100
AcDbLine
 10
604.7975817808232
 20
1240.964193279036
 30
0.0
 11
598.9741532660164
 21
1219.230862187532
 31
0.0
  0
LINE
  5
1DA
330
20
100
AcDbEntity
  8
_0-0_
  6
Continuous
 62
     4
100
AcDbLine
 10
604.7975817808232
 20
1150.964193279036
 30
0.0
 11
598.9741532660164
 21
1172.69752437054
 31
0.0
  0
LINE
  5
1DB
330
20
100
AcDbEntity
  8
_0-0_
  6
Continuous
 62
     4
100
AcDbLine
 10
604.7975817808232
 20
1150.964193279036
 30
0.0
 11
610.6210102956301
 21
1172.69752437054
 31
0.0
  0
LINE
  5
1DC
330
20
100
AcDbEntity
  8
_0-0_
  6
Continuous
 62
     4
100
AcDbLine
 10
714.7975817808231
 20
1240.964193279036
 30
0.0
 11
708.9741532660167
 21
1262.69752437054
 31
0.0
  0
LINE
  5
1DD
330
20
100
AcDbEntity
  8
_0-0_
  6
Continuous
 62
     4
100
AcDbLine
 10
714.7975817808231
 20
1240.964193279036
 30
0.0
 11
720.6210102956301
 21
1262.69752437054
 31
0.0
  0
LINE
  5
1DE
330
20
100
AcDbEntity
  8
_0-0_
  6
Continuous
 62
     4
100
AcDbLine
 10
714.7975817808231
 20
1690.964193279037
 30
0.0
 11
720.6210102956301
 21
1669.230862187532
 31
0.0
  0
LINE
  5
1DF
330
20
100
AcDbEntity
  8
_0-0_
  6
Continuous
 62
     4
100
AcDbLine
 10
714.7975817808231
 20
1690.964193279037
 30
0.0
 11
708.9741532660167
 21
1669.230862187532
 31
0.0
  0
LINE
  5
1E0
330
20
100
AcDbEntity
  8
_0-0_
  6
Continuous
 62
     4
100
AcDbLine
 10
714.7975817808231
 20
1690.964193279037
 30
0.0
 11
708.9741532660167
 21
1712.69752437054
 31
0.0
  0
LINE
  5
1E1
330
20
100
AcDbEntity
  8
_0-0_
  6
Continuous
 62
     4
100
AcDbLine
 10
714.7975817808231
 20
1690.964193279037
 30
0.0
 11
720.6210102956301
 21
1712.69752437054
 31
0.0
  0
LINE
  5
1E2
330
20
100
AcDbEntity
  8
_0-0_
  6
Continuous
 62
     4
100
AcDbLine
 10
714.7975817808231
 20
2140.964193279037
 30
0.0
 11
720.6210102956301
 21
2119.230862187532
 31
0.0
  0
LINE
  5
1E3
330
20
100
AcDbEntity
  8
_0-0_
  6
Continuous
 62
     4
100
AcDbLine
 10
714.7975817808231
 20
2140.964193279037
 30
0.0
 11
708.9741532660167
 21
2119.230862187532
 31
0.0
  0
LINE
  5
1E4
330
20
100
AcDbEntity
  8
_0-0_
  6
Continuous
 62
     4
100
AcDbLine
 10
824.7975817808235
 20
1690.964193279037
 30
0.0
 11
830.6210102956301
 21
1669.230862187532
 31
0.0
  0
LINE
  5
1E5
330
20
100
AcDbEntity
  8
_0-0_
  6
Continuous
 62
     4
100
AcDbLine
 10
824.7975817808235
 20
1690.964193279037
 30
0.0
 11
818.9741532660168
 21
1669.230862187532
 31
0.0
  0
LINE
  5
1E6
330
20
100
AcDbEntity
  8
_0-0_
  6
Continuous
 62
     4
100
AcDbLine
 10
824.7975817808235
 20
1590.964193279036
 30
0.0
 11
818.9741532660168
 21
1612.697524370541
 31
0.0
  0
LINE
  5
1E7
330
20
100
AcDbEntity
  8
_0-0_
  6
Continuous
 62
     4
100
AcDbLine
 10
824.7975817808235
 20
1590.964193279036
 30
0.0
 11
830.6210102956301
 21
1612.697524370541
 31
0.0
  0
LINE
  5
1E8
330
20
100
AcDbEntity
  8
_0-0_
  6
Continuous
 62
     4
100
AcDbLine
 10
824.7975817808235
 20
1590.964193279036
 30
0.0
 11
830.6210102956301
 21
1569.230862187532
 31
0.0
  0
LINE
  5
1E9
330
20
100
AcDbEntity
  8
_0-0_
  6
Continuous
 62
     4
100
AcDbLine
 10
824.7975817808235
 20
1590.964193279036
 30
0.0
 11
818.9741532660168
 21
1569.230862187532
 31
0.0
  0
LINE
  5
1EA
330
20
100
AcDbEntity
  8
_0-0_
  6
Continuous
 62
     4
100
AcDbLine
 10
824.7975817808235
 20
1290.964193279036
 30
0.0
 11
818.9741532660168
 21
1312.69752437054
 31
0.0
  0
LINE
  5
1EB
330
20
100
AcDbEntity
  8
_0-0_
  6
Continuous
 62
     4
100
AcDbLine
 10
824.7975817808235
 20
1290.964193279036
 30
0.0
 11
830.6210102956301
 21
1312.69752437054
 31
0.0
  0
LINE
  5
1EC
330
20
100
AcDbEntity
  8
_0-0_
  6
Continuous
 62
     4
100
AcDbLine
 10
1364.797581780823
 20
1130.964193279036
 30
0.0
 11
1364.797581780823
 21
1020.964193279036
 31
0.0
  0
LINE
  5
1ED
330
20
100
AcDbEntity
  8
_0-0_
  6
Continuous
 62
     4
100
AcDbLine
 10
1374.797581780823
 20
1130.964193279036
 30
0.0
 11
1374.797581780823
 21
1020.964193279036
 31
0.0
  0
LINE
  5
1EE
330
20
100
AcDbEntity
  8
_0-0_
  6
Continuous
 62
     4
100
AcDbLine
 10
1554.797581780823
 20
1130.964193279036
 30
0.0
 11
1554.797581780823
 21
1020.964193279036
 31
0.0
  0
LINE
  5
1EF
330
20
100
AcDbEntity
  8
_0-0_
  6
Continuous
 62
     4
100
AcDbLine
 10
1564.797581780823
 20
1130.964193279036
 30
0.0
 11
1564.797581780823
 21
1020.964193279036
 31
0.0
  0
LINE
  5
1F0
330
20
100
AcDbEntity
  8
_0-0_
  6
Continuous
 62
     4
100
AcDbLine
 10
1374.797581780823
 20
1030.964193279036
 30
0.0
 11
1554.797581780823
 21
1030.964193279036
 31
0.0
  0
LINE
  5
1F1
330
20
100
AcDbEntity
  8
_0-0_
  6
Continuous
 62
     4
100
AcDbLine
 10
1324.797581780823
 20
1030.964193279036
 30
0.0
 11
1364.797581780823
 21
1030.964193279036
 31
0.0
  0
LINE
  5
1F2
330
20
100
AcDbEntity
  8
_0-0_
  6
Continuous
 62
     4
100
AcDbLine
 10
1564.797581780823
 20
1030.964193279036
 30
0.0
 11
1604.797581780823
 21
1030.964193279036
 31
0.0
  0
LINE
  5
1F3
330
20
100
AcDbEntity
  8
_0-0_
  6
Continuous
 62
     4
100
AcDbLine
 10
1374.797581780823
 20
1030.964193279036
 30
0.0
 11
1364.797581780823
 21
1030.964193279036
 31
0.0
  0
LINE
  5
1F4
330
20
100
AcDbEntity
  8
_0-0_
  6
Continuous
 62
     4
100
AcDbLine
 10
1564.797581780823
 20
1030.964193279036
 30
0.0
 11
1554.797581780823
 21
1030.964193279036
 31
0.0
  0
LINE
  5
1F5
330
20
100
AcDbEntity
  8
_0-0_
  6
Continuous
 62
     4
100
AcDbLine
 10
1564.797581780823
 20
1030.964193279036
 30
0.0
 11
1586.530912872327
 21
1036.787621793843
 31
0.0
  0
LINE
  5
1F6
330
20
100
AcDbEntity
  8
_0-0_
  6
Continuous
 62
     4
100
AcDbLine
 10
1564.797581780823
 20
1030.964193279036
 30
0.0
 11
1586.530912872327
 21
1025.14076476423
 31
0.0
  0
LINE
  5
1F7
330
20
100
AcDbEntity
  8
_0-0_
  6
Continuous
 62
     4
100
AcDbLine
 10
1554.797581780823
 20
1030.964193279036
 30
0.0
 11
1533.064250689319
 21
1025.14076476423
 31
0.0
  0
LINE
  5
1F8
330
20
100
AcDbEntity
  8
_0-0_
  6
Continuous
 62
     4
100
AcDbLine
 10
1554.797581780823
 20
1030.964193279036
 30
0.0
 11
1533.064250689319
 21
1036.787621793843
 31
0.0
  0
LINE
  5
1F9
330
20
100
AcDbEntity
  8
_0-0_
  6
Continuous
 62
     4
100
AcDbLine
 10
1374.797581780823
 20
1030.964193279036
 30
0.0
 11
1396.530912872327
 21
1036.787621793843
 31
0.0
  0
LINE
  5
1FA
330
20
100
AcDbEntity
  8
_0-0_
  6
Continuous
 62
     4
100
AcDbLine
 10
1374.797581780823
 20
1030.964193279036
 30
0.0
 11
1396.530912872327
 21
1025.14076476423
 31
0.0
  0
LINE
  5
1FB
330
20
100
AcDbEntity
  8
_0-0_
  6
Continuous
 62
     4
100
AcDbLine
 10
1364.797581780823
 20
1030.964193279036
 30
0.0
 11
1343.064250689319
 21
1025.14076476423
 31
0.0
  0
LINE
  5
1FC
330
20
100
AcDbEntity
  8
_0-0_
  6
Continuous
 62
     4
100
AcDbLine
 10
1364.797581780823
 20
1030.964193279036
 30
0.0
 11
1343.064250689319
 21
1036.787621793843
 31
0.0
  0
LINE
  5
1FD
330
20
100
AcDbEntity
  8
_0-0_
  6
Continuous
 62
     4
100
AcDbLine
 10
1271.868649592688
 20
1898.035261090902
 30
0.0
 11
1364.797581780823
 21
1990.964193279037
 31
0.0
  0
LINE
  5
1FE
330
20
100
AcDbEntity
  8
_0-0_
  6
Continuous
 62
     4
100
AcDbLine
 10
1271.868649592688
 20
1898.035261090902
 30
0.0
 11
1283.118649592688
 21
1917.520832676052
 31
0.0
  0
LINE
  5
1FF
330
20
100
AcDbEntity
  8
_0-0_
  6
Continuous
 62
     4
100
AcDbLine
 10
1271.868649592688
 20
1898.035261090902
 30
0.0
 11
1291.354221177839
 21
1909.285261090902
 31
0.0
  0
LINE
  5
200
330
20
100
AcDbEntity
  8
_0-0_
  6
Continuous
 62
     4
100
AcDbLine
 10
1364.797581780823
 20
1990.964193279037
 30
0.0
 11
1826.975396383433
 21
1990.964193279037
 31
0.0
  0
LINE
  5
201
330
20
100
AcDbEntity
  8
_0-0_
  6
Continuous
 62
     4
100
AcDbLine
 10
1164.797581780823
 20
1130.964193279036
 30
0.0
 11
1164.797581780823
 21
910.9641932790365
 31
0.0
  0
LINE
  5
202
330
20
100
AcDbEntity
  8
_0-0_
  6
Continuous
 62
     4
100
AcDbLine
 10
1164.797581780823
 20
920.9641932790365
 30
0.0
 11
1764.797581780823
 21
920.9641932790365
 31
0.0
  0
LINE
  5
203
330
20
100
AcDbEntity
  8
_0-0_
  6
Continuous
 62
     4
100
AcDbLine
 10
1764.797581780823
 20
1130.964193279036
 30
0.0
 11
1764.797581780823
 21
910.9641932790365
 31
0.0
  0
LINE
  5
204
330
20
100
AcDbEntity
  8
_0-0_
  6
Continuous
 62
     4
100
AcDbLine
 10
1764.797581780823
 20
920.9641932790365
 30
0.0
 11
1743.064250689319
 21
915.1407647642301
 31
0.0
  0
LINE
  5
205
330
20
100
AcDbEntity
  8
_0-0_
  6
Continuous
 62
     4
100
AcDbLine
 10
1764.797581780823
 20
920.9641932790365
 30
0.0
 11
1743.064250689319
 21
926.7876217938434
 31
0.0
  0
LINE
  5
206
330
20
100
AcDbEntity
  8
_0-0_
  6
Continuous
 62
     4
100
AcDbLine
 10
1164.797581780823
 20
920.9641932790365
 30
0.0
 11
1186.530912872327
 21
926.7876217938434
 31
0.0
  0
LINE
  5
207
330
20
100
AcDbEntity
  8
_0-0_
  6
Continuous
 62
     4
100
AcDbLine
 10
1164.797581780823
 20
920.9641932790365
 30
0.0
 11
1186.530912872327
 21
915.1407647642301
 31
0.0
  0
LINE
  5
208
330
20
100
AcDbEntity
  8
_0-0_
  6
Continuous
 62
     4
100
AcDbLine
 10
1014.797581780823
 20
1130.964193279036
 30
0.0
 11
1014.797581780823
 21
800.9641932790366
 31
0.0
  0
LINE
  5
209
330
20
100
AcDbEntity
  8
_0-0_
  6
Continuous
 62
     4
100
AcDbLine
 10
1914.797581780823
 20
1130.964193279036
 30
0.0
 11
1914.797581780823
 21
800.9641932790366
 31
0.0
  0
LINE
  5
20A
330
20
100
AcDbEntity
  8
_0-0_
  6
Continuous
 62
     4
100
AcDbLine
 10
944.7975817808236
 20
810.9641932790365
 30
0.0
 11
1014.797581780823
 21
810.9641932790365
 31
0.0
  0
LINE
  5
20B
330
20
100
AcDbEntity
  8
_0-0_
  6
Continuous
 62
     4
100
AcDbLine
 10
1914.797581780823
 20
810.9641932790365
 30
0.0
 11
1984.797581780823
 21
810.9641932790365
 31
0.0
  0
LINE
  5
20C
330
20
100
AcDbEntity
  8
_0-0_
  6
Continuous
 62
     4
100
AcDbLine
 10
1914.797581780823
 20
810.9641932790365
 30
0.0
 11
1014.797581780823
 21
810.9641932790365
 31
0.0
  0
LINE
  5
20D
330
20
100
AcDbEntity
  8
_0-0_
  6
Continuous
 62
     4
100
AcDbLine
 10
1914.797581780823
 20
810.9641932790365
 30
0.0
 11
1936.530912872327
 21
816.7876217938434
 31
0.0
  0
LINE
  5
20E
330
20
100
AcDbEntity
  8
_0-0_
  6
Continuous
 62
     4
100
AcDbLine
 10
1914.797581780823
 20
810.9641932790365
 30
0.0
 11
1936.530912872327
 21
805.1407647642298
 31
0.0
  0
LINE
  5
20F
330
20
100
AcDbEntity
  8
_0-0_
  6
Continuous
 62
     4
100
AcDbLine
 10
1984.797581780823
 20
810.9641932790365
 30
0.0
 11
1963.064250689319
 21
805.1407647642298
 31
0.0
  0
LINE
  5
210
330
20
100
AcDbEntity
  8
_0-0_
  6
Continuous
 62
     4
100
AcDbLine
 10
1984.797581780823
 20
810.9641932790365
 30
0.0
 11
1963.064250689319
 21
816.7876217938434
 31
0.0
  0
LINE
  5
211
330
20
100
AcDbEntity
  8
_0-0_
  6
Continuous
 62
     4
100
AcDbLine
 10
1914.797581780823
 20
810.9641932790365
 30
0.0
 11
1893.064250689319
 21
805.1407647642298
 31
0.0
  0
LINE
  5
212
330
20
100
AcDbEntity
  8
_0-0_
  6
Continuous
 62
     4
100
AcDbLine
 10
1914.797581780823
 20
810.9641932790365
 30
0.0
 11
1893.064250689319
 21
816.7876217938434
 31
0.0
  0
LINE
  5
213
330
20
100
AcDbEntity
  8
_0-0_
  6
Continuous
 62
     4
100
AcDbLine
 10
1014.797581780823
 20
810.9641932790365
 30
0.0
 11
1036.530912872327
 21
816.7876217938434
 31
0.0
  0
LINE
  5
214
330
20
100
AcDbEntity
  8
_0-0_
  6
Continuous
 62
     4
100
AcDbLine
 10
1014.797581780823
 20
810.9641932790365
 30
0.0
 11
1036.530912872327
 21
805.1407647642298
 31
0.0
  0
LINE
  5
215
330
20
100
AcDbEntity
  8
_0-0_
  6
Continuous
 62
     4
100
AcDbLine
 10
1014.797581780823
 20
810.9641932790365
 30
0.0
 11
993.0642506893196
 21
805.1407647642298
 31
0.0
  0
LINE
  5
216
330
20
100
AcDbEntity
  8
_0-0_
  6
Continuous
 62
     4
100
AcDbLine
 10
1014.797581780823
 20
810.9641932790365
 30
0.0
 11
993.0642506893196
 21
816.7876217938434
 31
0.0
  0
LINE
  5
217
330
20
100
AcDbEntity
  8
_0-0_
  6
Continuous
 62
     4
100
AcDbLine
 10
944.7975817808236
 20
810.9641932790365
 30
0.0
 11
966.5309128723272
 21
816.7876217938434
 31
0.0
  0
LINE
  5
218
330
20
100
AcDbEntity
  8
_0-0_
  6
Continuous
 62
     4
100
AcDbLine
 10
944.7975817808236
 20
810.9641932790365
 30
0.0
 11
966.5309128723272
 21
805.1407647642298
 31
0.0
  0
LINE
  5
219
330
20
100
AcDbEntity
  8
_0-0_
  6
Continuous
 62
     7
100
AcDbLine
 10
944.7975817808236
 20
1160.964193279036
 30
0.0
 11
954.7975817808236
 21
1150.964193279036
 31
0.0
  0
LINE
  5
21A
330
20
100
AcDbEntity
  8
_0-0_
  6
Continuous
 62
     7
100
AcDbLine
 10
944.7975817808236
 20
2220.964193279037
 30
0.0
 11
944.7975817808236
 21
1160.964193279036
 31
0.0
  0
LINE
  5
21B
330
20
100
AcDbEntity
  8
_0-0_
  6
Continuous
 62
     7
100
AcDbLine
 10
954.7975817808234
 20
2230.964193279036
 30
0.0
 11
944.7975817808236
 21
2220.964193279037
 31
0.0
  0
LINE
  5
21C
330
20
100
AcDbEntity
  8
_0-0_
  6
Continuous
 62
     7
100
AcDbLine
 10
954.7975817808234
 20
2230.964193279036
 30
0.0
 11
1974.797581780823
 21
2230.964193279036
 31
0.0
  0
LINE
  5
21D
330
20
100
AcDbEntity
  8
_0-0_
  6
Continuous
 62
     7
100
AcDbLine
 10
1974.797581780823
 20
2230.964193279036
 30
0.0
 11
1984.797581780823
 21
2220.964193279037
 31
0.0
  0
LINE
  5
21E
330
20
100
AcDbEntity
  8
_0-0_
  6
Continuous
 62
     7
100
AcDbLine
 10
1984.797581780823
 20
2220.964193279037
 30
0.0
 11
1984.797581780823
 21
1160.964193279036
 31
0.0
  0
LINE
  5
21F
330
20
100
AcDbEntity
  8
_0-0_
  6
Continuous
 62
     7
100
AcDbLine
 10
1984.797581780823
 20
1160.964193279036
 30
0.0
 11
1974.797581780823
 21
1150.964193279036
 31
0.0
  0
LINE
  5
220
330
20
100
AcDbEntity
  8
_0-0_
  6
Continuous
 62
     7
100
AcDbLine
 10
954.7975817808236
 20
1150.964193279036
 30
0.0
 11
1974.797581780823
 21
1150.964193279036
 31
0.0
  0
LINE
  5
221
330
20
100
AcDbEntity
  8
_0-0_
  6
Continuous
 62
     3
100
AcDbLine
 10
2264.797581780824
 20
1985.964193279037
 30
0.0
 11
2084.797581780823
 21
1985.964193279037
 31
0.0
  0
LINE
  5
222
330
20
100
AcDbEntity
  8
_0-0_
  6
Continuous
 62
     3
100
AcDbLine
 10
2264.797581780824
 20
1985.964193279037
 30
0.0
 11
2264.797581780824
 21
1935.964193279037
 31
0.0
  0
LINE
  5
223
330
20
100
AcDbEntity
  8
_0-0_
  6
Continuous
 62
     3
100
AcDbLine
 10
2264.797581780824
 20
1935.964193279037
 30
0.0
 11
2084.797581780823
 21
1935.964193279037
 31
0.0
  0
LINE
  5
224
330
20
100
AcDbEntity
  8
_0-0_
  6
Continuous
 62
     3
100
AcDbLine
 10
2264.797581780824
 20
1445.964193279037
 30
0.0
 11
2264.797581780824
 21
1395.964193279036
 31
0.0
  0
LINE
  5
225
330
20
100
AcDbEntity
  8
_0-0_
  6
Continuous
 62
     3
100
AcDbLine
 10
2084.797581780823
 20
1445.964193279037
 30
0.0
 11
2264.797581780824
 21
1445.964193279037
 31
0.0
  0
LINE
  5
226
330
20
100
AcDbEntity
  8
_0-0_
  6
Continuous
 62
     3
100
AcDbLine
 10
2084.797581780823
 20
1395.964193279036
 30
0.0
 11
2264.797581780824
 21
1395.964193279036
 31
0.0
  0
LINE
  5
227
330
20
100
AcDbEntity
  8
_0-0_
  6
Continuous
 62
     3
100
AcDbLine
 10
1997.297581780823
 20
2305.964193279036
 30
0.0
 11
1947.297581780823
 21
2280.964193279037
 31
0.0
  0
LINE
  5
228
330
20
100
AcDbEntity
  8
_0-0_
  6
Continuous
 62
     3
100
AcDbLine
 10
1947.297581780823
 20
2280.964193279037
 30
0.0
 11
1997.297581780823
 21
2255.964193279036
 31
0.0
  0
LINE
  5
229
330
20
100
AcDbEntity
  8
_0-0_
  6
Continuous
 62
     3
100
AcDbLine
 10
2084.797581780823
 20
1985.964193279037
 30
0.0
 11
2034.797581780823
 21
1960.964193279037
 31
0.0
  0
LINE
  5
22A
330
20
100
AcDbEntity
  8
_0-0_
  6
Continuous
 62
     3
100
AcDbLine
 10
2034.797581780823
 20
1960.964193279037
 30
0.0
 11
2084.797581780823
 21
1935.964193279037
 31
0.0
  0
LINE
  5
22B
330
20
100
AcDbEntity
  8
_0-0_
  6
Continuous
 62
     3
100
AcDbLine
 10
2084.797581780823
 20
1445.964193279037
 30
0.0
 11
2034.797581780823
 21
1420.964193279037
 31
0.0
  0
LINE
  5
22C
330
20
100
AcDbEntity
  8
_0-0_
  6
Continuous
 62
     3
100
AcDbLine
 10
2034.797581780823
 20
1420.964193279037
 30
0.0
 11
2084.797581780823
 21
1395.964193279036
 31
0.0
  0
LINE
  5
22D
330
20
100
AcDbEntity
  8
_0-0_
  6
Continuous
 62
     3
100
AcDbLine
 10
1997.297581780823
 20
2305.964193279036
 30
0.0
 11
2167.297581780823
 21
2305.964193279036
 31
0.0
  0
LINE
  5
22E
330
20
100
AcDbEntity
  8
_0-0_
  6
Continuous
 62
     3
100
AcDbLine
 10
1997.297581780823
 20
2255.964193279036
 30
0.0
 11
2167.297581780823
 21
2255.964193279036
 31
0.0
  0
LINE
  5
22F
330
20
100
AcDbEntity
  8
_0-0_
  6
Continuous
 62
     3
100
AcDbLine
 10
2167.297581780823
 20
2255.964193279036
 30
0.0
 11
2167.297581780823
 21
2305.964193279036
 31
0.0
  0
TEXT
  5
230
330
20
100
AcDbEntity
  8
_0-0_
 62
     7
100
AcDbText
 10
1782.688377874662
 20
2461.482882647086
 30
0.0
 40
45.0
  1
135
100
AcDbText
  0
TEXT
  5
231
330
20
100
AcDbEntity
  8
_0-0_
 62
     7
100
AcDbText
 10
1051.360905622956
 20
2461.482882647086
 30
0.0
 40
45.0
  1
135
100
AcDbText
  0
TEXT
  5
232
330
20
100
AcDbEntity
  8
_0-0_
 62
     7
100
AcDbText
 10
1998.848276087588
 20
2257.24084493866
 30
0.0
 40
45.0
  1
CR-600
 41
0.6800000000000001
100
AcDbText
  0
TEXT
  5
233
330
20
100
AcDbEntity
  8
_0-0_
 62
     7
100
AcDbText
 10
2092.932163871582
 20
1937.573353407285
 30
0.0
 40
45.0
  1
B2-450
 41
0.6800000000000001
100
AcDbText
  0
TEXT
  5
234
330
20
100
AcDbEntity
  8
_0-0_
 62
     7
100
AcDbText
 10
2093.466293601636
 20
1760.899891489303
 30
0.0
 40
45.0
  1
200
 50
90.0
100
AcDbText
  0
TEXT
  5
235
330
20
100
AcDbEntity
  8
_0-0_
 62
     7
100
AcDbText
 10
2094.739469038352
 20
1621.733310629576
 30
0.0
 40
45.0
  1
70
 50
90.0
100
AcDbText
  0
TEXT
  5
236
330
20
100
AcDbEntity
  8
_0-0_
 62
     7
100
AcDbText
 10
2094.532525593843
 20
1397.442590569274
 30
0.0
 40
45.0
  1
B1-450
 41
0.6800000000000001
100
AcDbText
  0
TEXT
  5
237
330
20
100
AcDbEntity
  8
_0-0_
 62
     7
100
AcDbText
 10
1397.030528965941
 20
2003.289099308045
 30
0.0
 40
45.0
  1
インサート　M12
100
AcDbText
  0
TEXT
  5
238
330
20
100
AcDbEntity
  8
_0-0_
 62
     7
100
AcDbText
 10
1333.938763904036
 20
1771.038082616249
 30
0.0
 40
45.0
  1
200
100
AcDbText
  0
TEXT
  5
239
330
20
100
AcDbEntity
  8
_0-0_
 62
     7
100
AcDbText
 10
1532.71208719289
 20
1771.045508250637
 30
0.0
 40
45.0
  1
200
100
AcDbText
  0
TEXT
  5
23A
330
20
100
AcDbEntity
  8
_0-0_
 62
     7
100
AcDbText
 10
1570.59622288846
 20
1040.24416156979
 30
0.0
 40
45.0
  1
10
100
AcDbText
  0
TEXT
  5
23B
330
20
100
AcDbEntity
  8
_0-0_
 62
     7
100
AcDbText
 10
1303.57151419896
 20
1040.24416156979
 30
0.0
 40
45.0
  1
10
100
AcDbText
  0
TEXT
  5
23C
330
20
100
AcDbEntity
  8
_0-0_
 62
     7
100
AcDbText
 10
1430.659118593598
 20
932.8584168349257
 30
0.0
 40
45.0
  1
600
100
AcDbText
  0
TEXT
  5
23D
330
20
100
AcDbEntity
  8
_0-0_
 62
     7
100
AcDbText
 10
1430.659118593598
 20
821.2168457278632
 30
0.0
 40
45.0
  1
900
100
AcDbText
  0
TEXT
  5
23E
330
20
100
AcDbEntity
  8
_0-0_
 62
     7
100
AcDbText
 10
1928.47071434968
 20
823.0470354181427
 30
0.0
 40
45.0
  1
70
100
AcDbText
  0
TEXT
  5
23F
330
20
100
AcDbEntity
  8
_0-0_
 62
     7
100
AcDbText
 10
958.4701785014321
 20
824.8772251084226
 30
0.0
 40
45.0
  1
70
100
AcDbText
  0
TEXT
  5
240
330
20
100
AcDbEntity
  8
_0-0_
 62
     7
100
AcDbText
 10
590.2439701636333
 20
2247.8497093009
 30
0.0
 40
45.0
  1
100
 50
90.0
100
AcDbText
  0
TEXT
  5
241
330
20
100
AcDbEntity
  8
_0-0_
 62
     7
100
AcDbText
 10
592.4720271778869
 20
2151.575942159876
 30
0.0
 40
45.0
  1
90
 50
90.0
100
AcDbText
  0
TEXT
  5
242
330
20
100
AcDbEntity
  8
_0-0_
 62
     7
100
AcDbText
 10
699.4187638620577
 20
1882.448358963315
 30
0.0
 40
45.0
  1
450
 50
90.0
100
AcDbText
  0
TEXT
  5
243
330
20
100
AcDbEntity
  8
_0-0_
 62
     7
100
AcDbText
 10
481.0691764652088
 20
1701.975740808776
 30
0.0
 40
45.0
  1
1180
 50
90.0
100
AcDbText
  0
TEXT
  5
244
330
20
100
AcDbEntity
  8
_0-0_
 62
     7
100
AcDbText
 10
808.5935575604823
 20
1592.656055832372
 30
0.0
 40
45.0
  1
100
 50
90.0
100
AcDbText
  0
TEXT
  5
245
330
20
100
AcDbEntity
  8
_0-0_
 62
     7
100
AcDbText
 10
699.4187638620577
 20
1434.608899098348
 30
0.0
 40
45.0
  1
450
 50
90.0
100
AcDbText
  0
TEXT
  5
246
330
20
100
AcDbEntity
  8
_0-0_
 62
     7
100
AcDbText
 10
815.2777286032433
 20
1407.872214927305
 30
0.0
 40
45.0
  1
300
 50
90.0
100
AcDbText
  0
TEXT
  5
247
330
20
100
AcDbEntity
  8
_0-0_
 62
     7
100
AcDbText
 10
590.2439701636333
 20
1171.698171416428
 30
0.0
 40
45.0
  1
90
 50
90.0
100
AcDbText
  0
TEXT
  5
248
330
20
100
AcDbEntity
  8
_0-0_
 62
     7
100
AcDbText
 10
593.4507807948626
 20
1658.783264118175
 30
0.0
 40
45.0
  1
900
 50
90.0
100
AcDbText
  0
TEXT
  5
249
330
20
100
AcDbEntity
  8
_0-0_
 62
     7
100
AcDbText
 10
1383.636129226504
 20
1042.838662889382
 30
0.0
 40
45.0
  1
φ200
100
AcDbText
  0
LINE
  5
24A
330
20
100
AcDbEntity
  8
_0-0_
  6
Continuous
 62
     4
100
AcDbLine
 10
1029.797581780823
 20
2560.964193279037
 30
0.0
 11
1899.797581780823
 21
2560.964193279037
 31
0.0
  0
LINE
  5
24B
330
20
100
AcDbEntity
  8
_0-0_
  6
Continuous
 62
     4
100
AcDbLine
 10
1029.797581780823
 20
2570.964193279037
 30
0.0
 11
1029.797581780823
 21
2350.964193279037
 31
0.0
  0
LINE
  5
24C
330
20
100
AcDbEntity
  8
_0-0_
  6
Continuous
 62
     4
100
AcDbLine
 10
1899.797581780823
 20
2570.964193279037
 30
0.0
 11
1899.797581780823
 21
2350.964193279037
 31
0.0
  0
LINE
  5
24D
330
20
100
AcDbEntity
  8
_0-0_
  6
Continuous
 62
     4
100
AcDbLine
 10
1899.797581780823
 20
2560.964193279037
 30
0.0
 11
1878.064250689319
 21
2555.14076476423
 31
0.0
  0
LINE
  5
24E
330
20
100
AcDbEntity
  8
_0-0_
  6
Continuous
 62
     4
100
AcDbLine
 10
1899.797581780823
 20
2560.964193279037
 30
0.0
 11
1878.064250689319
 21
2566.787621793844
 31
0.0
  0
LINE
  5
24F
330
20
100
AcDbEntity
  8
_0-0_
  6
Continuous
 62
     4
100
AcDbLine
 10
1029.797581780823
 20
2560.964193279037
 30
0.0
 11
1051.530912872327
 21
2566.787621793844
 31
0.0
  0
LINE
  5
250
330
20
100
AcDbEntity
  8
_0-0_
  6
Continuous
 62
     4
100
AcDbLine
 10
1029.797581780823
 20
2560.964193279037
 30
0.0
 11
1051.530912872327
 21
2555.14076476423
 31
0.0
  0
LINE
  5
251
330
20
100
AcDbEntity
  8
_0-0_
  6
Continuous
 62
     4
100
AcDbLine
 10
1984.797581780823
 20
700.9641932790365
 30
0.0
 11
944.7975817808236
 21
700.9641932790365
 31
0.0
  0
LINE
  5
252
330
20
100
AcDbEntity
  8
_0-0_
  6
Continuous
 62
     4
100
AcDbLine
 10
944.7975817808236
 20
1130.964193279036
 30
0.0
 11
944.7975817808236
 21
690.9641932790365
 31
0.0
  0
LINE
  5
253
330
20
100
AcDbEntity
  8
_0-0_
  6
Continuous
 62
     4
100
AcDbLine
 10
1984.797581780823
 20
1130.964193279036
 30
0.0
 11
1984.797581780823
 21
690.9641932790365
 31
0.0
  0
LINE
  5
254
330
20
100
AcDbEntity
  8
_0-0_
  6
Continuous
 62
     4
100
AcDbLine
 10
1984.797581780823
 20
700.9641932790365
 30
0.0
 11
1963.064250689319
 21
695.1407647642298
 31
0.0
  0
LINE
  5
255
330
20
100
AcDbEntity
  8
_0-0_
  6
Continuous
 62
     4
100
AcDbLine
 10
1984.797581780823
 20
700.9641932790365
 30
0.0
 11
1963.064250689319
 21
706.7876217938431
 31
0.0
  0
LINE
  5
256
330
20
100
AcDbEntity
  8
_0-0_
  6
Continuous
 62
     4
100
AcDbLine
 10
944.7975817808236
 20
700.9641932790365
 30
0.0
 11
966.5309128723272
 21
706.7876217938431
 31
0.0
  0
LINE
  5
257
330
20
100
AcDbEntity
  8
_0-0_
  6
Continuous
 62
     4
100
AcDbLine
 10
944.7975817808236
 20
700.9641932790365
 30
0.0
 11
966.5309128723272
 21
695.1407647642298
 31
0.0
  0
TEXT
  5
258
330
20
100
AcDbEntity
  8
_0-0_
 62
     7
100
AcDbText
 10
1420.150791678508
 20
709.9772214599627
 30
0.0
 40
45.0
  1
1040
100
AcDbText
  0
LINE
  5
259
330
20
100
AcDbEntity
  8
_0-0_
  6
DASHED1
 62
     6
100
AcDbLine
 10
984.7975817808233
 20
1900.964193279037
 30
0.0
 11
1014.797581780823
 21
1900.964193279037
 31
0.0
  0
LINE
  5
25A
330
20
100
AcDbEntity
  8
_0-0_
  6
DASHED1
 62
     6
100
AcDbLine
 10
984.7975817808233
 20
1880.964193279037
 30
0.0
 11
1014.797581780823
 21
1880.964193279037
 31
0.0
  0
LINE
  5
25B
330
20
100
AcDbEntity
  8
_0-0_
  6
DASHED1
 62
     6
100
AcDbLine
 10
984.7975817808233
 20
1900.964193279037
 30
0.0
 11
984.7975817808233
 21
1880.964193279037
 31
0.0
  0
LINE
  5
25C
330
20
100
AcDbEntity
  8
_0-0_
  6
DASHED1
 62
     6
100
AcDbLine
 10
984.7975817808233
 20
1630.964193279037
 30
0.0
 11
1014.797581780823
 21
1630.964193279037
 31
0.0
  0
LINE
  5
25D
330
20
100
AcDbEntity
  8
_0-0_
  6
DASHED1
 62
     6
100
AcDbLine
 10
984.7975817808233
 20
1630.964193279037
 30
0.0
 11
984.7975817808233
 21
1610.964193279037
 31
0.0
  0
LINE
  5
25E
330
20
100
AcDbEntity
  8
_0-0_
  6
DASHED1
 62
     6
100
AcDbLine
 10
984.7975817808233
 20
1610.964193279037
 30
0.0
 11
1014.797581780823
 21
1610.964193279037
 31
0.0
  0
CIRCLE
  5
25F
330
20
100
AcDbEntity
  8
_0-0_
  6
DASHED1
 62
     6
100
AcDbCircle
 10
1264.797581780823
 20
1620.964193279036
 30
0.0
 40
10.0
  0
CIRCLE
  5
260
330
20
100
AcDbEntity
  8
_0-0_
  6
DASHED1
 62
     6
100
AcDbCircle
 10
1464.797581780823
 20
1620.964193279036
 30
0.0
 40
10.0
  0
CIRCLE
  5
261
330
20
100
AcDbEntity
  8
_0-0_
  6
DASHED1
 62
     6
100
AcDbCircle
 10
1664.797581780823
 20
1620.964193279036
 30
0.0
 40
10.0
  0
LINE
  5
262
330
20
100
AcDbEntity
  8
_0-0_
  6
DASHED1
 62
     6
100
AcDbLine
 10
1914.797581780823
 20
1610.964193279037
 30
0.0
 11
1944.797581780823
 21
1610.964193279037
 31
0.0
  0
LINE
  5
263
330
20
100
AcDbEntity
  8
_0-0_
  6
DASHED1
 62
     6
100
AcDbLine
 10
1914.797581780823
 20
1630.964193279037
 30
0.0
 11
1944.797581780823
 21
1630.964193279037
 31
0.0
  0
LINE
  5
264
330
20
100
AcDbEntity
  8
_0-0_
  6
DASHED1
 62
     6
100
AcDbLine
 10
1944.797581780823
 20
1630.964193279037
 30
0.0
 11
1944.797581780823
 21
1610.964193279037
 31
0.0
  0
LINE
  5
265
330
20
100
AcDbEntity
  8
_0-0_
  6
DASHED1
 62
     6
100
AcDbLine
 10
1914.797581780823
 20
1880.964193279037
 30
0.0
 11
1944.797581780823
 21
1880.964193279037
 31
0.0
  0
LINE
  5
266
330
20
100
AcDbEntity
  8
_0-0_
  6
DASHED1
 62
     6
100
AcDbLine
 10
1914.797581780823
 20
1900.964193279037
 30
0.0
 11
1944.797581780823
 21
1900.964193279037
 31
0.0
  0
LINE
  5
267
330
20
100
AcDbEntity
  8
_0-0_
  6
DASHED1
 62
     6
100
AcDbLine
 10
1944.797581780823
 20
1900.964193279037
 30
0.0
 11
1944.797581780823
 21
1880.964193279037
 31
0.0
  0
CIRCLE
  5
268
330
20
100
AcDbEntity
  8
_0-0_
  6
DASHED1
 62
     6
100
AcDbCircle
 10
1664.797581780823
 20
1890.964193279037
 30
0.0
 40
10.0
  0
CIRCLE
  5
269
330
20
100
AcDbEntity
  8
_0-0_
  6
DASHED1
 62
     6
100
AcDbCircle
 10
1464.797581780823
 20
1890.964193279037
 30
0.0
 40
10.0
  0
CIRCLE
  5
26A
330
20
100
AcDbEntity
  8
_0-0_
  6
DASHED1
 62
     6
100
AcDbCircle
 10
1264.797581780823
 20
1890.964193279037
 30
0.0
 40
10.0
  0
TEXT
  5
26B
330
20
100
AcDbEntity
  8
_0-0_
 62
     7
100
AcDbText
 10
1409.287207704153
 20
2569.140477123543
 30
0.0
 40
45.0
  1
φ870
100
AcDbText
  0
TEXT
  5
26C
330
20
100
AcDbEntity
  8
_0-0_
 62
     7
100
AcDbText
 10
1408.318510314966
 20
2461.615066923737
 30
0.0
 40
45.0
  1
φ600
100
AcDbText
  0
LINE
  5
26D
330
20
100
AcDbEntity
  8
_0-0_
  6
Continuous
 62
     7
100
AcDbLine
 10
4337.78204806994
 20
75.29083678149106
 30
0.0
 11
116.1859809922743
 21
75.29083678149106
 31
0.0
  0
LINE
  5
26E
330
20
100
AcDbEntity
  8
_0-0_
  6
Continuous
 62
     7
100
AcDbLine
 10
116.1859809922743
 20
3032.385635810675
 30
0.0
 11
116.1859809922743
 21
75.29083678149106
 31
0.0
  0
LINE
  5
26F
330
20
100
AcDbEntity
  8
_0-0_
  6
Continuous
 62
     7
100
AcDbLine
 10
4337.78204806994
 20
3032.385635810675
 30
0.0
 11
4337.78204806994
 21
75.29083678149106
 31
0.0
  0
LINE
  5
270
330
20
100
AcDbEntity
  8
_0-0_
  6
Continuous
 62
     7
100
AcDbLine
 10
4337.78204806994
 20
3032.385635810675
 30
0.0
 11
116.1859809922743
 21
3032.385635810675
 31
0.0
  0
LINE
  5
271
330
20
100
AcDbEntity
  8
_0-0_
  6
Continuous
 62
     7
100
AcDbLine
 10
616.1859809922743
 20
2932.385635810676
 30
0.0
 11
116.1859809922738
 21
2932.385635810676
 31
0.0
  0
LINE
  5
272
330
20
100
AcDbEntity
  8
_0-0_
  6
Continuous
 62
     7
100
AcDbLine
 10
616.1859809922743
 20
3032.385635810675
 30
0.0
 11
616.1859809922743
 21
2932.385635810676
 31
0.0
  0
TEXT
  5
273
330
20
100
AcDbEntity
  8
_0-0_
 62
     3
100
AcDbText
 10
164.0484898929841
 20
2942.895552913198
 30
0.0
 40
75.0
  1
組立構造図
100
AcDbText
  0
ENDSEC
  0
SECTION
  2
OBJECTS
  0
DICTIONARY
  5
C
330
0
100
AcDbDictionary
281
     1
  3
ACAD_COLOR
350
1B
  3
ACAD_GROUP
350
D
  3
ACAD_LAYOUT
350
19
  3
ACAD_MATERIAL
350
1A
  3
ACAD_MLINESTYLE
350
16
  3
ACAD_PLOTSETTINGS
350
18
  3
ACAD_PLOTSTYLENAME
350
E
  3
ACDBHEADERROUNDTRIPXREC
350
27B
  3
AcDbVariableDictionary
350
277
  0
DICTIONARY
  5
1B
102
{ACAD_REACTORS
330
C
102
}
330
C
100
AcDbDictionary
281
     1
  0
DICTIONARY
  5
D
102
{ACAD_REACTORS
330
C
102
}
330
C
100
AcDbDictionary
281
     1
  0
DICTIONARY
  5
19
102
{ACAD_REACTORS
330
C
102
}
330
C
100
AcDbDictionary
281
     1
  3
Model
350
23
  3
レイアウト1
350
1F
  0
DICTIONARY
  5
1A
102
{ACAD_REACTORS
330
C
102
}
330
C
100
AcDbDictionary
281
     1
  0
DICTIONARY
  5
16
102
{ACAD_REACTORS
330
C
102
}
330
C
100
AcDbDictionary
281
     1
  3
Standard
350
17
  0
DICTIONARY
  5
18
102
{ACAD_REACTORS
330
C
102
}
330
C
100
AcDbDictionary
281
     1
  0
ACDBDICTIONARYWDFLT
  5
E
102
{ACAD_REACTORS
330
C
102
}
330
C
100
AcDbDictionary
281
     1
  3
Normal
350
F
100
AcDbDictionaryWithDefault
340
F
  0
DICTIONARY
  5
27B
102
{ACAD_REACTORS
330
C
102
}
330
C
100
AcDbDictionary
281
     1
  3
COLORDICT
350
27D
  3
MATERIALDICT
350
27C
  0
DICTIONARY
  5
277
102
{ACAD_REACTORS
330
C
102
}
330
C
100
AcDbDictionary
281
     1
  3
DIMASSOC
350
278
  3
PROJECTNAME
350
279
  0
LAYOUT
  5
23
102
{ACAD_XDICTIONARY
360
280
102
}
102
{ACAD_REACTORS
330
19
102
}
330
19
100
AcDbPlotSettings
  1

  2
RICOH imagio MP C3300 RPCS
  4

  6

 40
0.0
 41
0.0
 42
0.0
 43
0.0
 44
0.0
 45
0.0
 46
0.0
 47
0.0
 48
0.0
 49
0.0
140
0.0
141
0.0
142
1.0
143
1.0
 70
  1712
 72
     0
 73
     0
 74
     0
  7

 75
     0
147
1.0
148
0.0
149
0.0
100
AcDbLayout
  1
Model
 70
     1
 71
     0
 10
0.0
 20
0.0
 11
12.0
 21
9.0
 12
0.0
 22
0.0
 32
0.0
 14
0.0
 24
0.0
 34
0.0
 15
0.0
 25
0.0
 35
0.0
146
0.0
 13
0.0
 23
0.0
 33
0.0
 16
1.0
 26
0.0
 36
0.0
 17
0.0
 27
1.0
 37
0.0
 76
     0
330
20
  0
LAYOUT
  5
1F
102
{ACAD_XDICTIONARY
360
27E
102
}
102
{ACAD_REACTORS
330
19
102
}
330
19
100
AcDbPlotSettings
  1

  2
RICOH imagio MP C3300 RPCS
  4

  6

 40
0.0
 41
0.0
 42
0.0
 43
0.0
 44
0.0
 45
0.0
 46
0.0
 47
0.0
 48
0.0
 49
0.0
140
0.0
141
0.0
142
1.0
143
1.0
 70
   688
 72
     0
 73
     0
 74
     5
  7

 75
    16
147
1.0
148
0.0
149
0.0
100
AcDbLayout
  1
レイアウト1
 70
     1
 71
     1
 10
0.0
 20
0.0
 11
12.0
 21
9.0
 12
0.0
 22
0.0
 32
0.0
 14
1.000000000000000E+20
 24
1.000000000000000E+20
 34
1.000000000000000E+20
 15
-1.000000000000000E+20
 25
-1.000000000000000E+20
 35
-1.000000000000000E+20
146
0.0
 13
0.0
 23
0.0
 33
0.0
 16
1.0
 26
0.0
 36
0.0
 17
0.0
 27
1.0
 37
0.0
 76
     0
330
1C
  0
MLINESTYLE
  5
17
102
{ACAD_REACTORS
330
16
102
}
330
16
100
AcDbMlineStyle
  2
STANDARD
 70
     0
  3

 62
   256
 51
90.0
 52
90.0
 71
     2
 49
0.5
 62
   256
  6
BYLAYER
 49
-0.5
 62
   256
  6
BYLAYER
  0
ACDBPLACEHOLDER
  5
F
102
{ACAD_REACTORS
330
E
102
}
330
E
  0
XRECORD
  5
27D
102
{ACAD_REACTORS
330
27B
102
}
330
27B
100
AcDbXrecord
280
     1
340
1B
  0
XRECORD
  5
27C
102
{ACAD_REACTORS
330
27B
102
}
330
27B
100
AcDbXrecord
280
     1
340
1A
  0
DICTIONARYVAR
  5
278
102
{ACAD_REACTORS
330
277
102
}
330
277
100
DictionaryVariables
280
     0
  1
1
  0
DICTIONARYVAR
  5
279
102
{ACAD_REACTORS
330
277
102
}
330
277
100
DictionaryVariables
280
     0
  1

  0
DICTIONARY
  5
280
330
23
100
AcDbDictionary
280
     1
281
     1
  3
ACAD_XREC_ROUNDTRIP
360
281
  0
DICTIONARY
  5
27E
330
1F
100
AcDbDictionary
280
     1
281
     1
  3
ACAD_XREC_ROUNDTRIP
360
27F
  0
XRECORD
  5
281
102
{ACAD_REACTORS
330
280
102
}
330
280
100
AcDbXrecord
280
     1
102
SHADEPLOT
 70
     0
102
SHADEPLOTRESLEVEL
 70
     2
102
SHADEPLOTCUSTOMDPI
 70
   300
  0
XRECORD
  5
27F
102
{ACAD_REACTORS
330
27E
102
}
330
27E
100
AcDbXrecord
280
     1
102
SHADEPLOT
 70
     0
102
SHADEPLOTRESLEVEL
 70
     2
102
SHADEPLOTCUSTOMDPI
 70
   300
  0
ENDSEC
  0
EOF
