  0
SECTION
  2
HEADER
  9
$ACADVER
  1
AC1015
  9
$ACADMAINTVER
 70
    20
  9
$DWGCODEPAGE
  3
ANSI_932
  9
$INSBASE
 10
0.0
 20
0.0
 30
0.0
  9
$EXTMIN
 10
236.7670547156213
 20
116.7022779778381
 30
-0.0015258207003583
  9
$EXTMAX
 10
4449.357844228344
 20
3019.839484721702
 30
0.0000000349246037
  9
$LIMMIN
 10
0.0
 20
0.0
  9
$LIMMAX
 10
4455.0
 20
3150.0
  9
$ORTHOMODE
 70
     1
  9
$REGENMODE
 70
     1
  9
$FILLMODE
 70
     1
  9
$QTEXTMODE
 70
     0
  9
$MIRRTEXT
 70
     0
  9
$LTSCALE
 40
15.0
  9
$ATTMODE
 70
     1
  9
$TEXTSIZE
 40
0.2
  9
$TRACEWID
 40
0.05
  9
$TEXTSTYLE
  7
STANDARD
  9
$CLAYER
  8
0
  9
$CELTYPE
  6
CONTINUOUS
  9
$CECOLOR
 62
   256
  9
$CELTSCALE
 40
1.0
  9
$DISPSILH
 70
     0
  9
$DIMSCALE
 40
1.0
  9
$DIMASZ
 40
0.18
  9
$DIMEXO
 40
0.0625
  9
$DIMDLI
 40
0.38
  9
$DIMRND
 40
0.0
  9
$DIMDLE
 40
0.0
  9
$DIMEXE
 40
0.18
  9
$DIMTP
 40
0.0
  9
$DIMTM
 40
0.0
  9
$DIMTXT
 40
0.18
  9
$DIMCEN
 40
0.09
  9
$DIMTSZ
 40
0.0
  9
$DIMTOL
 70
     0
  9
$DIMLIM
 70
     0
  9
$DIMTIH
 70
     1
  9
$DIMTOH
 70
     1
  9
$DIMSE1
 70
     0
  9
$DIMSE2
 70
     0
  9
$DIMTAD
 70
     0
  9
$DIMZIN
 70
     0
  9
$DIMBLK
  1

  9
$DIMASO
 70
     1
  9
$DIMSHO
 70
     1
  9
$DIMPOST
  1

  9
$DIMAPOST
  1

  9
$DIMALT
 70
     0
  9
$DIMALTD
 70
     2
  9
$DIMALTF
 40
25.4
  9
$DIMLFAC
 40
1.0
  9
$DIMTOFL
 70
     0
  9
$DIMTVP
 40
0.0
  9
$DIMTIX
 70
     0
  9
$DIMSOXD
 70
     0
  9
$DIMSAH
 70
     0
  9
$DIMBLK1
  1

  9
$DIMBLK2
  1

  9
$DIMSTYLE
  2
Standard
  9
$DIMCLRD
 70
     0
  9
$DIMCLRE
 70
     0
  9
$DIMCLRT
 70
     0
  9
$DIMTFAC
 40
1.0
  9
$DIMGAP
 40
0.09
  9
$DIMJUST
 70
     0
  9
$DIMSD1
 70
     0
  9
$DIMSD2
 70
     0
  9
$DIMTOLJ
 70
     1
  9
$DIMTZIN
 70
     0
  9
$DIMALTZ
 70
     0
  9
$DIMALTTZ
 70
     0
  9
$DIMUPT
 70
     0
  9
$DIMDEC
 70
     4
  9
$DIMTDEC
 70
     4
  9
$DIMALTU
 70
     2
  9
$DIMALTTD
 70
     2
  9
$DIMTXSTY
  7
STANDARD
  9
$DIMAUNIT
 70
     0
  9
$DIMADEC
 70
     0
  9
$DIMALTRND
 40
0.0
  9
$DIMAZIN
 70
     0
  9
$DIMDSEP
 70
    46
  9
$DIMATFIT
 70
     3
  9
$DIMFRAC
 70
     0
  9
$DIMLDRBLK
  1

  9
$DIMLUNIT
 70
     2
  9
$DIMLWD
 70
    -2
  9
$DIMLWE
 70
    -2
  9
$DIMTMOVE
 70
     0
  9
$LUNITS
 70
     2
  9
$LUPREC
 70
     4
  9
$SKETCHINC
 40
0.1
  9
$FILLETRAD
 40
0.0
  9
$AUNITS
 70
     0
  9
$AUPREC
 70
     0
  9
$MENU
  1
.
  9
$ELEVATION
 40
0.0
  9
$PELEVATION
 40
0.0
  9
$THICKNESS
 40
0.0
  9
$LIMCHECK
 70
     0
  9
$CHAMFERA
 40
0.0
  9
$CHAMFERB
 40
0.0
  9
$CHAMFERC
 40
0.0
  9
$CHAMFERD
 40
0.0
  9
$SKPOLY
 70
     0
  9
$TDCREATE
 40
2457253.402287558
  9
$TDUCREATE
 40
2457253.027287558
  9
$TDUPDATE
 40
2457253.410096598
  9
$TDUUPDATE
 40
2457253.035096597
  9
$TDINDWG
 40
0.0078095833
  9
$TDUSRTIMER
 40
0.0078095833
  9
$USRTIMER
 70
     1
  9
$ANGBASE
 50
0.0
  9
$ANGDIR
 70
     0
  9
$PDMODE
 70
     0
  9
$PDSIZE
 40
0.0
  9
$PLINEWID
 40
0.0
  9
$SPLFRAME
 70
     0
  9
$SPLINETYPE
 70
     6
  9
$SPLINESEGS
 70
     8
  9
$HANDSEED
  5
2D9
  9
$SURFTAB1
 70
     6
  9
$SURFTAB2
 70
     6
  9
$SURFTYPE
 70
     6
  9
$SURFU
 70
     6
  9
$SURFV
 70
     6
  9
$UCSBASE
  2

  9
$UCSNAME
  2

  9
$UCSORG
 10
0.0
 20
0.0
 30
0.0
  9
$UCSXDIR
 10
1.0
 20
0.0
 30
0.0
  9
$UCSYDIR
 10
0.0
 20
1.0
 30
0.0
  9
$UCSORTHOREF
  2

  9
$UCSORTHOVIEW
 70
     0
  9
$UCSORGTOP
 10
0.0
 20
0.0
 30
0.0
  9
$UCSORGBOTTOM
 10
0.0
 20
0.0
 30
0.0
  9
$UCSORGLEFT
 10
0.0
 20
0.0
 30
0.0
  9
$UCSORGRIGHT
 10
0.0
 20
0.0
 30
0.0
  9
$UCSORGFRONT
 10
0.0
 20
0.0
 30
0.0
  9
$UCSORGBACK
 10
0.0
 20
0.0
 30
0.0
  9
$PUCSBASE
  2

  9
$PUCSNAME
  2

  9
$PUCSORG
 10
0.0
 20
0.0
 30
0.0
  9
$PUCSXDIR
 10
1.0
 20
0.0
 30
0.0
  9
$PUCSYDIR
 10
0.0
 20
1.0
 30
0.0
  9
$PUCSORTHOREF
  2

  9
$PUCSORTHOVIEW
 70
     0
  9
$PUCSORGTOP
 10
0.0
 20
0.0
 30
0.0
  9
$PUCSORGBOTTOM
 10
0.0
 20
0.0
 30
0.0
  9
$PUCSORGLEFT
 10
0.0
 20
0.0
 30
0.0
  9
$PUCSORGRIGHT
 10
0.0
 20
0.0
 30
0.0
  9
$PUCSORGFRONT
 10
0.0
 20
0.0
 30
0.0
  9
$PUCSORGBACK
 10
0.0
 20
0.0
 30
0.0
  9
$USERI1
 70
     0
  9
$USERI2
 70
     0
  9
$USERI3
 70
     0
  9
$USERI4
 70
     0
  9
$USERI5
 70
     0
  9
$USERR1
 40
0.0
  9
$USERR2
 40
0.0
  9
$USERR3
 40
0.0
  9
$USERR4
 40
0.0
  9
$USERR5
 40
0.0
  9
$WORLDVIEW
 70
     1
  9
$SHADEDGE
 70
     3
  9
$SHADEDIF
 70
    70
  9
$TILEMODE
 70
     1
  9
$MAXACTVP
 70
    64
  9
$PINSBASE
 10
0.0
 20
0.0
 30
0.0
  9
$PLIMCHECK
 70
     0
  9
$PEXTMIN
 10
1.000000000000000E+20
 20
1.000000000000000E+20
 30
1.000000000000000E+20
  9
$PEXTMAX
 10
-1.000000000000000E+20
 20
-1.000000000000000E+20
 30
-1.000000000000000E+20
  9
$PLIMMIN
 10
0.0
 20
0.0
  9
$PLIMMAX
 10
12.0
 20
9.0
  9
$UNITMODE
 70
     0
  9
$VISRETAIN
 70
     1
  9
$PLINEGEN
 70
     0
  9
$PSLTSCALE
 70
     1
  9
$TREEDEPTH
 70
  3020
  9
$CMLSTYLE
  2
Standard
  9
$CMLJUST
 70
     0
  9
$CMLSCALE
 40
1.0
  9
$PROXYGRAPHICS
 70
     1
  9
$MEASUREMENT
 70
     0
  9
$CELWEIGHT
370
    -1
  9
$ENDCAPS
280
     0
  9
$JOINSTYLE
280
     0
  9
$LWDISPLAY
290
     0
  9
$INSUNITS
 70
     0
  9
$HYPERLINKBASE
  1

  9
$STYLESHEET
  1

  9
$XEDIT
290
     1
  9
$CEPSNTYPE
380
     0
  9
$PSTYLEMODE
290
     1
  9
$FINGERPRINTGUID
  2
{670F3158-49E8-4EAA-9AA8-BF86A2AE5D7D}
  9
$VERSIONGUID
  2
{506A0744-4DCA-4A55-A972-096DF9CFBFA6}
  9
$EXTNAMES
290
     1
  9
$PSVPSCALE
 40
0.0
  9
$OLESTARTUP
290
     0
  0
ENDSEC
  0
SECTION
  2
CLASSES
  0
CLASS
  1
ACDBDICTIONARYWDFLT
  2
AcDbDictionaryWithDefault
  3
ObjectDBX Classes
 90
        0
280
     0
281
     0
  0
CLASS
  1
DICTIONARYVAR
  2
AcDbDictionaryVar
  3
ObjectDBX Classes
 90
        0
280
     0
281
     0
  0
CLASS
  1
ACDBPLACEHOLDER
  2
AcDbPlaceHolder
  3
ObjectDBX Classes
 90
        0
280
     0
281
     0
  0
CLASS
  1
LAYOUT
  2
AcDbLayout
  3
ObjectDBX Classes
 90
        0
280
     0
281
     0
  0
ENDSEC
  0
SECTION
  2
TABLES
  0
TABLE
  2
VPORT
  5
8
330
0
100
AcDbSymbolTable
 70
     3
  0
VPORT
  5
2D1
330
8
100
AcDbSymbolTableRecord
100
AcDbViewportTableRecord
  2
*Active
 70
     0
 10
0.0
 20
0.0
 11
1.0
 21
1.0
 12
2770.749799056025
 22
1467.229192519013
 13
0.0
 23
0.0
 14
1.0
 24
1.0
 15
0.0
 25
0.0
 16
0.0
 26
0.0
 36
1.0
 17
0.0
 27
0.0
 37
0.0
 40
3604.370181307029
 41
1.609333333333333
 42
50.0
 43
0.0
 44
0.0
 50
0.0
 51
0.0
 71
     0
 72
   100
 73
     1
 74
     1
 75
     0
 76
     0
 77
     0
 78
     0
281
     0
 65
     1
110
0.0
120
0.0
130
0.0
111
1.0
121
0.0
131
0.0
112
0.0
122
1.0
132
0.0
 79
     0
146
0.0
  0
ENDTAB
  0
TABLE
  2
LTYPE
  5
5
330
0
100
AcDbSymbolTable
 70
    35
  0
LTYPE
  5
13
330
5
100
AcDbSymbolTableRecord
100
AcDbLinetypeTableRecord
  2
ByBlock
 70
     0
  3

 72
    65
 73
     0
 40
0.0
  0
LTYPE
  5
14
330
5
100
AcDbSymbolTableRecord
100
AcDbLinetypeTableRecord
  2
ByLayer
 70
     0
  3

 72
    65
 73
     0
 40
0.0
  0
LTYPE
  5
15
330
5
100
AcDbSymbolTableRecord
100
AcDbLinetypeTableRecord
  2
CONTINUOUS
 70
     0
  3
実線
 72
    65
 73
     0
 40
0.0
  0
LTYPE
  5
24
330
5
100
AcDbSymbolTableRecord
100
AcDbLinetypeTableRecord
  2
DASHED1
 70
     0
  3
--  --  --  --  --  --  --  --  
 72
    65
 73
     2
 40
2.5
 49
1.25
 74
     0
 49
-1.25
 74
     0
  0
LTYPE
  5
25
330
5
100
AcDbSymbolTableRecord
100
AcDbLinetypeTableRecord
  2
DASHED2
 70
     0
  3
----    ----    ----    ----    
 72
    65
 73
     2
 40
5.0
 49
2.5
 74
     0
 49
-2.5
 74
     0
  0
LTYPE
  5
26
330
5
100
AcDbSymbolTableRecord
100
AcDbLinetypeTableRecord
  2
DASHED3
 70
     0
  3
------  ------  ------  ------  
 72
    65
 73
     2
 40
5.0
 49
3.75
 74
     0
 49
-1.25
 74
     0
  0
LTYPE
  5
27
330
5
100
AcDbSymbolTableRecord
100
AcDbLinetypeTableRecord
  2
CENTER1
 70
     0
  3
----- - ----- - ----- - ----- - 
 72
    65
 73
     4
 40
10.0
 49
6.25
 74
     0
 49
-1.25
 74
     0
 49
1.25
 74
     0
 49
-1.25
 74
     0
  0
LTYPE
  5
28
330
5
100
AcDbSymbolTableRecord
100
AcDbLinetypeTableRecord
  2
CENTER2
 70
     0
  3
----------  --  ----------  --  
 72
    65
 73
     4
 40
20.0
 49
12.5
 74
     0
 49
-2.5
 74
     0
 49
2.5
 74
     0
 49
-2.5
 74
     0
  0
LTYPE
  5
29
330
5
100
AcDbSymbolTableRecord
100
AcDbLinetypeTableRecord
  2
PHANTOM1
 70
     0
  3
--- - - --- - - --- - - --- - - 
 72
    65
 73
     6
 40
10.0
 49
3.25
 74
     0
 49
-1.25
 74
     0
 49
1.25
 74
     0
 49
-1.25
 74
     0
 49
1.25
 74
     0
 49
-1.25
 74
     0
  0
LTYPE
  5
2A
330
5
100
AcDbSymbolTableRecord
100
AcDbLinetypeTableRecord
  2
PHANTOM2
 70
     0
  3
--------  -  -  --------  -  -  
 72
    65
 73
     6
 40
20.0
 49
10.0
 74
     0
 49
-2.5
 74
     0
 49
1.25
 74
     0
 49
-2.5
 74
     0
 49
1.25
 74
     0
 49
-2.5
 74
     0
  0
LTYPE
  5
2B
330
5
100
AcDbSymbolTableRecord
100
AcDbLinetypeTableRecord
  2
DOT
 70
     0
  3
-   -   -   -   -   -   -   -   
 72
    65
 73
     2
 40
2.5
 49
0.625
 74
     0
 49
-1.875
 74
     0
  0
LTYPE
  5
2C
330
5
100
AcDbSymbolTableRecord
100
AcDbLinetypeTableRecord
  2
DUMMY
 70
     0
  3
ダミー
 72
    65
 73
     0
 40
0.0
  0
LTYPE
  5
2D
330
5
100
AcDbSymbolTableRecord
100
AcDbLinetypeTableRecord
  2
RAND1
 70
     0
  3
ランダム線1
 72
    65
 73
     4
 40
10.0
 49
1.0
 74
     0
 49
-2.0
 74
     0
 49
3.0
 74
     0
 49
-4.0
 74
     0
  0
LTYPE
  5
2E
330
5
100
AcDbSymbolTableRecord
100
AcDbLinetypeTableRecord
  2
RAND2
 70
     0
  3
ランダム線2
 72
    65
 73
     4
 40
14.0
 49
2.0
 74
     0
 49
-3.0
 74
     0
 49
4.0
 74
     0
 49
-5.0
 74
     0
  0
LTYPE
  5
2F
330
5
100
AcDbSymbolTableRecord
100
AcDbLinetypeTableRecord
  2
RAND3
 70
     0
  3
ランダム線3
 72
    65
 73
     4
 40
18.0
 49
3.0
 74
     0
 49
-4.0
 74
     0
 49
5.0
 74
     0
 49
-6.0
 74
     0
  0
LTYPE
  5
30
330
5
100
AcDbSymbolTableRecord
100
AcDbLinetypeTableRecord
  2
RAND4
 70
     0
  3
ランダム線4
 72
    65
 73
     4
 40
22.0
 49
4.0
 74
     0
 49
-5.0
 74
     0
 49
6.0
 74
     0
 49
-7.0
 74
     0
  0
LTYPE
  5
31
330
5
100
AcDbSymbolTableRecord
100
AcDbLinetypeTableRecord
  2
RAND5
 70
     0
  3
ランダム線5
 72
    65
 73
     4
 40
26.0
 49
5.0
 74
     0
 49
-6.0
 74
     0
 49
7.0
 74
     0
 49
-8.0
 74
     0
  0
LTYPE
  5
32
330
5
100
AcDbSymbolTableRecord
100
AcDbLinetypeTableRecord
  2
LONG1
 70
     0
  3
----------  --  ----------  --  
 72
    65
 73
     4
 40
40.0
 49
32.5
 74
     0
 49
-2.5
 74
     0
 49
2.5
 74
     0
 49
-2.5
 74
     0
  0
LTYPE
  5
33
330
5
100
AcDbSymbolTableRecord
100
AcDbLinetypeTableRecord
  2
LONG2
 70
     0
  3
--------  -  -  --------  -  -  
 72
    65
 73
     6
 40
40.0
 49
30.0
 74
     0
 49
-2.5
 74
     0
 49
1.25
 74
     0
 49
-2.5
 74
     0
 49
1.25
 74
     0
 49
-2.5
 74
     0
  0
LTYPE
  5
34
330
5
100
AcDbSymbolTableRecord
100
AcDbLinetypeTableRecord
  2
LONG3
 70
     0
  3
+++++++++++++++..+++++++++++++++
 72
    65
 73
     2
 40
40.0
 49
37.5
 74
     0
 49
-2.5
 74
     0
  0
LTYPE
  5
35
330
5
100
AcDbSymbolTableRecord
100
AcDbLinetypeTableRecord
  2
LONG4
 70
     0
  3
+++++++++++++++..+++++++++++++++
 72
    65
 73
     2
 40
80.0
 49
75.0
 74
     0
 49
-5.0
 74
     0
  0
LTYPE
  5
36
330
5
100
AcDbSymbolTableRecord
100
AcDbLinetypeTableRecord
  2
LONG5
 70
     0
  3
----------  --  ----------  --  
 72
    65
 73
     4
 40
60.0
 49
37.5
 74
     0
 49
-7.5
 74
     0
 49
7.5
 74
     0
 49
-7.5
 74
     0
  0
LTYPE
  5
37
330
5
100
AcDbSymbolTableRecord
100
AcDbLinetypeTableRecord
  2
DASHED
 70
     0
  3
-------   -------------   ------
 72
    65
 73
     2
 40
7.5
 49
6.0
 74
     0
 49
-1.5
 74
     0
  0
LTYPE
  5
38
330
5
100
AcDbSymbolTableRecord
100
AcDbLinetypeTableRecord
  2
DASHED_SPACED
 70
     0
  3
----        --------        ----
 72
    65
 73
     2
 40
12.0
 49
6.0
 74
     0
 49
-6.0
 74
     0
  0
LTYPE
  5
39
330
5
100
AcDbSymbolTableRecord
100
AcDbLinetypeTableRecord
  2
LONG_DASHED_DOTTED
 70
     0
  3
------------- --- --------------
 72
    65
 73
     4
 40
15.25
 49
12.0
 74
     0
 49
-1.5
 74
     0
 49
0.25
 74
     0
 49
-1.5
 74
     0
  0
LTYPE
  5
3A
330
5
100
AcDbSymbolTableRecord
100
AcDbLinetypeTableRecord
  2
LONG_DASHED_DOUBLE-DOTTED
 70
     0
  3
----------- --- --- ------------
 72
    65
 73
     6
 40
17.0
 49
12.0
 74
     0
 49
-1.5
 74
     0
 49
0.25
 74
     0
 49
-1.5
 74
     0
 49
0.25
 74
     0
 49
-1.5
 74
     0
  0
LTYPE
  5
3B
330
5
100
AcDbSymbolTableRecord
100
AcDbLinetypeTableRecord
  2
LONG_DASHED_TRIPLICATE-DOTTED
 70
     0
  3
--------- --- --- --- ----------
 72
    65
 73
     8
 40
18.75
 49
12.0
 74
     0
 49
-1.5
 74
     0
 49
0.25
 74
     0
 49
-1.5
 74
     0
 49
0.25
 74
     0
 49
-1.5
 74
     0
 49
0.25
 74
     0
 49
-1.5
 74
     0
  0
LTYPE
  5
3C
330
5
100
AcDbSymbolTableRecord
100
AcDbLinetypeTableRecord
  2
DOTTED
 70
     0
  3
   -       -       -       -    
 72
    65
 73
     2
 40
1.75
 49
0.25
 74
     0
 49
-1.5
 74
     0
  0
LTYPE
  5
3D
330
5
100
AcDbSymbolTableRecord
100
AcDbLinetypeTableRecord
  2
CHAIN
 70
     0
  3
-------------- -- --------------
 72
    65
 73
     4
 40
18.5
 49
12.0
 74
     0
 49
-1.5
 74
     0
 49
3.5
 74
     0
 49
-1.5
 74
     0
  0
LTYPE
  5
3E
330
5
100
AcDbSymbolTableRecord
100
AcDbLinetypeTableRecord
  2
CHAIN_DOUBLE_DASH
 70
     0
  3
------------ -- -- -------------
 72
    65
 73
     6
 40
23.5
 49
12.0
 74
     0
 49
-1.5
 74
     0
 49
3.5
 74
     0
 49
-1.5
 74
     0
 49
3.5
 74
     0
 49
-1.5
 74
     0
  0
LTYPE
  5
3F
330
5
100
AcDbSymbolTableRecord
100
AcDbLinetypeTableRecord
  2
DASHED_DOTTED
 70
     0
  3
-----------     -     ----------
 72
    65
 73
     4
 40
9.25
 49
6.0
 74
     0
 49
-1.5
 74
     0
 49
0.25
 74
     0
 49
-1.5
 74
     0
  0
LTYPE
  5
40
330
5
100
AcDbSymbolTableRecord
100
AcDbLinetypeTableRecord
  2
DOUBLE-DASHED_DOTTED
 70
     0
  3
------   -----------   -   -----
 72
    65
 73
     6
 40
16.75
 49
6.0
 74
     0
 49
-1.5
 74
     0
 49
6.0
 74
     0
 49
-1.5
 74
     0
 49
0.25
 74
     0
 49
-1.5
 74
     0
  0
LTYPE
  5
41
330
5
100
AcDbSymbolTableRecord
100
AcDbLinetypeTableRecord
  2
DASHED_DOUBLE-DOTTED
 70
     0
  3
---------    -    -    ---------
 72
    65
 73
     6
 40
11.0
 49
6.0
 74
     0
 49
-1.5
 74
     0
 49
0.25
 74
     0
 49
-1.5
 74
     0
 49
0.25
 74
     0
 49
-1.5
 74
     0
  0
LTYPE
  5
42
330
5
100
AcDbSymbolTableRecord
100
AcDbLinetypeTableRecord
  2
DOUBLE-DASHED_DOUBLE-DOTTED
 70
     0
  3
-----   ---------   -   -   ----
 72
    65
 73
     8
 40
18.5
 49
6.0
 74
     0
 49
-1.5
 74
     0
 49
6.0
 74
     0
 49
-1.5
 74
     0
 49
0.25
 74
     0
 49
-1.5
 74
     0
 49
0.25
 74
     0
 49
-1.5
 74
     0
  0
LTYPE
  5
43
330
5
100
AcDbSymbolTableRecord
100
AcDbLinetypeTableRecord
  2
DASHED_TRIPLICATE-DOTTED
 70
     0
  3
-------    -    -    -    ------
 72
    65
 73
     8
 40
12.75
 49
6.0
 74
     0
 49
-1.5
 74
     0
 49
0.25
 74
     0
 49
-1.5
 74
     0
 49
0.25
 74
     0
 49
-1.5
 74
     0
 49
0.25
 74
     0
 49
-1.5
 74
     0
  0
LTYPE
  5
44
330
5
100
AcDbSymbolTableRecord
100
AcDbLinetypeTableRecord
  2
DOUBLE-DASHED_TRIPLICATE-DOTTED
 70
     0
  3
-----  ---------  -  -  -  -----
 72
    65
 73
    10
 40
20.25
 49
6.0
 74
     0
 49
-1.5
 74
     0
 49
6.0
 74
     0
 49
-1.5
 74
     0
 49
0.25
 74
     0
 49
-1.5
 74
     0
 49
0.25
 74
     0
 49
-1.5
 74
     0
 49
0.25
 74
     0
 49
-1.5
 74
     0
  0
LTYPE
  5
45
330
5
100
AcDbSymbolTableRecord
100
AcDbLinetypeTableRecord
  2
UNDEFINED
 70
     0
  3
--------------------------------
 72
    65
 73
     0
 40
0.0
  0
ENDTAB
  0
TABLE
  2
LAYER
  5
2
330
0
100
AcDbSymbolTable
 70
     3
  0
LAYER
  5
10
330
2
100
AcDbSymbolTableRecord
100
AcDbLayerTableRecord
  2
0
 70
     0
 62
     7
  6
CONTINUOUS
370
    -3
390
F
  0
LAYER
  5
47
330
2
100
AcDbSymbolTableRecord
100
AcDbLayerTableRecord
  2
_0-0_
 70
     0
 62
     7
  6
CONTINUOUS
370
    -3
390
F
  0
LAYER
  5
48
330
2
100
AcDbSymbolTableRecord
100
AcDbLayerTableRecord
  2
ADD_LINE
 70
     0
 62
     7
  6
CONTINUOUS
370
    -3
390
F
  0
ENDTAB
  0
TABLE
  2
STYLE
  5
3
330
0
100
AcDbSymbolTable
 70
     2
  0
STYLE
  5
11
330
3
100
AcDbSymbolTableRecord
100
AcDbTextStyleTableRecord
  2
STANDARD
 70
     0
 40
0.0
 41
1.0
 50
0.0
 71
     0
 42
0.2
  3
txt
  4
bigfont.shx
  0
STYLE
  5
46
330
3
100
AcDbSymbolTableRecord
100
AcDbTextStyleTableRecord
  2
TATEGAKI
 70
     4
 40
0.0
 41
1.0
 50
0.0
 71
     0
 42
1.0
  3
txt
  4
bigfont.shx
  0
ENDTAB
  0
TABLE
  2
VIEW
  5
6
330
0
100
AcDbSymbolTable
 70
     0
  0
ENDTAB
  0
TABLE
  2
UCS
  5
7
330
0
100
AcDbSymbolTable
 70
     0
  0
ENDTAB
  0
TABLE
  2
APPID
  5
9
330
0
100
AcDbSymbolTable
 70
     1
  0
APPID
  5
12
330
9
100
AcDbSymbolTableRecord
100
AcDbRegAppTableRecord
  2
ACAD
 70
     0
  0
ENDTAB
  0
TABLE
  2
DIMSTYLE
  5
A
330
0
100
AcDbSymbolTable
 70
     1
100
AcDbDimStyleTable
 71
     0
  0
DIMSTYLE
105
2CB
330
A
100
AcDbSymbolTableRecord
100
AcDbDimStyleTableRecord
  2
Standard
 70
     0
340
11
  0
ENDTAB
  0
TABLE
  2
BLOCK_RECORD
  5
1
330
0
100
AcDbSymbolTable
 70
     0
  0
BLOCK_RECORD
  5
20
330
1
100
AcDbSymbolTableRecord
100
AcDbBlockTableRecord
  2
*Model_Space
340
23
  0
BLOCK_RECORD
  5
1C
330
1
100
AcDbSymbolTableRecord
100
AcDbBlockTableRecord
  2
*Paper_Space
340
1F
  0
ENDTAB
  0
ENDSEC
  0
SECTION
  2
BLOCKS
  0
BLOCK
  5
21
330
20
100
AcDbEntity
  8
0
100
AcDbBlockBegin
  2
*Model_Space
 70
     0
 10
0.0
 20
0.0
 30
0.0
  3
*Model_Space
  1

  0
ENDBLK
  5
22
330
20
100
AcDbEntity
  8
0
100
AcDbBlockEnd
  0
BLOCK
  5
1D
330
1C
100
AcDbEntity
 67
     1
  8
0
100
AcDbBlockBegin
  2
*Paper_Space
 70
     0
 10
0.0
 20
0.0
 30
0.0
  3
*Paper_Space
  1

  0
ENDBLK
  5
1E
330
1C
100
AcDbEntity
 67
     1
  8
0
100
AcDbBlockEnd
  0
ENDSEC
  0
SECTION
  2
ENTITIES
  0
LINE
  5
4C
330
20
100
AcDbEntity
  8
_0-0_
  6
Continuous
 62
     7
100
AcDbLine
 10
4231.355421686748
 20
466.8373493975905
 30
0.0
 11
2431.355421686747
 21
466.8373493975905
 31
0.0
  0
LINE
  5
4D
330
20
100
AcDbEntity
  8
_0-0_
  6
Continuous
 62
     7
100
AcDbLine
 10
4231.355421686748
 20
396.8373493975905
 30
0.0
 11
2431.355421686747
 21
396.8373493975905
 31
0.0
  0
LINE
  5
4E
330
20
100
AcDbEntity
  8
_0-0_
  6
Continuous
 62
     7
100
AcDbLine
 10
4231.355421686748
 20
326.8373493975904
 30
0.0
 11
2431.355421686747
 21
326.8373493975904
 31
0.0
  0
LINE
  5
4F
330
20
100
AcDbEntity
  8
_0-0_
  6
Continuous
 62
     7
100
AcDbLine
 10
237.0632530120481
 20
3019.743975903615
 30
0.0
 11
4231.355421686748
 21
3019.743975903615
 31
0.0
  0
LINE
  5
50
330
20
100
AcDbEntity
  8
_0-0_
  6
Continuous
 62
     7
100
AcDbLine
 10
4231.355421686748
 20
3019.743975903615
 30
0.0
 11
4231.355421686748
 21
116.8373493975902
 31
0.0
  0
LINE
  5
51
330
20
100
AcDbEntity
  8
_0-0_
  6
Continuous
 62
     7
100
AcDbLine
 10
4231.355421686748
 20
116.8373493975902
 30
0.0
 11
237.0632530120481
 21
116.8373493975902
 31
0.0
  0
LINE
  5
52
330
20
100
AcDbEntity
  8
_0-0_
  6
Continuous
 62
     7
100
AcDbLine
 10
237.0632530120481
 20
116.8373493975902
 30
0.0
 11
237.0632530120481
 21
3019.743975903615
 31
0.0
  0
LINE
  5
53
330
20
100
AcDbEntity
  8
_0-0_
  6
Continuous
 62
     7
100
AcDbLine
 10
3431.355421686748
 20
536.8373493975905
 30
0.0
 11
3431.355421686748
 21
116.8373493975902
 31
0.0
  0
LINE
  5
54
330
20
100
AcDbEntity
  8
_0-0_
  6
Continuous
 62
     7
100
AcDbLine
 10
3681.355421686748
 20
536.8373493975905
 30
0.0
 11
3681.355421686748
 21
186.8373493975903
 31
0.0
  0
LINE
  5
55
330
20
100
AcDbEntity
  8
_0-0_
  6
Continuous
 62
     7
100
AcDbLine
 10
2681.355421686747
 20
536.8373493975905
 30
0.0
 11
2681.355421686747
 21
116.8373493975902
 31
0.0
  0
LINE
  5
56
330
20
100
AcDbEntity
  8
_0-0_
  6
Continuous
 62
     7
100
AcDbLine
 10
2431.355421686747
 20
536.8373493975905
 30
0.0
 11
2431.355421686747
 21
116.8373493975902
 31
0.0
  0
LINE
  5
57
330
20
100
AcDbEntity
  8
_0-0_
  6
Continuous
 62
     7
100
AcDbLine
 10
4231.355421686748
 20
186.8373493975903
 30
0.0
 11
2431.355421686747
 21
186.8373493975903
 31
0.0
  0
LINE
  5
58
330
20
100
AcDbEntity
  8
_0-0_
  6
Continuous
 62
     7
100
AcDbLine
 10
4231.355421686748
 20
256.8373493975903
 30
0.0
 11
2431.355421686747
 21
256.8373493975903
 31
0.0
  0
LINE
  5
59
330
20
100
AcDbEntity
  8
_0-0_
  6
Continuous
 62
     7
100
AcDbLine
 10
4231.355421686748
 20
536.8373493975905
 30
0.0
 11
2431.355421686747
 21
536.8373493975905
 31
0.0
  0
LINE
  5
5A
330
20
100
AcDbEntity
  8
_0-0_
  6
Continuous
 62
     7
100
AcDbLine
 10
2931.355421686747
 20
186.8373493975903
 30
0.0
 11
2931.355421686747
 21
116.8373493975902
 31
0.0
  0
LINE
  5
5B
330
20
100
AcDbEntity
  8
_0-0_
  6
Continuous
 62
     7
100
AcDbLine
 10
3181.355421686747
 20
186.8373493975903
 30
0.0
 11
3181.355421686747
 21
116.8373493975902
 31
0.0
  0
TEXT
  5
5C
330
20
100
AcDbEntity
  8
_0-0_
 62
     7
100
AcDbText
 10
2466.601307611052
 20
477.8877339813603
 30
0.0
 40
45.0
  1
製 品 名
100
AcDbText
  0
TEXT
  5
5D
330
20
100
AcDbEntity
  8
_0-0_
 62
     7
100
AcDbText
 10
2843.824353883073
 20
478.2676288517489
 30
0.0
 40
45.0
  1
ＦＫ式ハンドホール
100
AcDbText
  0
TEXT
  5
5E
330
20
100
AcDbEntity
  8
_0-0_
 62
     7
100
AcDbText
 10
2969.151739560066
 20
129.8060547827853
 30
0.0
 40
45.0
  1
製　　図
100
AcDbText
  0
TEXT
  5
5F
330
20
100
AcDbEntity
  8
_0-0_
 62
     7
100
AcDbText
 10
3275.940858002931
 20
126.4852128416404
 30
0.0
 40
45.0
  1
H.O
100
AcDbText
  0
TEXT
  5
60
330
20
100
AcDbEntity
  8
_0-0_
 62
     7
100
AcDbText
 10
3467.667567861809
 20
477.084754681376
 30
0.0
 40
45.0
  1
縮　　尺
100
AcDbText
  0
TEXT
  5
61
330
20
100
AcDbEntity
  8
_0-0_
 62
     7
100
AcDbText
 10
3467.757384961533
 20
409.2054815648136
 30
0.0
 40
45.0
  1
参考重量
100
AcDbText
  0
TEXT
  5
62
330
20
100
AcDbEntity
  8
_0-0_
 62
     7
100
AcDbText
 10
3468.682501088693
 20
337.0239693714617
 30
0.0
 40
45.0
  1
設計Ｎｏ
100
AcDbText
  0
TEXT
  5
63
330
20
100
AcDbEntity
  8
_0-0_
 62
     7
100
AcDbText
 10
3468.682501088693
 20
266.9935767165044
 30
0.0
 40
45.0
  1
図面Ｎｏ
100
AcDbText
  0
TEXT
  5
64
330
20
100
AcDbEntity
  8
_0-0_
 62
     7
100
AcDbText
 10
3468.682501088693
 20
198.9930505153141
 30
0.0
 40
45.0
  1
製 図 日
100
AcDbText
  0
TEXT
  5
65
330
20
100
AcDbEntity
  8
_0-0_
 62
     7
100
AcDbText
 10
3452.951118450523
 20
129.6497586732472
 30
0.0
 40
45.0
  1
株式会社　丸治コンクリート工業所
 41
0.89
100
AcDbText
  0
TEXT
  5
66
330
20
100
AcDbEntity
  8
_0-0_
 62
     7
100
AcDbText
 10
3897.999256060386
 20
477.084754681376
 30
0.0
 40
45.0
  1
1/15
100
AcDbText
  0
TEXT
  5
67
330
20
100
AcDbEntity
  8
_0-0_
 62
     7
100
AcDbText
 10
3779.190814202893
 20
198.5122916693785
 30
0.0
 40
45.0
  1
平成　年　月　日
100
AcDbText
  0
LINE
  5
68
330
20
100
AcDbEntity
  8
_0-0_
  6
Continuous
 62
     4
100
AcDbLine
 10
2849.700530682908
 20
2571.958525345622
 30
0.0
 11
3889.700530682907
 21
2571.958525345622
 31
0.0
  0
LINE
  5
69
330
20
100
AcDbEntity
  8
_0-0_
  6
Continuous
 62
     4
100
AcDbLine
 10
3889.700530682907
 20
2581.958525345622
 30
0.0
 11
3889.700530682907
 21
2251.958525345622
 31
0.0
  0
LINE
  5
6A
330
20
100
AcDbEntity
  8
_0-0_
  6
Continuous
 62
     4
100
AcDbLine
 10
2849.700530682908
 20
2251.958525345622
 30
0.0
 11
2849.700530682908
 21
2581.958525345622
 31
0.0
  0
LINE
  5
6B
330
20
100
AcDbEntity
  8
_0-0_
  6
Continuous
 62
     4
100
AcDbLine
 10
2509.700530682908
 20
2231.958525345622
 30
0.0
 11
2509.700530682908
 21
1191.958525345622
 31
0.0
  0
LINE
  5
6C
330
20
100
AcDbEntity
  8
_0-0_
  6
Continuous
 62
     4
100
AcDbLine
 10
2829.700530682908
 20
2231.958525345622
 30
0.0
 11
2499.700530682908
 21
2231.958525345622
 31
0.0
  0
LINE
  5
6D
330
20
100
AcDbEntity
  8
_0-0_
  6
Continuous
 62
     4
100
AcDbLine
 10
2829.700530682908
 20
1191.958525345622
 30
0.0
 11
2499.700530682908
 21
1191.958525345622
 31
0.0
  0
LINE
  5
6E
330
20
100
AcDbEntity
  8
_0-0_
  6
Continuous
 62
     7
100
AcDbLine
 10
2849.700530682908
 20
1201.958525345622
 30
0.0
 11
2859.700530682908
 21
1191.958525345622
 31
0.0
  0
LINE
  5
6F
330
20
100
AcDbEntity
  8
_0-0_
  6
Continuous
 62
     7
100
AcDbLine
 10
2849.700530682908
 20
2221.958525345622
 30
0.0
 11
2849.700530682908
 21
1201.958525345622
 31
0.0
  0
LINE
  5
70
330
20
100
AcDbEntity
  8
_0-0_
  6
Continuous
 62
     7
100
AcDbLine
 10
2859.700530682908
 20
2231.958525345622
 30
0.0
 11
2849.700530682908
 21
2221.958525345622
 31
0.0
  0
LINE
  5
71
330
20
100
AcDbEntity
  8
_0-0_
  6
Continuous
 62
     7
100
AcDbLine
 10
2859.700530682908
 20
2231.958525345622
 30
0.0
 11
3879.700530682907
 21
2231.958525345622
 31
0.0
  0
LINE
  5
72
330
20
100
AcDbEntity
  8
_0-0_
  6
Continuous
 62
     7
100
AcDbLine
 10
3879.700530682907
 20
2231.958525345622
 30
0.0
 11
3889.700530682907
 21
2221.958525345622
 31
0.0
  0
LINE
  5
73
330
20
100
AcDbEntity
  8
_0-0_
  6
Continuous
 62
     7
100
AcDbLine
 10
3889.700530682907
 20
2221.958525345622
 30
0.0
 11
3889.700530682907
 21
1201.958525345622
 31
0.0
  0
LINE
  5
74
330
20
100
AcDbEntity
  8
_0-0_
  6
Continuous
 62
     7
100
AcDbLine
 10
3889.700530682907
 20
1201.958525345622
 30
0.0
 11
3879.700530682907
 21
1191.958525345622
 31
0.0
  0
LINE
  5
75
330
20
100
AcDbEntity
  8
_0-0_
  6
Continuous
 62
     7
100
AcDbLine
 10
2859.700530682908
 20
1191.958525345622
 30
0.0
 11
3879.700530682907
 21
1191.958525345622
 31
0.0
  0
CIRCLE
  5
76
330
20
100
AcDbEntity
  8
_0-0_
  6
Continuous
 62
     7
100
AcDbCircle
 10
3369.700530682908
 20
1711.958525345622
 30
0.0
 40
300.0
  0
CIRCLE
  5
77
330
20
100
AcDbEntity
  8
_0-0_
  6
Continuous
 62
     7
100
AcDbCircle
 10
3369.700530682908
 20
1711.958525345622
 30
0.0
 40
435.0
  0
LINE
  5
78
330
20
100
AcDbEntity
  8
_0-0_
  6
DASHED1
 62
   136
100
AcDbLine
 10
2969.700530682908
 20
2161.958525345622
 30
0.0
 11
2969.700530682908
 21
1261.958525345622
 31
0.0
  0
LINE
  5
79
330
20
100
AcDbEntity
  8
_0-0_
  6
DASHED1
 62
   136
100
AcDbLine
 10
3769.700530682907
 20
2161.958525345622
 30
0.0
 11
3769.700530682907
 21
1261.958525345622
 31
0.0
  0
LINE
  5
7A
330
20
100
AcDbEntity
  8
_0-0_
  6
DASHED1
 62
   136
100
AcDbLine
 10
2919.700530682908
 20
2111.958525345622
 30
0.0
 11
3819.700530682908
 21
2111.958525345622
 31
0.0
  0
LINE
  5
7B
330
20
100
AcDbEntity
  8
_0-0_
  6
DASHED1
 62
   136
100
AcDbLine
 10
2919.700530682908
 20
1311.958525345622
 30
0.0
 11
3819.700530682908
 21
1311.958525345622
 31
0.0
  0
LINE
  5
7C
330
20
100
AcDbEntity
  8
_0-0_
  6
DASHED1
 62
   136
100
AcDbLine
 10
2969.700530682908
 20
2161.958525345622
 30
0.0
 11
2919.700530682908
 21
2111.958525345622
 31
0.0
  0
LINE
  5
7D
330
20
100
AcDbEntity
  8
_0-0_
  6
DASHED1
 62
   136
100
AcDbLine
 10
2969.700530682908
 20
2161.958525345622
 30
0.0
 11
3769.700530682907
 21
2161.958525345622
 31
0.0
  0
LINE
  5
7E
330
20
100
AcDbEntity
  8
_0-0_
  6
DASHED1
 62
   136
100
AcDbLine
 10
3769.700530682907
 20
2161.958525345622
 30
0.0
 11
3819.700530682908
 21
2111.958525345622
 31
0.0
  0
LINE
  5
7F
330
20
100
AcDbEntity
  8
_0-0_
  6
DASHED1
 62
   136
100
AcDbLine
 10
3819.700530682908
 20
2111.958525345622
 30
0.0
 11
3819.700530682908
 21
1311.958525345622
 31
0.0
  0
LINE
  5
80
330
20
100
AcDbEntity
  8
_0-0_
  6
DASHED1
 62
   136
100
AcDbLine
 10
3819.700530682908
 20
1311.958525345622
 30
0.0
 11
3769.700530682907
 21
1261.958525345622
 31
0.0
  0
LINE
  5
81
330
20
100
AcDbEntity
  8
_0-0_
  6
DASHED1
 62
   136
100
AcDbLine
 10
2969.700530682908
 20
1261.958525345622
 30
0.0
 11
3769.700530682907
 21
1261.958525345622
 31
0.0
  0
LINE
  5
82
330
20
100
AcDbEntity
  8
_0-0_
  6
DASHED1
 62
   136
100
AcDbLine
 10
2919.700530682908
 20
1311.958525345622
 30
0.0
 11
2969.700530682908
 21
1261.958525345622
 31
0.0
  0
LINE
  5
83
330
20
100
AcDbEntity
  8
_0-0_
  6
DASHED1
 62
   136
100
AcDbLine
 10
2919.700530682908
 20
2111.958525345622
 30
0.0
 11
2919.700530682908
 21
1311.958525345622
 31
0.0
  0
LINE
  5
84
330
20
100
AcDbEntity
  8
_0-0_
  6
DASHED1
 62
   136
100
AcDbLine
 10
3581.832565038872
 20
1924.090559701587
 30
0.0
 11
3769.700530682907
 21
2111.958525345622
 31
0.0
  0
LINE
  5
85
330
20
100
AcDbEntity
  8
_0-0_
  6
DASHED1
 62
   136
100
AcDbLine
 10
3581.832565038872
 20
1499.826490989658
 30
0.0
 11
3769.700530682907
 21
1311.958525345622
 31
0.0
  0
LINE
  5
86
330
20
100
AcDbEntity
  8
_0-0_
  6
DASHED1
 62
   136
100
AcDbLine
 10
3157.568496326943
 20
1499.826490989658
 30
0.0
 11
2969.700530682908
 21
1311.958525345622
 31
0.0
  0
LINE
  5
87
330
20
100
AcDbEntity
  8
_0-0_
  6
DASHED1
 62
   136
100
AcDbLine
 10
3157.568496326943
 20
1924.090559701587
 30
0.0
 11
2969.700530682908
 21
2111.958525345622
 31
0.0
  0
LINE
  5
88
330
20
100
AcDbEntity
  8
_0-0_
  6
DASHED1
 62
   136
100
AcDbLine
 10
3059.700530682908
 20
2231.958525345622
 30
0.0
 11
3069.700530682908
 21
2196.958525345622
 31
0.0
  0
LINE
  5
89
330
20
100
AcDbEntity
  8
_0-0_
  6
DASHED1
 62
   136
100
AcDbLine
 10
3679.700530682907
 20
2231.958525345622
 30
0.0
 11
3669.700530682908
 21
2196.958525345622
 31
0.0
  0
LINE
  5
8A
330
20
100
AcDbEntity
  8
_0-0_
  6
DASHED1
 62
   136
100
AcDbLine
 10
3069.700530682908
 20
2196.958525345622
 30
0.0
 11
3669.700530682908
 21
2196.958525345622
 31
0.0
  0
LINE
  5
8B
330
20
100
AcDbEntity
  8
_0-0_
  6
DASHED1
 62
   136
100
AcDbLine
 10
3069.700530682908
 20
1226.958525345622
 30
0.0
 11
3059.700530682908
 21
1191.958525345622
 31
0.0
  0
LINE
  5
8C
330
20
100
AcDbEntity
  8
_0-0_
  6
DASHED1
 62
   136
100
AcDbLine
 10
3069.700530682908
 20
1226.958525345622
 30
0.0
 11
3669.700530682908
 21
1226.958525345622
 31
0.0
  0
LINE
  5
8D
330
20
100
AcDbEntity
  8
_0-0_
  6
DASHED1
 62
   136
100
AcDbLine
 10
3669.700530682908
 20
1226.958525345622
 30
0.0
 11
3679.700530682907
 21
1191.958525345622
 31
0.0
  0
LINE
  5
8E
330
20
100
AcDbEntity
  8
_0-0_
  6
DASHED1
 62
   136
100
AcDbLine
 10
3889.700530682907
 20
2021.958525345622
 30
0.0
 11
3854.700530682908
 21
2011.958525345622
 31
0.0
  0
LINE
  5
8F
330
20
100
AcDbEntity
  8
_0-0_
  6
DASHED1
 62
   136
100
AcDbLine
 10
3854.700530682908
 20
1411.958525345622
 30
0.0
 11
3889.700530682907
 21
1401.958525345622
 31
0.0
  0
LINE
  5
90
330
20
100
AcDbEntity
  8
_0-0_
  6
DASHED1
 62
   136
100
AcDbLine
 10
3854.700530682908
 20
2011.958525345622
 30
0.0
 11
3854.700530682908
 21
1411.958525345622
 31
0.0
  0
LINE
  5
91
330
20
100
AcDbEntity
  8
_0-0_
  6
DASHED1
 62
   136
100
AcDbLine
 10
2849.700530682908
 20
2021.958525345622
 30
0.0
 11
2884.700530682908
 21
2011.958525345622
 31
0.0
  0
LINE
  5
92
330
20
100
AcDbEntity
  8
_0-0_
  6
DASHED1
 62
   136
100
AcDbLine
 10
2884.700530682908
 20
2011.958525345622
 30
0.0
 11
2884.700530682908
 21
1411.958525345622
 31
0.0
  0
LINE
  5
93
330
20
100
AcDbEntity
  8
_0-0_
  6
DASHED1
 62
   136
100
AcDbLine
 10
2884.700530682908
 20
1411.958525345622
 30
0.0
 11
2849.700530682908
 21
1401.958525345622
 31
0.0
  0
LINE
  5
94
330
20
100
AcDbEntity
  8
_0-0_
  6
Continuous
 62
     4
100
AcDbLine
 10
3651.60831691868
 20
1814.564568343323
 30
0.0
 11
3087.792744447136
 21
1609.352482347921
 31
0.0
  0
LINE
  5
95
330
20
100
AcDbEntity
  8
_0-0_
  6
Continuous
 62
     4
100
AcDbLine
 10
3778.466820724778
 20
1860.737287692288
 30
0.0
 11
3651.60831691868
 21
1814.564568343323
 31
0.0
  0
LINE
  5
96
330
20
100
AcDbEntity
  8
_0-0_
  6
Continuous
 62
     4
100
AcDbLine
 10
3087.792744447136
 20
1609.352482347921
 30
0.0
 11
2960.934240641037
 21
1563.179762998956
 31
0.0
  0
LINE
  5
97
330
20
100
AcDbEntity
  8
_0-0_
  6
Continuous
 62
     4
100
AcDbLine
 10
3778.466820724778
 20
1860.737287692288
 30
0.0
 11
3760.035899728276
 21
1847.831817874389
 31
0.0
  0
LINE
  5
98
330
20
100
AcDbEntity
  8
_0-0_
  6
Continuous
 62
     4
100
AcDbLine
 10
3778.466820724778
 20
1860.737287692288
 30
0.0
 11
3756.052440017713
 21
1858.776283480465
 31
0.0
  0
LINE
  5
99
330
20
100
AcDbEntity
  8
_0-0_
  6
Continuous
 62
     4
100
AcDbLine
 10
3651.60831691868
 20
1814.564568343323
 30
0.0
 11
3670.039237915183
 21
1827.47003816122
 31
0.0
  0
LINE
  5
9A
330
20
100
AcDbEntity
  8
_0-0_
  6
Continuous
 62
     4
100
AcDbLine
 10
3651.60831691868
 20
1814.564568343323
 30
0.0
 11
3674.022697625745
 21
1816.525572555145
 31
0.0
  0
LINE
  5
9B
330
20
100
AcDbEntity
  8
_0-0_
  6
Continuous
 62
     4
100
AcDbLine
 10
3651.60831691868
 20
1814.564568343323
 30
0.0
 11
3633.177395922178
 21
1801.659098525425
 31
0.0
  0
LINE
  5
9C
330
20
100
AcDbEntity
  8
_0-0_
  6
Continuous
 62
     4
100
AcDbLine
 10
3651.60831691868
 20
1814.564568343323
 30
0.0
 11
3629.193936211617
 21
1812.6035641315
 31
0.0
  0
LINE
  5
9D
330
20
100
AcDbEntity
  8
_0-0_
  6
Continuous
 62
     4
100
AcDbLine
 10
3087.792744447136
 20
1609.352482347921
 30
0.0
 11
3106.223665443638
 21
1622.25795216582
 31
0.0
  0
LINE
  5
9E
330
20
100
AcDbEntity
  8
_0-0_
  6
Continuous
 62
     4
100
AcDbLine
 10
3087.792744447136
 20
1609.352482347921
 30
0.0
 11
3110.2071251542
 21
1611.313486559744
 31
0.0
  0
LINE
  5
9F
330
20
100
AcDbEntity
  8
_0-0_
  6
Continuous
 62
     4
100
AcDbLine
 10
3087.792744447136
 20
1609.352482347921
 30
0.0
 11
3069.361823450633
 21
1596.447012530023
 31
0.0
  0
LINE
  5
A0
330
20
100
AcDbEntity
  8
_0-0_
  6
Continuous
 62
     4
100
AcDbLine
 10
3087.792744447136
 20
1609.352482347921
 30
0.0
 11
3065.378363740072
 21
1607.391478136099
 31
0.0
  0
LINE
  5
A1
330
20
100
AcDbEntity
  8
_0-0_
  6
Continuous
 62
     4
100
AcDbLine
 10
2960.934240641037
 20
1563.179762998956
 30
0.0
 11
2979.36516163754
 21
1576.085232816855
 31
0.0
  0
LINE
  5
A2
330
20
100
AcDbEntity
  8
_0-0_
  6
Continuous
 62
     4
100
AcDbLine
 10
2960.934240641037
 20
1563.179762998956
 30
0.0
 11
2983.348621348101
 21
1565.140767210779
 31
0.0
  0
LINE
  5
A3
330
20
100
AcDbEntity
  8
_0-0_
  6
Continuous
 62
     4
100
AcDbLine
 10
3669.700530682908
 20
1171.958525345622
 30
0.0
 11
3669.700530682908
 21
1061.958525345622
 31
0.0
  0
LINE
  5
A4
330
20
100
AcDbEntity
  8
_0-0_
  6
Continuous
 62
     4
100
AcDbLine
 10
3069.700530682908
 20
1171.958525345622
 30
0.0
 11
3069.700530682908
 21
1061.958525345622
 31
0.0
  0
LINE
  5
A5
330
20
100
AcDbEntity
  8
_0-0_
  6
Continuous
 62
     4
100
AcDbLine
 10
3069.700530682908
 20
1071.958525345622
 30
0.0
 11
3669.700530682908
 21
1071.958525345622
 31
0.0
  0
LINE
  5
A6
330
20
100
AcDbEntity
  8
_0-0_
  6
Continuous
 62
     4
100
AcDbLine
 10
3069.700530682908
 20
1071.958525345622
 30
0.0
 11
3091.433861774413
 21
1077.781953860428
 31
0.0
  0
LINE
  5
A7
330
20
100
AcDbEntity
  8
_0-0_
  6
Continuous
 62
     4
100
AcDbLine
 10
3069.700530682908
 20
1071.958525345622
 30
0.0
 11
3091.433861774413
 21
1066.135096830815
 31
0.0
  0
LINE
  5
A8
330
20
100
AcDbEntity
  8
_0-0_
  6
Continuous
 62
     4
100
AcDbLine
 10
3669.700530682908
 20
1071.958525345622
 30
0.0
 11
3647.967199591404
 21
1066.135096830815
 31
0.0
  0
LINE
  5
A9
330
20
100
AcDbEntity
  8
_0-0_
  6
Continuous
 62
     4
100
AcDbLine
 10
3669.700530682908
 20
1071.958525345622
 30
0.0
 11
3647.967199591404
 21
1077.781953860428
 31
0.0
  0
LINE
  5
AA
330
20
100
AcDbEntity
  8
_0-0_
  6
Continuous
 62
     4
100
AcDbLine
 10
2919.700530682908
 20
2251.958525345622
 30
0.0
 11
2919.700530682908
 21
2471.958525345622
 31
0.0
  0
LINE
  5
AB
330
20
100
AcDbEntity
  8
_0-0_
  6
Continuous
 62
     4
100
AcDbLine
 10
3819.700530682908
 20
2471.958525345622
 30
0.0
 11
3819.700530682908
 21
2251.958525345622
 31
0.0
  0
LINE
  5
AC
330
20
100
AcDbEntity
  8
_0-0_
  6
Continuous
 62
     4
100
AcDbLine
 10
2849.700530682908
 20
2461.958525345622
 30
0.0
 11
2919.700530682908
 21
2461.958525345622
 31
0.0
  0
LINE
  5
AD
330
20
100
AcDbEntity
  8
_0-0_
  6
Continuous
 62
     4
100
AcDbLine
 10
3819.700530682908
 20
2461.958525345622
 30
0.0
 11
3889.700530682907
 21
2461.958525345622
 31
0.0
  0
LINE
  5
AE
330
20
100
AcDbEntity
  8
_0-0_
  6
Continuous
 62
     4
100
AcDbLine
 10
3819.700530682908
 20
2461.958525345622
 30
0.0
 11
2919.700530682908
 21
2461.958525345622
 31
0.0
  0
LINE
  5
AF
330
20
100
AcDbEntity
  8
_0-0_
  6
Continuous
 62
     4
100
AcDbLine
 10
2969.700530682908
 20
2251.958525345622
 30
0.0
 11
2969.700530682908
 21
2361.958525345622
 31
0.0
  0
LINE
  5
B0
330
20
100
AcDbEntity
  8
_0-0_
  6
Continuous
 62
     4
100
AcDbLine
 10
3769.700530682907
 20
2361.958525345622
 30
0.0
 11
3769.700530682907
 21
2251.958525345622
 31
0.0
  0
LINE
  5
B1
330
20
100
AcDbEntity
  8
_0-0_
  6
Continuous
 62
     4
100
AcDbLine
 10
3729.700530682908
 20
2351.958525345622
 30
0.0
 11
3769.700530682907
 21
2351.958525345622
 31
0.0
  0
LINE
  5
B2
330
20
100
AcDbEntity
  8
_0-0_
  6
Continuous
 62
     4
100
AcDbLine
 10
3819.700530682908
 20
2351.958525345622
 30
0.0
 11
3859.700530682907
 21
2351.958525345622
 31
0.0
  0
LINE
  5
B3
330
20
100
AcDbEntity
  8
_0-0_
  6
Continuous
 62
     4
100
AcDbLine
 10
2879.700530682908
 20
2351.958525345622
 30
0.0
 11
2919.700530682908
 21
2351.958525345622
 31
0.0
  0
LINE
  5
B4
330
20
100
AcDbEntity
  8
_0-0_
  6
Continuous
 62
     4
100
AcDbLine
 10
2969.700530682908
 20
2351.958525345622
 30
0.0
 11
3009.700530682908
 21
2351.958525345622
 31
0.0
  0
LINE
  5
B5
330
20
100
AcDbEntity
  8
_0-0_
  6
Continuous
 62
     4
100
AcDbLine
 10
2969.700530682908
 20
2351.958525345622
 30
0.0
 11
2919.700530682908
 21
2351.958525345622
 31
0.0
  0
LINE
  5
B6
330
20
100
AcDbEntity
  8
_0-0_
  6
Continuous
 62
     4
100
AcDbLine
 10
3819.700530682908
 20
2351.958525345622
 30
0.0
 11
3769.700530682907
 21
2351.958525345622
 31
0.0
  0
LINE
  5
B7
330
20
100
AcDbEntity
  8
_0-0_
  6
Continuous
 62
     4
100
AcDbLine
 10
2849.700530682908
 20
2571.958525345622
 30
0.0
 11
2871.433861774411
 21
2577.781953860429
 31
0.0
  0
LINE
  5
B8
330
20
100
AcDbEntity
  8
_0-0_
  6
Continuous
 62
     4
100
AcDbLine
 10
2849.700530682908
 20
2571.958525345622
 30
0.0
 11
2871.433861774411
 21
2566.135096830815
 31
0.0
  0
LINE
  5
B9
330
20
100
AcDbEntity
  8
_0-0_
  6
Continuous
 62
     4
100
AcDbLine
 10
3889.700530682907
 20
2571.958525345622
 30
0.0
 11
3867.967199591404
 21
2566.135096830815
 31
0.0
  0
LINE
  5
BA
330
20
100
AcDbEntity
  8
_0-0_
  6
Continuous
 62
     4
100
AcDbLine
 10
3889.700530682907
 20
2571.958525345622
 30
0.0
 11
3867.967199591404
 21
2577.781953860429
 31
0.0
  0
LINE
  5
BB
330
20
100
AcDbEntity
  8
_0-0_
  6
Continuous
 62
     4
100
AcDbLine
 10
3819.700530682908
 20
2461.958525345622
 30
0.0
 11
3841.433861774413
 21
2467.781953860429
 31
0.0
  0
LINE
  5
BC
330
20
100
AcDbEntity
  8
_0-0_
  6
Continuous
 62
     4
100
AcDbLine
 10
3819.700530682908
 20
2461.958525345622
 30
0.0
 11
3841.433861774413
 21
2456.135096830815
 31
0.0
  0
LINE
  5
BD
330
20
100
AcDbEntity
  8
_0-0_
  6
Continuous
 62
     4
100
AcDbLine
 10
3889.700530682907
 20
2581.958525345622
 30
0.0
 11
3895.523959197714
 21
2560.225194254118
 31
0.0
  0
LINE
  5
BE
330
20
100
AcDbEntity
  8
_0-0_
  6
Continuous
 62
     4
100
AcDbLine
 10
3889.700530682907
 20
2581.958525345622
 30
0.0
 11
3883.877102168101
 21
2560.225194254118
 31
0.0
  0
LINE
  5
BF
330
20
100
AcDbEntity
  8
_0-0_
  6
Continuous
 62
     4
100
AcDbLine
 10
3889.700530682907
 20
2461.958525345622
 30
0.0
 11
3867.967199591404
 21
2456.135096830815
 31
0.0
  0
LINE
  5
C0
330
20
100
AcDbEntity
  8
_0-0_
  6
Continuous
 62
     4
100
AcDbLine
 10
3889.700530682907
 20
2461.958525345622
 30
0.0
 11
3867.967199591404
 21
2467.781953860429
 31
0.0
  0
LINE
  5
C1
330
20
100
AcDbEntity
  8
_0-0_
  6
Continuous
 62
     4
100
AcDbLine
 10
3819.700530682908
 20
2461.958525345622
 30
0.0
 11
3797.967199591404
 21
2456.135096830815
 31
0.0
  0
LINE
  5
C2
330
20
100
AcDbEntity
  8
_0-0_
  6
Continuous
 62
     4
100
AcDbLine
 10
3819.700530682908
 20
2461.958525345622
 30
0.0
 11
3797.967199591404
 21
2467.781953860429
 31
0.0
  0
LINE
  5
C3
330
20
100
AcDbEntity
  8
_0-0_
  6
Continuous
 62
     4
100
AcDbLine
 10
2919.700530682908
 20
2461.958525345622
 30
0.0
 11
2941.433861774413
 21
2467.781953860429
 31
0.0
  0
LINE
  5
C4
330
20
100
AcDbEntity
  8
_0-0_
  6
Continuous
 62
     4
100
AcDbLine
 10
2919.700530682908
 20
2461.958525345622
 30
0.0
 11
2941.433861774413
 21
2456.135096830815
 31
0.0
  0
LINE
  5
C5
330
20
100
AcDbEntity
  8
_0-0_
  6
Continuous
 62
     4
100
AcDbLine
 10
2919.700530682908
 20
2461.958525345622
 30
0.0
 11
2897.967199591404
 21
2456.135096830815
 31
0.0
  0
LINE
  5
C6
330
20
100
AcDbEntity
  8
_0-0_
  6
Continuous
 62
     4
100
AcDbLine
 10
2919.700530682908
 20
2461.958525345622
 30
0.0
 11
2897.967199591404
 21
2467.781953860429
 31
0.0
  0
LINE
  5
C7
330
20
100
AcDbEntity
  8
_0-0_
  6
Continuous
 62
     4
100
AcDbLine
 10
2849.700530682908
 20
2461.958525345622
 30
0.0
 11
2871.433861774411
 21
2467.781953860429
 31
0.0
  0
LINE
  5
C8
330
20
100
AcDbEntity
  8
_0-0_
  6
Continuous
 62
     4
100
AcDbLine
 10
2849.700530682908
 20
2461.958525345622
 30
0.0
 11
2871.433861774411
 21
2456.135096830815
 31
0.0
  0
LINE
  5
C9
330
20
100
AcDbEntity
  8
_0-0_
  6
Continuous
 62
     4
100
AcDbLine
 10
2919.700530682908
 20
2351.958525345622
 30
0.0
 11
2897.967199591404
 21
2346.135096830816
 31
0.0
  0
LINE
  5
CA
330
20
100
AcDbEntity
  8
_0-0_
  6
Continuous
 62
     4
100
AcDbLine
 10
2919.700530682908
 20
2351.958525345622
 30
0.0
 11
2897.967199591404
 21
2357.781953860429
 31
0.0
  0
LINE
  5
CB
330
20
100
AcDbEntity
  8
_0-0_
  6
Continuous
 62
     4
100
AcDbLine
 10
2969.700530682908
 20
2351.958525345622
 30
0.0
 11
2991.433861774412
 21
2357.781953860429
 31
0.0
  0
LINE
  5
CC
330
20
100
AcDbEntity
  8
_0-0_
  6
Continuous
 62
     4
100
AcDbLine
 10
2969.700530682908
 20
2351.958525345622
 30
0.0
 11
2991.433861774412
 21
2346.135096830816
 31
0.0
  0
LINE
  5
CD
330
20
100
AcDbEntity
  8
_0-0_
  6
Continuous
 62
     4
100
AcDbLine
 10
3769.700530682907
 20
2351.958525345622
 30
0.0
 11
3747.967199591404
 21
2346.135096830816
 31
0.0
  0
LINE
  5
CE
330
20
100
AcDbEntity
  8
_0-0_
  6
Continuous
 62
     4
100
AcDbLine
 10
3769.700530682907
 20
2351.958525345622
 30
0.0
 11
3747.967199591404
 21
2357.781953860429
 31
0.0
  0
LINE
  5
CF
330
20
100
AcDbEntity
  8
_0-0_
  6
Continuous
 62
     4
100
AcDbLine
 10
3819.700530682908
 20
2351.958525345622
 30
0.0
 11
3841.433861774413
 21
2357.781953860429
 31
0.0
  0
LINE
  5
D0
330
20
100
AcDbEntity
  8
_0-0_
  6
Continuous
 62
     4
100
AcDbLine
 10
3819.700530682908
 20
2351.958525345622
 30
0.0
 11
3841.433861774413
 21
2346.135096830816
 31
0.0
  0
LINE
  5
D1
330
20
100
AcDbEntity
  8
_0-0_
  6
Continuous
 62
     4
100
AcDbLine
 10
2829.700530682908
 20
1261.958525345622
 30
0.0
 11
2609.700530682908
 21
1261.958525345622
 31
0.0
  0
LINE
  5
D2
330
20
100
AcDbEntity
  8
_0-0_
  6
Continuous
 62
     4
100
AcDbLine
 10
2829.700530682908
 20
2161.958525345622
 30
0.0
 11
2609.700530682908
 21
2161.958525345622
 31
0.0
  0
LINE
  5
D3
330
20
100
AcDbEntity
  8
_0-0_
  6
Continuous
 62
     4
100
AcDbLine
 10
2619.700530682908
 20
2231.958525345622
 30
0.0
 11
2619.700530682908
 21
2161.958525345622
 31
0.0
  0
LINE
  5
D4
330
20
100
AcDbEntity
  8
_0-0_
  6
Continuous
 62
     4
100
AcDbLine
 10
2619.700530682908
 20
1261.958525345622
 30
0.0
 11
2619.700530682908
 21
1191.958525345622
 31
0.0
  0
LINE
  5
D5
330
20
100
AcDbEntity
  8
_0-0_
  6
Continuous
 62
     4
100
AcDbLine
 10
2619.700530682908
 20
2161.958525345622
 30
0.0
 11
2619.700530682908
 21
1261.958525345622
 31
0.0
  0
LINE
  5
D6
330
20
100
AcDbEntity
  8
_0-0_
  6
Continuous
 62
     4
100
AcDbLine
 10
2829.700530682908
 20
1311.958525345622
 30
0.0
 11
2719.700530682907
 21
1311.958525345622
 31
0.0
  0
LINE
  5
D7
330
20
100
AcDbEntity
  8
_0-0_
  6
Continuous
 62
     4
100
AcDbLine
 10
2829.700530682908
 20
2111.958525345622
 30
0.0
 11
2719.700530682907
 21
2111.958525345622
 31
0.0
  0
LINE
  5
D8
330
20
100
AcDbEntity
  8
_0-0_
  6
Continuous
 62
     4
100
AcDbLine
 10
2729.700530682908
 20
2201.958525345622
 30
0.0
 11
2729.700530682908
 21
2161.958525345622
 31
0.0
  0
LINE
  5
D9
330
20
100
AcDbEntity
  8
_0-0_
  6
Continuous
 62
     4
100
AcDbLine
 10
2729.700530682908
 20
2111.958525345622
 30
0.0
 11
2729.700530682908
 21
2071.958525345622
 31
0.0
  0
LINE
  5
DA
330
20
100
AcDbEntity
  8
_0-0_
  6
Continuous
 62
     4
100
AcDbLine
 10
2729.700530682908
 20
1351.958525345622
 30
0.0
 11
2729.700530682908
 21
1311.958525345622
 31
0.0
  0
LINE
  5
DB
330
20
100
AcDbEntity
  8
_0-0_
  6
Continuous
 62
     4
100
AcDbLine
 10
2729.700530682908
 20
1261.958525345622
 30
0.0
 11
2729.700530682908
 21
1221.958525345622
 31
0.0
  0
LINE
  5
DC
330
20
100
AcDbEntity
  8
_0-0_
  6
Continuous
 62
     4
100
AcDbLine
 10
2729.700530682908
 20
2161.958525345622
 30
0.0
 11
2729.700530682908
 21
2111.958525345622
 31
0.0
  0
LINE
  5
DD
330
20
100
AcDbEntity
  8
_0-0_
  6
Continuous
 62
     4
100
AcDbLine
 10
2729.700530682908
 20
1311.958525345622
 30
0.0
 11
2729.700530682908
 21
1261.958525345622
 31
0.0
  0
LINE
  5
DE
330
20
100
AcDbEntity
  8
_0-0_
  6
Continuous
 62
     4
100
AcDbLine
 10
2509.700530682908
 20
2231.958525345622
 30
0.0
 11
2515.523959197715
 21
2210.225194254118
 31
0.0
  0
LINE
  5
DF
330
20
100
AcDbEntity
  8
_0-0_
  6
Continuous
 62
     4
100
AcDbLine
 10
2509.700530682908
 20
2231.958525345622
 30
0.0
 11
2503.877102168101
 21
2210.225194254118
 31
0.0
  0
LINE
  5
E0
330
20
100
AcDbEntity
  8
_0-0_
  6
Continuous
 62
     4
100
AcDbLine
 10
2619.700530682908
 20
2231.958525345622
 30
0.0
 11
2625.523959197715
 21
2210.225194254118
 31
0.0
  0
LINE
  5
E1
330
20
100
AcDbEntity
  8
_0-0_
  6
Continuous
 62
     4
100
AcDbLine
 10
2619.700530682908
 20
2231.958525345622
 30
0.0
 11
2613.877102168101
 21
2210.225194254118
 31
0.0
  0
LINE
  5
E2
330
20
100
AcDbEntity
  8
_0-0_
  6
Continuous
 62
     4
100
AcDbLine
 10
2619.700530682908
 20
2161.958525345622
 30
0.0
 11
2613.877102168101
 21
2183.691856437127
 31
0.0
  0
LINE
  5
E3
330
20
100
AcDbEntity
  8
_0-0_
  6
Continuous
 62
     4
100
AcDbLine
 10
2619.700530682908
 20
2161.958525345622
 30
0.0
 11
2625.523959197715
 21
2183.691856437127
 31
0.0
  0
LINE
  5
E4
330
20
100
AcDbEntity
  8
_0-0_
  6
Continuous
 62
     4
100
AcDbLine
 10
2729.700530682908
 20
2161.958525345622
 30
0.0
 11
2723.877102168101
 21
2183.691856437127
 31
0.0
  0
LINE
  5
E5
330
20
100
AcDbEntity
  8
_0-0_
  6
Continuous
 62
     4
100
AcDbLine
 10
2729.700530682908
 20
2161.958525345622
 30
0.0
 11
2735.523959197716
 21
2183.691856437127
 31
0.0
  0
LINE
  5
E6
330
20
100
AcDbEntity
  8
_0-0_
  6
Continuous
 62
     4
100
AcDbLine
 10
2729.700530682908
 20
2111.958525345622
 30
0.0
 11
2735.523959197716
 21
2090.225194254117
 31
0.0
  0
LINE
  5
E7
330
20
100
AcDbEntity
  8
_0-0_
  6
Continuous
 62
     4
100
AcDbLine
 10
2729.700530682908
 20
2111.958525345622
 30
0.0
 11
2723.877102168101
 21
2090.225194254117
 31
0.0
  0
LINE
  5
E8
330
20
100
AcDbEntity
  8
_0-0_
  6
Continuous
 62
     4
100
AcDbLine
 10
2729.700530682908
 20
1311.958525345622
 30
0.0
 11
2723.877102168101
 21
1333.691856437126
 31
0.0
  0
LINE
  5
E9
330
20
100
AcDbEntity
  8
_0-0_
  6
Continuous
 62
     4
100
AcDbLine
 10
2729.700530682908
 20
1311.958525345622
 30
0.0
 11
2735.523959197716
 21
1333.691856437126
 31
0.0
  0
LINE
  5
EA
330
20
100
AcDbEntity
  8
_0-0_
  6
Continuous
 62
     4
100
AcDbLine
 10
2729.700530682908
 20
1261.958525345622
 30
0.0
 11
2735.523959197716
 21
1240.225194254118
 31
0.0
  0
LINE
  5
EB
330
20
100
AcDbEntity
  8
_0-0_
  6
Continuous
 62
     4
100
AcDbLine
 10
2729.700530682908
 20
1261.958525345622
 30
0.0
 11
2723.877102168101
 21
1240.225194254118
 31
0.0
  0
LINE
  5
EC
330
20
100
AcDbEntity
  8
_0-0_
  6
Continuous
 62
     4
100
AcDbLine
 10
2619.700530682908
 20
1261.958525345622
 30
0.0
 11
2613.877102168101
 21
1283.691856437126
 31
0.0
  0
LINE
  5
ED
330
20
100
AcDbEntity
  8
_0-0_
  6
Continuous
 62
     4
100
AcDbLine
 10
2619.700530682908
 20
1261.958525345622
 30
0.0
 11
2625.523959197715
 21
1283.691856437126
 31
0.0
  0
LINE
  5
EE
330
20
100
AcDbEntity
  8
_0-0_
  6
Continuous
 62
     4
100
AcDbLine
 10
2619.700530682908
 20
1261.958525345622
 30
0.0
 11
2625.523959197715
 21
1240.225194254118
 31
0.0
  0
LINE
  5
EF
330
20
100
AcDbEntity
  8
_0-0_
  6
Continuous
 62
     4
100
AcDbLine
 10
2619.700530682908
 20
1261.958525345622
 30
0.0
 11
2613.877102168101
 21
1240.225194254118
 31
0.0
  0
LINE
  5
F0
330
20
100
AcDbEntity
  8
_0-0_
  6
Continuous
 62
     4
100
AcDbLine
 10
2619.700530682908
 20
1191.958525345622
 30
0.0
 11
2613.877102168101
 21
1213.691856437126
 31
0.0
  0
LINE
  5
F1
330
20
100
AcDbEntity
  8
_0-0_
  6
Continuous
 62
     4
100
AcDbLine
 10
2619.700530682908
 20
1191.958525345622
 30
0.0
 11
2625.523959197715
 21
1213.691856437126
 31
0.0
  0
LINE
  5
F2
330
20
100
AcDbEntity
  8
_0-0_
  6
Continuous
 62
     4
100
AcDbLine
 10
2509.700530682908
 20
1191.958525345622
 30
0.0
 11
2503.877102168101
 21
1213.691856437126
 31
0.0
  0
LINE
  5
F3
330
20
100
AcDbEntity
  8
_0-0_
  6
Continuous
 62
     4
100
AcDbLine
 10
2509.700530682908
 20
1191.958525345622
 30
0.0
 11
2515.523959197715
 21
1213.691856437126
 31
0.0
  0
LINE
  5
F4
330
20
100
AcDbEntity
  8
_0-0_
  6
Continuous
 62
     4
100
AcDbLine
 10
3579.700530682908
 20
1231.958525345622
 30
0.0
 11
3739.700530682907
 21
1071.958525345622
 31
0.0
  0
LINE
  5
F5
330
20
100
AcDbEntity
  8
_0-0_
  6
Continuous
 62
     4
100
AcDbLine
 10
3579.700530682908
 20
1231.958525345622
 30
0.0
 11
3599.186102268058
 21
1220.708525345622
 31
0.0
  0
LINE
  5
F6
330
20
100
AcDbEntity
  8
_0-0_
  6
Continuous
 62
     4
100
AcDbLine
 10
3579.700530682908
 20
1231.958525345622
 30
0.0
 11
3590.950530682909
 21
1212.472953760472
 31
0.0
  0
LINE
  5
F7
330
20
100
AcDbEntity
  8
_0-0_
  6
Continuous
 62
     4
100
AcDbLine
 10
3739.700530682907
 20
1071.958525345622
 30
0.0
 11
4203.675549528969
 21
1071.958525345622
 31
0.0
  0
TEXT
  5
F8
330
20
100
AcDbEntity
  8
_0-0_
 62
     7
100
AcDbText
 10
3326.699657336692
 20
2586.626487874026
 30
0.0
 40
45.0
  1
1040
100
AcDbText
  0
TEXT
  5
F9
330
20
100
AcDbEntity
  8
_0-0_
 62
     7
100
AcDbText
 10
3336.73994009912
 20
2471.163236106097
 30
0.0
 40
45.0
  1
900
100
AcDbText
  0
TEXT
  5
FA
330
20
100
AcDbEntity
  8
_0-0_
 62
     7
100
AcDbText
 10
2864.846650264976
 20
2472.836616566502
 30
0.0
 40
45.0
  1
70
100
AcDbText
  0
TEXT
  5
FB
330
20
100
AcDbEntity
  8
_0-0_
 62
     7
100
AcDbText
 10
3805.285494764529
 20
2474.509997026907
 30
0.0
 40
45.0
  1
70
100
AcDbText
  0
TEXT
  5
FC
330
20
100
AcDbEntity
  8
_0-0_
 62
     7
100
AcDbText
 10
3747.669018063098
 20
2364.066886640192
 30
0.0
 40
45.0
  1
50
100
AcDbText
  0
TEXT
  5
FD
330
20
100
AcDbEntity
  8
_0-0_
 62
     7
100
AcDbText
 10
2925.088346839548
 20
2360.720125719383
 30
0.0
 40
45.0
  1
50
100
AcDbText
  0
TEXT
  5
FE
330
20
100
AcDbEntity
  8
_0-0_
 62
     7
100
AcDbText
 10
2608.409797243734
 20
2155.585017592093
 30
0.0
 40
45.0
  1
70
 50
90.0
100
AcDbText
  0
TEXT
  5
FF
330
20
100
AcDbEntity
  8
_0-0_
 62
     7
100
AcDbText
 10
2715.271507521802
 20
2082.123277032424
 30
0.0
 40
45.0
  1
50
 50
90.0
100
AcDbText
  0
TEXT
  5
100
330
20
100
AcDbEntity
  8
_0-0_
 62
     7
100
AcDbText
 10
2496.114440680341
 20
1666.754891546807
 30
0.0
 40
45.0
  1
1040
 50
90.0
100
AcDbText
  0
TEXT
  5
101
330
20
100
AcDbEntity
  8
_0-0_
 62
     7
100
AcDbText
 10
2606.598581815292
 20
1675.810968689016
 30
0.0
 40
45.0
  1
900
 50
90.0
100
AcDbText
  0
TEXT
  5
102
330
20
100
AcDbEntity
  8
_0-0_
 62
     7
100
AcDbText
 10
2718.893938378686
 20
1270.102556308527
 30
0.0
 40
45.0
  1
50
 50
90.0
100
AcDbText
  0
TEXT
  5
103
330
20
100
AcDbEntity
  8
_0-0_
 62
     7
100
AcDbText
 10
2608.409797243734
 20
1204.894957294141
 30
0.0
 40
45.0
  1
70
 50
90.0
100
AcDbText
  0
TEXT
  5
104
330
20
100
AcDbEntity
  8
_0-0_
 62
     7
100
AcDbText
 10
3285.402633608649
 20
1704.354624370378
 30
0.0
 40
45.0
  1
φ600
 50
19.99999999999997
100
AcDbText
  0
TEXT
  5
105
330
20
100
AcDbEntity
  8
_0-0_
 62
     7
100
AcDbText
 10
2973.831652407437
 20
1584.150948451398
 30
0.0
 40
45.0
  1
135
 50
19.99999999999999
100
AcDbText
  0
TEXT
  5
106
330
20
100
AcDbEntity
  8
_0-0_
 62
     7
100
AcDbText
 10
3656.504366413611
 20
1837.592433822741
 30
0.0
 40
45.0
  1
135
 50
19.99999999999999
100
AcDbText
  0
TEXT
  5
107
330
20
100
AcDbEntity
  8
_0-0_
 62
     7
100
AcDbText
 10
3335.320818860614
 20
1080.09329408142
 30
0.0
 40
45.0
  1
600
100
AcDbText
  0
TEXT
  5
108
330
20
100
AcDbEntity
  8
_0-0_
 62
     7
100
AcDbText
 10
3760.433437123804
 20
1081.127290751259
 30
0.0
 40
45.0
  1
インサート　M12
100
AcDbText
  0
TEXT
  5
109
330
20
100
AcDbEntity
  8
_0-0_
 62
     7
100
AcDbText
 10
3882.313624200981
 20
410.5873717853428
 30
0.0
 40
45.0
  1
1380kg
100
AcDbText
  0
LINE
  5
10A
330
20
100
AcDbEntity
  8
_0-0_
  6
DASHED1
 62
   136
100
AcDbLine
 10
1085.976143090009
 20
2413.03503921136
 30
0.0
 11
1085.976143090009
 21
2313.03503921136
 31
0.0
  0
LINE
  5
10B
330
20
100
AcDbEntity
  8
_0-0_
  6
DASHED1
 62
   136
100
AcDbLine
 10
1685.97614309001
 20
2413.03503921136
 30
0.0
 11
1685.97614309001
 21
2313.03503921136
 31
0.0
  0
LINE
  5
10C
330
20
100
AcDbEntity
  8
_0-0_
  6
Continuous
 62
     4
100
AcDbLine
 10
930.9761430900096
 20
2413.03503921136
 30
0.0
 11
405.9761430900091
 21
2413.03503921136
 31
0.0
  0
LINE
  5
10D
330
20
100
AcDbEntity
  8
_0-0_
  6
Continuous
 62
     7
100
AcDbLine
 10
955.5011118984815
 20
2403.534415380799
 30
0.0
 11
950.9761430900097
 21
2313.03503921136
 31
0.0
  0
ARC
  5
10E
330
20
100
AcDbEntity
  8
_0-0_
  6
Continuous
 62
     7
100
AcDbCircle
 10
965.4886352872599
 20
2403.03503921136
 30
0.0
 40
10.0
100
AcDbArc
 50
90.0
 51
177.1375947738882
  0
LINE
  5
10F
330
20
100
AcDbEntity
  8
_0-0_
  6
Continuous
 62
     7
100
AcDbLine
 10
1806.463650892759
 20
2413.03503921136
 30
0.0
 11
965.4886352872599
 21
2413.03503921136
 31
0.0
  0
LINE
  5
110
330
20
100
AcDbEntity
  8
_0-0_
  6
Continuous
 62
     7
100
AcDbLine
 10
1816.451174281537
 20
2403.534415380799
 30
0.0
 11
1820.976143090009
 21
2313.03503921136
 31
0.0
  0
ARC
  5
111
330
20
100
AcDbEntity
  8
_0-0_
  6
Continuous
 62
     7
100
AcDbCircle
 10
1806.463650892759
 20
2403.03503921136
 30
0.0
 40
10.0
100
AcDbArc
 50
2.862405226111732
 51
90.00000000000003
  0
LINE
  5
112
330
20
100
AcDbEntity
  8
_0-0_
  6
Continuous
 62
     4
100
AcDbLine
 10
1685.97614309001
 20
2543.035039211361
 30
0.0
 11
1685.97614309001
 21
2433.03503921136
 31
0.0
  0
LINE
  5
113
330
20
100
AcDbEntity
  8
_0-0_
  6
Continuous
 62
     4
100
AcDbLine
 10
1085.976143090009
 20
2543.035039211361
 30
0.0
 11
1085.976143090009
 21
2433.03503921136
 31
0.0
  0
LINE
  5
114
330
20
100
AcDbEntity
  8
_0-0_
  6
Continuous
 62
     4
100
AcDbLine
 10
950.9761430900097
 20
2533.03503921136
 30
0.0
 11
1085.976143090009
 21
2533.03503921136
 31
0.0
  0
LINE
  5
115
330
20
100
AcDbEntity
  8
_0-0_
  6
Continuous
 62
     4
100
AcDbLine
 10
1685.97614309001
 20
2533.03503921136
 30
0.0
 11
1820.976143090009
 21
2533.03503921136
 31
0.0
  0
LINE
  5
116
330
20
100
AcDbEntity
  8
_0-0_
  6
Continuous
 62
     4
100
AcDbLine
 10
1685.97614309001
 20
2533.03503921136
 30
0.0
 11
1085.976143090009
 21
2533.03503921136
 31
0.0
  0
LINE
  5
117
330
20
100
AcDbEntity
  8
_0-0_
  6
Continuous
 62
     4
100
AcDbLine
 10
1685.97614309001
 20
2533.03503921136
 30
0.0
 11
1707.709474181514
 21
2538.858467726167
 31
0.0
  0
LINE
  5
118
330
20
100
AcDbEntity
  8
_0-0_
  6
Continuous
 62
     4
100
AcDbLine
 10
1685.97614309001
 20
2533.03503921136
 30
0.0
 11
1707.709474181514
 21
2527.211610696554
 31
0.0
  0
LINE
  5
119
330
20
100
AcDbEntity
  8
_0-0_
  6
Continuous
 62
     4
100
AcDbLine
 10
1820.976143090009
 20
2533.03503921136
 30
0.0
 11
1799.242811998506
 21
2527.211610696554
 31
0.0
  0
LINE
  5
11A
330
20
100
AcDbEntity
  8
_0-0_
  6
Continuous
 62
     4
100
AcDbLine
 10
1820.976143090009
 20
2533.03503921136
 30
0.0
 11
1799.242811998506
 21
2538.858467726167
 31
0.0
  0
LINE
  5
11B
330
20
100
AcDbEntity
  8
_0-0_
  6
Continuous
 62
     4
100
AcDbLine
 10
1685.97614309001
 20
2533.03503921136
 30
0.0
 11
1664.242811998505
 21
2527.211610696554
 31
0.0
  0
LINE
  5
11C
330
20
100
AcDbEntity
  8
_0-0_
  6
Continuous
 62
     4
100
AcDbLine
 10
1685.97614309001
 20
2533.03503921136
 30
0.0
 11
1664.242811998505
 21
2538.858467726167
 31
0.0
  0
LINE
  5
11D
330
20
100
AcDbEntity
  8
_0-0_
  6
Continuous
 62
     4
100
AcDbLine
 10
1085.976143090009
 20
2533.03503921136
 30
0.0
 11
1107.709474181514
 21
2538.858467726167
 31
0.0
  0
LINE
  5
11E
330
20
100
AcDbEntity
  8
_0-0_
  6
Continuous
 62
     4
100
AcDbLine
 10
1085.976143090009
 20
2533.03503921136
 30
0.0
 11
1107.709474181514
 21
2527.211610696554
 31
0.0
  0
LINE
  5
11F
330
20
100
AcDbEntity
  8
_0-0_
  6
Continuous
 62
     4
100
AcDbLine
 10
1085.976143090009
 20
2533.03503921136
 30
0.0
 11
1064.242811998505
 21
2527.211610696554
 31
0.0
  0
LINE
  5
120
330
20
100
AcDbEntity
  8
_0-0_
  6
Continuous
 62
     4
100
AcDbLine
 10
1085.976143090009
 20
2533.03503921136
 30
0.0
 11
1064.242811998505
 21
2538.858467726167
 31
0.0
  0
LINE
  5
121
330
20
100
AcDbEntity
  8
_0-0_
  6
Continuous
 62
     4
100
AcDbLine
 10
950.9761430900097
 20
2533.03503921136
 30
0.0
 11
972.7094741815136
 21
2538.858467726167
 31
0.0
  0
LINE
  5
122
330
20
100
AcDbEntity
  8
_0-0_
  6
Continuous
 62
     4
100
AcDbLine
 10
950.9761430900097
 20
2533.03503921136
 30
0.0
 11
972.7094741815136
 21
2527.211610696554
 31
0.0
  0
LINE
  5
123
330
20
100
AcDbEntity
  8
_0-0_
  6
DASHED1
 62
   136
100
AcDbLine
 10
935.9761430900096
 20
2173.03503921136
 30
0.0
 11
1835.976143090009
 21
2173.03503921136
 31
0.0
  0
LINE
  5
124
330
20
100
AcDbEntity
  8
_0-0_
  6
DASHED1
 62
   136
100
AcDbLine
 10
985.9761430900096
 20
2223.03503921136
 30
0.0
 11
935.9761430900096
 21
2173.03503921136
 31
0.0
  0
LINE
  5
125
330
20
100
AcDbEntity
  8
_0-0_
  6
DASHED1
 62
   136
100
AcDbLine
 10
985.9761430900096
 20
2223.03503921136
 30
0.0
 11
1785.976143090009
 21
2223.03503921136
 31
0.0
  0
LINE
  5
126
330
20
100
AcDbEntity
  8
_0-0_
  6
DASHED1
 62
   136
100
AcDbLine
 10
1785.976143090009
 20
2223.03503921136
 30
0.0
 11
1835.976143090009
 21
2173.03503921136
 31
0.0
  0
LINE
  5
127
330
20
100
AcDbEntity
  8
_0-0_
  6
DASHED1
 62
   136
100
AcDbLine
 10
1085.976143090009
 20
2313.03503921136
 30
0.0
 11
1085.976143090009
 21
2223.03503921136
 31
0.0
  0
LINE
  5
128
330
20
100
AcDbEntity
  8
_0-0_
  6
DASHED1
 62
   136
100
AcDbLine
 10
1685.97614309001
 20
2313.03503921136
 30
0.0
 11
1685.97614309001
 21
2223.03503921136
 31
0.0
  0
LINE
  5
129
330
20
100
AcDbEntity
  8
_0-0_
  6
Continuous
 62
     4
100
AcDbLine
 10
1185.976143090009
 20
1843.03503921136
 30
0.0
 11
1385.97614309001
 21
1843.03503921136
 31
0.0
  0
LINE
  5
12A
330
20
100
AcDbEntity
  8
_0-0_
  6
Continuous
 62
     4
100
AcDbLine
 10
1585.976143090009
 20
1843.03503921136
 30
0.0
 11
1385.97614309001
 21
1843.03503921136
 31
0.0
  0
LINE
  5
12B
330
20
100
AcDbEntity
  8
_0-0_
  6
Continuous
 62
     4
100
AcDbLine
 10
1185.976143090009
 20
1943.03503921136
 30
0.0
 11
1185.976143090009
 21
1833.03503921136
 31
0.0
  0
LINE
  5
12C
330
20
100
AcDbEntity
  8
_0-0_
  6
Continuous
 62
     4
100
AcDbLine
 10
1385.97614309001
 20
1943.03503921136
 30
0.0
 11
1385.97614309001
 21
1833.03503921136
 31
0.0
  0
LINE
  5
12D
330
20
100
AcDbEntity
  8
_0-0_
  6
Continuous
 62
     4
100
AcDbLine
 10
1585.976143090009
 20
1943.03503921136
 30
0.0
 11
1585.976143090009
 21
1833.03503921136
 31
0.0
  0
LINE
  5
12E
330
20
100
AcDbEntity
  8
_0-0_
  6
Continuous
 62
     4
100
AcDbLine
 10
1185.976143090009
 20
1843.03503921136
 30
0.0
 11
1207.709474181513
 21
1848.858467726167
 31
0.0
  0
LINE
  5
12F
330
20
100
AcDbEntity
  8
_0-0_
  6
Continuous
 62
     4
100
AcDbLine
 10
1185.976143090009
 20
1843.03503921136
 30
0.0
 11
1207.709474181513
 21
1837.211610696553
 31
0.0
  0
LINE
  5
130
330
20
100
AcDbEntity
  8
_0-0_
  6
Continuous
 62
     4
100
AcDbLine
 10
1385.97614309001
 20
1843.03503921136
 30
0.0
 11
1364.242811998505
 21
1837.211610696553
 31
0.0
  0
LINE
  5
131
330
20
100
AcDbEntity
  8
_0-0_
  6
Continuous
 62
     4
100
AcDbLine
 10
1385.97614309001
 20
1843.03503921136
 30
0.0
 11
1364.242811998505
 21
1848.858467726167
 31
0.0
  0
LINE
  5
132
330
20
100
AcDbEntity
  8
_0-0_
  6
Continuous
 62
     4
100
AcDbLine
 10
1385.97614309001
 20
1843.03503921136
 30
0.0
 11
1407.709474181514
 21
1848.858467726167
 31
0.0
  0
LINE
  5
133
330
20
100
AcDbEntity
  8
_0-0_
  6
Continuous
 62
     4
100
AcDbLine
 10
1385.97614309001
 20
1843.03503921136
 30
0.0
 11
1407.709474181514
 21
1837.211610696553
 31
0.0
  0
LINE
  5
134
330
20
100
AcDbEntity
  8
_0-0_
  6
Continuous
 62
     4
100
AcDbLine
 10
1585.976143090009
 20
1843.03503921136
 30
0.0
 11
1564.242811998506
 21
1837.211610696553
 31
0.0
  0
LINE
  5
135
330
20
100
AcDbEntity
  8
_0-0_
  6
Continuous
 62
     4
100
AcDbLine
 10
1585.976143090009
 20
1843.03503921136
 30
0.0
 11
1564.242811998506
 21
1848.858467726167
 31
0.0
  0
LINE
  5
136
330
20
100
AcDbEntity
  8
_0-0_
  6
Continuous
 62
     4
100
AcDbLine
 10
1925.976143090009
 20
1973.03503921136
 30
0.0
 11
2035.976143090009
 21
1973.03503921136
 31
0.0
  0
LINE
  5
137
330
20
100
AcDbEntity
  8
_0-0_
  6
Continuous
 62
     4
100
AcDbLine
 10
2025.97614309001
 20
1973.03503921136
 30
0.0
 11
2025.97614309001
 21
1773.03503921136
 31
0.0
  0
LINE
  5
138
330
20
100
AcDbEntity
  8
_0-0_
  6
Continuous
 62
     4
100
AcDbLine
 10
2025.97614309001
 20
1973.03503921136
 30
0.0
 11
2031.799571604817
 21
1951.301708119856
 31
0.0
  0
LINE
  5
139
330
20
100
AcDbEntity
  8
_0-0_
  6
Continuous
 62
     4
100
AcDbLine
 10
2025.97614309001
 20
1973.03503921136
 30
0.0
 11
2020.152714575203
 21
1951.301708119856
 31
0.0
  0
LINE
  5
13A
330
20
100
AcDbEntity
  8
_0-0_
  6
Continuous
 62
     4
100
AcDbLine
 10
845.9761430900098
 20
2313.03503921136
 30
0.0
 11
515.9761430900093
 21
2313.03503921136
 31
0.0
  0
LINE
  5
13B
330
20
100
AcDbEntity
  8
_0-0_
  6
Continuous
 62
     4
100
AcDbLine
 10
845.9761430900098
 20
2223.03503921136
 30
0.0
 11
515.9761430900093
 21
2223.03503921136
 31
0.0
  0
LINE
  5
13C
330
20
100
AcDbEntity
  8
_0-0_
  6
Continuous
 62
     4
100
AcDbLine
 10
525.9761430900093
 20
2413.03503921136
 30
0.0
 11
525.9761430900093
 21
2313.03503921136
 31
0.0
  0
LINE
  5
13D
330
20
100
AcDbEntity
  8
_0-0_
  6
Continuous
 62
     4
100
AcDbLine
 10
525.9761430900093
 20
2313.03503921136
 30
0.0
 11
525.9761430900093
 21
2223.03503921136
 31
0.0
  0
LINE
  5
13E
330
20
100
AcDbEntity
  8
_0-0_
  6
Continuous
 62
     4
100
AcDbLine
 10
415.9761430900092
 20
2413.03503921136
 30
0.0
 11
421.7995716048159
 21
2391.301708119856
 31
0.0
  0
LINE
  5
13F
330
20
100
AcDbEntity
  8
_0-0_
  6
Continuous
 62
     4
100
AcDbLine
 10
415.9761430900092
 20
2413.03503921136
 30
0.0
 11
410.1527145752024
 21
2391.301708119856
 31
0.0
  0
LINE
  5
140
330
20
100
AcDbEntity
  8
_0-0_
  6
Continuous
 62
     4
100
AcDbLine
 10
525.9761430900093
 20
2413.03503921136
 30
0.0
 11
531.7995716048161
 21
2391.301708119856
 31
0.0
  0
LINE
  5
141
330
20
100
AcDbEntity
  8
_0-0_
  6
Continuous
 62
     4
100
AcDbLine
 10
525.9761430900093
 20
2413.03503921136
 30
0.0
 11
520.1527145752026
 21
2391.301708119856
 31
0.0
  0
LINE
  5
142
330
20
100
AcDbEntity
  8
_0-0_
  6
Continuous
 62
     4
100
AcDbLine
 10
525.9761430900093
 20
2313.03503921136
 30
0.0
 11
520.1527145752026
 21
2334.768370302864
 31
0.0
  0
LINE
  5
143
330
20
100
AcDbEntity
  8
_0-0_
  6
Continuous
 62
     4
100
AcDbLine
 10
525.9761430900093
 20
2313.03503921136
 30
0.0
 11
531.7995716048161
 21
2334.768370302864
 31
0.0
  0
LINE
  5
144
330
20
100
AcDbEntity
  8
_0-0_
  6
Continuous
 62
     4
100
AcDbLine
 10
525.9761430900093
 20
2313.03503921136
 30
0.0
 11
531.7995716048161
 21
2291.301708119856
 31
0.0
  0
LINE
  5
145
330
20
100
AcDbEntity
  8
_0-0_
  6
Continuous
 62
     4
100
AcDbLine
 10
525.9761430900093
 20
2313.03503921136
 30
0.0
 11
520.1527145752026
 21
2291.301708119856
 31
0.0
  0
LINE
  5
146
330
20
100
AcDbEntity
  8
_0-0_
  6
Continuous
 62
     4
100
AcDbLine
 10
525.9761430900093
 20
2223.03503921136
 30
0.0
 11
520.1527145752026
 21
2244.768370302864
 31
0.0
  0
LINE
  5
147
330
20
100
AcDbEntity
  8
_0-0_
  6
Continuous
 62
     4
100
AcDbLine
 10
525.9761430900093
 20
2223.03503921136
 30
0.0
 11
531.7995716048161
 21
2244.768370302864
 31
0.0
  0
LINE
  5
148
330
20
100
AcDbEntity
  8
_0-0_
  6
Continuous
 62
     4
100
AcDbLine
 10
525.9761430900093
 20
2223.03503921136
 30
0.0
 11
531.7995716048161
 21
2201.301708119856
 31
0.0
  0
LINE
  5
149
330
20
100
AcDbEntity
  8
_0-0_
  6
Continuous
 62
     4
100
AcDbLine
 10
525.9761430900093
 20
2223.03503921136
 30
0.0
 11
520.1527145752026
 21
2201.301708119856
 31
0.0
  0
LINE
  5
14A
330
20
100
AcDbEntity
  8
_0-0_
  6
Continuous
 62
     4
100
AcDbLine
 10
635.9761430900094
 20
2223.03503921136
 30
0.0
 11
641.7995716048162
 21
2201.301708119856
 31
0.0
  0
LINE
  5
14B
330
20
100
AcDbEntity
  8
_0-0_
  6
Continuous
 62
     4
100
AcDbLine
 10
635.9761430900094
 20
2223.03503921136
 30
0.0
 11
630.1527145752027
 21
2201.301708119856
 31
0.0
  0
LINE
  5
14C
330
20
100
AcDbEntity
  8
_0-0_
  6
Continuous
 62
     4
100
AcDbLine
 10
1193.047210901875
 20
1980.106107023225
 30
0.0
 11
1285.976143090009
 21
2073.03503921136
 31
0.0
  0
LINE
  5
14D
330
20
100
AcDbEntity
  8
_0-0_
  6
Continuous
 62
     4
100
AcDbLine
 10
1193.047210901875
 20
1980.106107023225
 30
0.0
 11
1204.297210901875
 21
1999.591678608376
 31
0.0
  0
LINE
  5
14E
330
20
100
AcDbEntity
  8
_0-0_
  6
Continuous
 62
     4
100
AcDbLine
 10
1193.047210901875
 20
1980.106107023225
 30
0.0
 11
1212.532782487025
 21
1991.356107023225
 31
0.0
  0
LINE
  5
14F
330
20
100
AcDbEntity
  8
_0-0_
  6
Continuous
 62
     4
100
AcDbLine
 10
1285.976143090009
 20
2073.03503921136
 30
0.0
 11
1758.486942309528
 21
2073.03503921136
 31
0.0
  0
LINE
  5
150
330
20
100
AcDbEntity
  8
_0-0_
  6
Continuous
 62
     7
100
AcDbLine
 10
875.9761430900097
 20
2313.03503921136
 30
0.0
 11
865.9761430900097
 21
2303.03503921136
 31
0.0
  0
LINE
  5
151
330
20
100
AcDbEntity
  8
_0-0_
  6
Continuous
 62
     7
100
AcDbLine
 10
875.9761430900097
 20
2313.03503921136
 30
0.0
 11
1895.976143090009
 21
2313.03503921136
 31
0.0
  0
LINE
  5
152
330
20
100
AcDbEntity
  8
_0-0_
  6
Continuous
 62
     7
100
AcDbLine
 10
1895.976143090009
 20
2313.03503921136
 30
0.0
 11
1905.976143090009
 21
2303.03503921136
 31
0.0
  0
LINE
  5
153
330
20
100
AcDbEntity
  8
_0-0_
  6
Continuous
 62
     3
100
AcDbLine
 10
2185.976143090009
 20
2068.03503921136
 30
0.0
 11
2005.976143090009
 21
2068.03503921136
 31
0.0
  0
LINE
  5
154
330
20
100
AcDbEntity
  8
_0-0_
  6
Continuous
 62
     3
100
AcDbLine
 10
2185.976143090009
 20
2068.03503921136
 30
0.0
 11
2185.976143090009
 21
2018.035039211361
 31
0.0
  0
LINE
  5
155
330
20
100
AcDbEntity
  8
_0-0_
  6
Continuous
 62
     3
100
AcDbLine
 10
2185.976143090009
 20
2018.035039211361
 30
0.0
 11
2005.976143090009
 21
2018.035039211361
 31
0.0
  0
LINE
  5
156
330
20
100
AcDbEntity
  8
_0-0_
  6
Continuous
 62
     3
100
AcDbLine
 10
1918.476143090009
 20
2388.03503921136
 30
0.0
 11
1868.476143090009
 21
2363.03503921136
 31
0.0
  0
LINE
  5
157
330
20
100
AcDbEntity
  8
_0-0_
  6
Continuous
 62
     3
100
AcDbLine
 10
1868.476143090009
 20
2363.03503921136
 30
0.0
 11
1918.476143090009
 21
2338.03503921136
 31
0.0
  0
LINE
  5
158
330
20
100
AcDbEntity
  8
_0-0_
  6
Continuous
 62
     3
100
AcDbLine
 10
2005.976143090009
 20
2068.03503921136
 30
0.0
 11
1955.976143090009
 21
2043.03503921136
 31
0.0
  0
LINE
  5
159
330
20
100
AcDbEntity
  8
_0-0_
  6
Continuous
 62
     3
100
AcDbLine
 10
1955.976143090009
 20
2043.03503921136
 30
0.0
 11
2005.976143090009
 21
2018.035039211361
 31
0.0
  0
LINE
  5
15A
330
20
100
AcDbEntity
  8
_0-0_
  6
Continuous
 62
     3
100
AcDbLine
 10
1918.476143090009
 20
2388.03503921136
 30
0.0
 11
2088.47614309001
 21
2388.03503921136
 31
0.0
  0
LINE
  5
15B
330
20
100
AcDbEntity
  8
_0-0_
  6
Continuous
 62
     3
100
AcDbLine
 10
1918.476143090009
 20
2338.03503921136
 30
0.0
 11
2088.47614309001
 21
2338.03503921136
 31
0.0
  0
LINE
  5
15C
330
20
100
AcDbEntity
  8
_0-0_
  6
Continuous
 62
     3
100
AcDbLine
 10
2088.47614309001
 20
2338.03503921136
 30
0.0
 11
2088.47614309001
 21
2388.03503921136
 31
0.0
  0
TEXT
  5
15D
330
20
100
AcDbEntity
  8
_0-0_
 62
     7
100
AcDbText
 10
1703.525099694134
 20
2543.553728579409
 30
0.0
 40
45.0
  1
135
100
AcDbText
  0
TEXT
  5
15E
330
20
100
AcDbEntity
  8
_0-0_
 62
     7
100
AcDbText
 10
976.0702256107412
 20
2543.553728579409
 30
0.0
 40
45.0
  1
135
100
AcDbText
  0
TEXT
  5
15F
330
20
100
AcDbEntity
  8
_0-0_
 62
     7
100
AcDbText
 10
1917.251753250567
 20
2339.311690870983
 30
0.0
 40
45.0
  1
CR-600
 41
0.69
100
AcDbText
  0
TEXT
  5
160
330
20
100
AcDbEntity
  8
_0-0_
 62
     7
100
AcDbText
 10
2011.335641034561
 20
2019.644199339609
 30
0.0
 40
45.0
  1
B2-450
 41
0.69
100
AcDbText
  0
TEXT
  5
161
330
20
100
AcDbEntity
  8
_0-0_
 62
     7
100
AcDbText
 10
2014.644854910821
 20
1842.970737421627
 30
0.0
 40
45.0
  1
200
 50
90.0
100
AcDbText
  0
TEXT
  5
162
330
20
100
AcDbEntity
  8
_0-0_
 62
     7
100
AcDbText
 10
1318.209090275127
 20
2085.359945240369
 30
0.0
 40
45.0
  1
インサート　M12
100
AcDbText
  0
TEXT
  5
163
330
20
100
AcDbEntity
  8
_0-0_
 62
     7
100
AcDbText
 10
1240.26199698538
 20
1853.108928548572
 30
0.0
 40
45.0
  1
200
100
AcDbText
  0
TEXT
  5
164
330
20
100
AcDbEntity
  8
_0-0_
 62
     7
100
AcDbText
 10
1435.321470231875
 20
1853.11635418296
 30
0.0
 40
45.0
  1
200
100
AcDbText
  0
TEXT
  5
165
330
20
100
AcDbEntity
  8
_0-0_
 62
     7
100
AcDbText
 10
511.4225314728195
 20
2329.920555233223
 30
0.0
 40
45.0
  1
100
 50
90.0
100
AcDbText
  0
TEXT
  5
166
330
20
100
AcDbEntity
  8
_0-0_
 62
     7
100
AcDbText
 10
513.6505884870732
 20
2227.652414354247
 30
0.0
 40
45.0
  1
90
 50
90.0
100
AcDbText
  0
TEXT
  5
167
330
20
100
AcDbEntity
  8
_0-0_
 62
     7
100
AcDbText
 10
620.5973251712442
 20
1964.519204895639
 30
0.0
 40
45.0
  1
450
 50
90.0
100
AcDbText
  0
LINE
  5
168
330
20
100
AcDbEntity
  8
_0-0_
  6
Continuous
 62
     7
100
AcDbLine
 10
865.9761430900097
 20
1773.03503921136
 30
0.0
 11
1905.976143090009
 21
1773.03503921136
 31
0.0
  0
LINE
  5
169
330
20
100
AcDbEntity
  8
_0-0_
  6
Continuous
 62
     4
100
AcDbLine
 10
635.9761430900094
 20
2223.03503921136
 30
0.0
 11
635.9761430900094
 21
1773.03503921136
 31
0.0
  0
LINE
  5
16A
330
20
100
AcDbEntity
  8
_0-0_
  6
Continuous
 62
     4
100
AcDbLine
 10
635.9761430900094
 20
1194.768370302864
 30
0.0
 11
635.9761430900094
 21
1173.03503921136
 31
0.0
  0
LINE
  5
16B
330
20
100
AcDbEntity
  8
_0-0_
  6
Continuous
 62
     4
100
AcDbLine
 10
745.9761430900097
 20
1773.03503921136
 30
0.0
 11
751.7995716048164
 21
1751.301708119856
 31
0.0
  0
LINE
  5
16C
330
20
100
AcDbEntity
  8
_0-0_
  6
Continuous
 62
     4
100
AcDbLine
 10
745.9761430900097
 20
1773.03503921136
 30
0.0
 11
740.1527145752029
 21
1751.301708119856
 31
0.0
  0
LINE
  5
16D
330
20
100
AcDbEntity
  8
_0-0_
  6
Continuous
 62
     4
100
AcDbLine
 10
1925.976143090009
 20
1773.03503921136
 30
0.0
 11
2035.976143090009
 21
1773.03503921136
 31
0.0
  0
LINE
  5
16E
330
20
100
AcDbEntity
  8
_0-0_
  6
Continuous
 62
     4
100
AcDbLine
 10
2025.97614309001
 20
1773.03503921136
 30
0.0
 11
2020.152714575203
 21
1794.768370302864
 31
0.0
  0
LINE
  5
16F
330
20
100
AcDbEntity
  8
_0-0_
  6
Continuous
 62
     4
100
AcDbLine
 10
2025.97614309001
 20
1773.03503921136
 30
0.0
 11
2031.799571604817
 21
1794.768370302864
 31
0.0
  0
LINE
  5
170
330
20
100
AcDbEntity
  8
_0-0_
  6
Continuous
 62
     4
100
AcDbLine
 10
845.9761430900098
 20
1773.03503921136
 30
0.0
 11
625.9761430900095
 21
1773.03503921136
 31
0.0
  0
LINE
  5
171
330
20
100
AcDbEntity
  8
_0-0_
  6
Continuous
 62
     4
100
AcDbLine
 10
635.9761430900094
 20
1773.03503921136
 30
0.0
 11
630.1527145752027
 21
1794.768370302864
 31
0.0
  0
LINE
  5
172
330
20
100
AcDbEntity
  8
_0-0_
  6
Continuous
 62
     4
100
AcDbLine
 10
635.9761430900094
 20
1773.03503921136
 30
0.0
 11
641.7995716048162
 21
1794.768370302864
 31
0.0
  0
LINE
  5
173
330
20
100
AcDbEntity
  8
_0-0_
  6
Continuous
 62
     4
100
AcDbLine
 10
635.9761430900094
 20
1773.03503921136
 30
0.0
 11
641.7995716048162
 21
1751.301708119856
 31
0.0
  0
LINE
  5
174
330
20
100
AcDbEntity
  8
_0-0_
  6
Continuous
 62
     4
100
AcDbLine
 10
635.9761430900094
 20
1773.03503921136
 30
0.0
 11
630.1527145752027
 21
1751.301708119856
 31
0.0
  0
LINE
  5
175
330
20
100
AcDbEntity
  8
_0-0_
  6
Continuous
 62
     7
100
AcDbLine
 10
1085.976143090009
 20
1673.035039211361
 30
0.0
 11
1685.97614309001
 21
1673.035039211361
 31
0.0
  0
LINE
  5
176
330
20
100
AcDbEntity
  8
_0-0_
  6
Continuous
 62
     7
100
AcDbLine
 10
1075.976143090009
 20
1683.035039211359
 30
0.0
 11
1695.976143090009
 21
1683.035039211359
 31
0.0
  0
LINE
  5
177
330
20
100
AcDbEntity
  8
_0-0_
  6
Continuous
 62
     7
100
AcDbLine
 10
1075.976143090009
 20
1683.035039211359
 30
0.0
 11
1085.976143090009
 21
1673.035039211361
 31
0.0
  0
LINE
  5
178
330
20
100
AcDbEntity
  8
_0-0_
  6
Continuous
 62
     7
100
AcDbLine
 10
1685.97614309001
 20
1673.035039211361
 30
0.0
 11
1695.976143090009
 21
1683.035039211359
 31
0.0
  0
LINE
  5
179
330
20
100
AcDbEntity
  8
_0-0_
  6
DASHED1
 62
   136
100
AcDbLine
 10
865.9761430900097
 20
1683.035039211359
 30
0.0
 11
900.9761430900097
 21
1673.035039211361
 31
0.0
  0
LINE
  5
17A
330
20
100
AcDbEntity
  8
_0-0_
  6
DASHED1
 62
   136
100
AcDbLine
 10
1905.976143090009
 20
1683.035039211359
 30
0.0
 11
1870.976143090009
 21
1673.035039211361
 31
0.0
  0
LINE
  5
17B
330
20
100
AcDbEntity
  8
_0-0_
  6
Continuous
 62
     7
100
AcDbLine
 10
1075.976143090009
 20
1563.03503921136
 30
0.0
 11
1075.976143090009
 21
1683.035039211359
 31
0.0
  0
LINE
  5
17C
330
20
100
AcDbEntity
  8
_0-0_
  6
Continuous
 62
     7
100
AcDbLine
 10
1695.976143090009
 20
1563.03503921136
 30
0.0
 11
1695.976143090009
 21
1683.035039211359
 31
0.0
  0
LINE
  5
17D
330
20
100
AcDbEntity
  8
_0-0_
  6
Continuous
 62
     7
100
AcDbLine
 10
1075.976143090009
 20
1563.03503921136
 30
0.0
 11
1695.976143090009
 21
1563.03503921136
 31
0.0
  0
LINE
  5
17E
330
20
100
AcDbEntity
  8
_0-0_
  6
Continuous
 62
     7
100
AcDbLine
 10
1085.976143090009
 20
1573.03503921136
 30
0.0
 11
1085.976143090009
 21
1673.035039211361
 31
0.0
  0
LINE
  5
17F
330
20
100
AcDbEntity
  8
_0-0_
  6
Continuous
 62
     7
100
AcDbLine
 10
1685.97614309001
 20
1573.03503921136
 30
0.0
 11
1685.97614309001
 21
1673.035039211361
 31
0.0
  0
LINE
  5
180
330
20
100
AcDbEntity
  8
_0-0_
  6
Continuous
 62
     7
100
AcDbLine
 10
1085.976143090009
 20
1573.03503921136
 30
0.0
 11
1685.97614309001
 21
1573.03503921136
 31
0.0
  0
LINE
  5
181
330
20
100
AcDbEntity
  8
_0-0_
  6
Continuous
 62
     7
100
AcDbLine
 10
1085.976143090009
 20
1573.03503921136
 30
0.0
 11
1075.976143090009
 21
1563.03503921136
 31
0.0
  0
LINE
  5
182
330
20
100
AcDbEntity
  8
_0-0_
  6
Continuous
 62
     7
100
AcDbLine
 10
1685.97614309001
 20
1573.03503921136
 30
0.0
 11
1695.976143090009
 21
1563.03503921136
 31
0.0
  0
LINE
  5
183
330
20
100
AcDbEntity
  8
_0-0_
  6
DASHED1
 62
   136
100
AcDbLine
 10
1870.976143090009
 20
1573.03503921136
 30
0.0
 11
1870.976143090009
 21
1673.035039211361
 31
0.0
  0
LINE
  5
184
330
20
100
AcDbEntity
  8
_0-0_
  6
DASHED1
 62
   136
100
AcDbLine
 10
1870.976143090009
 20
1573.03503921136
 30
0.0
 11
1905.976143090009
 21
1563.03503921136
 31
0.0
  0
LINE
  5
185
330
20
100
AcDbEntity
  8
_0-0_
  6
DASHED1
 62
   136
100
AcDbLine
 10
900.9761430900097
 20
1573.03503921136
 30
0.0
 11
900.9761430900097
 21
1673.035039211361
 31
0.0
  0
LINE
  5
186
330
20
100
AcDbEntity
  8
_0-0_
  6
DASHED1
 62
   136
100
AcDbLine
 10
900.9761430900097
 20
1573.03503921136
 30
0.0
 11
865.9761430900097
 21
1563.03503921136
 31
0.0
  0
LINE
  5
187
330
20
100
AcDbEntity
  8
_0-0_
  6
Continuous
 62
     7
100
AcDbLine
 10
865.9761430900097
 20
1473.035039211359
 30
0.0
 11
1905.976143090009
 21
1473.035039211359
 31
0.0
  0
LINE
  5
188
330
20
100
AcDbEntity
  8
_0-0_
  6
Continuous
 62
     7
100
AcDbLine
 10
865.9761430900097
 20
2303.03503921136
 30
0.0
 11
865.9761430900097
 21
1473.035039211359
 31
0.0
  0
LINE
  5
189
330
20
100
AcDbEntity
  8
_0-0_
  6
DASHED1
 62
   136
100
AcDbLine
 10
935.9761430900096
 20
2173.03503921136
 30
0.0
 11
935.9761430900096
 21
1473.035039211359
 31
0.0
  0
LINE
  5
18A
330
20
100
AcDbEntity
  8
_0-0_
  6
DASHED1
 62
   136
100
AcDbLine
 10
985.9761430900096
 20
2223.03503921136
 30
0.0
 11
985.9761430900096
 21
1473.035039211359
 31
0.0
  0
LINE
  5
18B
330
20
100
AcDbEntity
  8
_0-0_
  6
DASHED1
 62
   136
100
AcDbLine
 10
1785.976143090009
 20
2223.03503921136
 30
0.0
 11
1785.976143090009
 21
1473.035039211359
 31
0.0
  0
LINE
  5
18C
330
20
100
AcDbEntity
  8
_0-0_
  6
DASHED1
 62
   136
100
AcDbLine
 10
1835.976143090009
 20
2173.03503921136
 30
0.0
 11
1835.976143090009
 21
1473.035039211359
 31
0.0
  0
LINE
  5
18D
330
20
100
AcDbEntity
  8
_0-0_
  6
Continuous
 62
     7
100
AcDbLine
 10
1905.976143090009
 20
2303.03503921136
 30
0.0
 11
1905.976143090009
 21
1473.035039211359
 31
0.0
  0
LINE
  5
18E
330
20
100
AcDbEntity
  8
_0-0_
  6
Continuous
 62
     7
100
AcDbLine
 10
1085.976143090009
 20
1073.03503921136
 30
0.0
 11
1685.97614309001
 21
1073.03503921136
 31
0.0
  0
LINE
  5
18F
330
20
100
AcDbEntity
  8
_0-0_
  6
Continuous
 62
     7
100
AcDbLine
 10
865.9761430900097
 20
1473.035039211359
 30
0.0
 11
1905.976143090009
 21
1473.035039211359
 31
0.0
  0
LINE
  5
190
330
20
100
AcDbEntity
  8
_0-0_
  6
DASHED1
 62
   136
100
AcDbLine
 10
935.9761430900096
 20
1073.03503921136
 30
0.0
 11
1835.976143090009
 21
1073.03503921136
 31
0.0
  0
LINE
  5
191
330
20
100
AcDbEntity
  8
_0-0_
  6
DASHED1
 62
   136
100
AcDbLine
 10
1835.976143090009
 20
1073.03503921136
 30
0.0
 11
1785.976143090009
 21
1023.03503921136
 31
0.0
  0
LINE
  5
192
330
20
100
AcDbEntity
  8
_0-0_
  6
DASHED1
 62
   136
100
AcDbLine
 10
935.9761430900096
 20
1073.03503921136
 30
0.0
 11
985.9761430900096
 21
1023.03503921136
 31
0.0
  0
LINE
  5
193
330
20
100
AcDbEntity
  8
_0-0_
  6
DASHED1
 62
   136
100
AcDbLine
 10
1285.976143090009
 20
1013.03503921136
 30
0.0
 11
1295.97614309001
 21
983.0350392113601
 31
0.0
  0
LINE
  5
194
330
20
100
AcDbEntity
  8
_0-0_
  6
DASHED1
 62
   136
100
AcDbLine
 10
1485.976143090009
 20
1013.03503921136
 30
0.0
 11
1475.97614309001
 21
983.0350392113601
 31
0.0
  0
LINE
  5
195
330
20
100
AcDbEntity
  8
_0-0_
  6
DASHED1
 62
   136
100
AcDbLine
 10
1295.97614309001
 20
983.0350392113601
 30
0.0
 11
1475.97614309001
 21
983.0350392113601
 31
0.0
  0
LINE
  5
196
330
20
100
AcDbEntity
  8
_0-0_
  6
DASHED1
 62
   136
100
AcDbLine
 10
985.9761430900096
 20
1023.03503921136
 30
0.0
 11
1285.976143090009
 21
1013.03503921136
 31
0.0
  0
LINE
  5
197
330
20
100
AcDbEntity
  8
_0-0_
  6
DASHED1
 62
   136
100
AcDbLine
 10
1785.976143090009
 20
1023.03503921136
 30
0.0
 11
1485.976143090009
 21
1013.03503921136
 31
0.0
  0
LINE
  5
198
330
20
100
AcDbEntity
  8
_0-0_
  6
DASHED1
 62
   136
100
AcDbLine
 10
900.9761430900097
 20
1373.03503921136
 30
0.0
 11
900.9761430900097
 21
1073.03503921136
 31
0.0
  0
LINE
  5
199
330
20
100
AcDbEntity
  8
_0-0_
  6
DASHED1
 62
   136
100
AcDbLine
 10
900.9761430900097
 20
1373.03503921136
 30
0.0
 11
865.9761430900097
 21
1383.03503921136
 31
0.0
  0
LINE
  5
19A
330
20
100
AcDbEntity
  8
_0-0_
  6
DASHED1
 62
   136
100
AcDbLine
 10
900.9761430900097
 20
1073.03503921136
 30
0.0
 11
865.9761430900097
 21
1063.03503921136
 31
0.0
  0
LINE
  5
19B
330
20
100
AcDbEntity
  8
_0-0_
  6
DASHED1
 62
   136
100
AcDbLine
 10
1870.976143090009
 20
1373.03503921136
 30
0.0
 11
1870.976143090009
 21
1073.03503921136
 31
0.0
  0
LINE
  5
19C
330
20
100
AcDbEntity
  8
_0-0_
  6
DASHED1
 62
   136
100
AcDbLine
 10
1905.976143090009
 20
1383.03503921136
 30
0.0
 11
1870.976143090009
 21
1373.03503921136
 31
0.0
  0
LINE
  5
19D
330
20
100
AcDbEntity
  8
_0-0_
  6
DASHED1
 62
   136
100
AcDbLine
 10
1905.976143090009
 20
1063.03503921136
 30
0.0
 11
1870.976143090009
 21
1073.03503921136
 31
0.0
  0
LINE
  5
19E
330
20
100
AcDbEntity
  8
_0-0_
  6
Continuous
 62
     7
100
AcDbLine
 10
1085.976143090009
 20
1373.03503921136
 30
0.0
 11
1685.97614309001
 21
1373.03503921136
 31
0.0
  0
LINE
  5
19F
330
20
100
AcDbEntity
  8
_0-0_
  6
Continuous
 62
     7
100
AcDbLine
 10
1685.97614309001
 20
1373.03503921136
 30
0.0
 11
1685.97614309001
 21
1073.03503921136
 31
0.0
  0
LINE
  5
1A0
330
20
100
AcDbEntity
  8
_0-0_
  6
Continuous
 62
     7
100
AcDbLine
 10
1085.976143090009
 20
1373.03503921136
 30
0.0
 11
1085.976143090009
 21
1073.03503921136
 31
0.0
  0
LINE
  5
1A1
330
20
100
AcDbEntity
  8
_0-0_
  6
Continuous
 62
     7
100
AcDbLine
 10
1075.976143090009
 20
1063.03503921136
 30
0.0
 11
1695.976143090009
 21
1063.03503921136
 31
0.0
  0
LINE
  5
1A2
330
20
100
AcDbEntity
  8
_0-0_
  6
Continuous
 62
     7
100
AcDbLine
 10
1695.976143090009
 20
1383.03503921136
 30
0.0
 11
1695.976143090009
 21
1063.03503921136
 31
0.0
  0
LINE
  5
1A3
330
20
100
AcDbEntity
  8
_0-0_
  6
Continuous
 62
     7
100
AcDbLine
 10
1075.976143090009
 20
1383.03503921136
 30
0.0
 11
1695.976143090009
 21
1383.03503921136
 31
0.0
  0
LINE
  5
1A4
330
20
100
AcDbEntity
  8
_0-0_
  6
Continuous
 62
     7
100
AcDbLine
 10
1075.976143090009
 20
1383.03503921136
 30
0.0
 11
1075.976143090009
 21
1063.03503921136
 31
0.0
  0
LINE
  5
1A5
330
20
100
AcDbEntity
  8
_0-0_
  6
Continuous
 62
     7
100
AcDbLine
 10
1075.976143090009
 20
1383.03503921136
 30
0.0
 11
1085.976143090009
 21
1373.03503921136
 31
0.0
  0
LINE
  5
1A6
330
20
100
AcDbEntity
  8
_0-0_
  6
Continuous
 62
     7
100
AcDbLine
 10
1695.976143090009
 20
1383.03503921136
 30
0.0
 11
1685.97614309001
 21
1373.03503921136
 31
0.0
  0
LINE
  5
1A7
330
20
100
AcDbEntity
  8
_0-0_
  6
Continuous
 62
     7
100
AcDbLine
 10
1685.97614309001
 20
1073.03503921136
 30
0.0
 11
1695.976143090009
 21
1063.03503921136
 31
0.0
  0
LINE
  5
1A8
330
20
100
AcDbEntity
  8
_0-0_
  6
Continuous
 62
     7
100
AcDbLine
 10
1085.976143090009
 20
1073.03503921136
 30
0.0
 11
1075.976143090009
 21
1063.03503921136
 31
0.0
  0
LINE
  5
1A9
330
20
100
AcDbEntity
  8
_0-0_
  6
Continuous
 62
     4
100
AcDbLine
 10
1285.976143090009
 20
913.03503921136
 30
0.0
 11
1285.976143090009
 21
803.0350392113602
 31
0.0
  0
LINE
  5
1AA
330
20
100
AcDbEntity
  8
_0-0_
  6
Continuous
 62
     4
100
AcDbLine
 10
1295.97614309001
 20
913.03503921136
 30
0.0
 11
1295.97614309001
 21
803.0350392113602
 31
0.0
  0
LINE
  5
1AB
330
20
100
AcDbEntity
  8
_0-0_
  6
Continuous
 62
     4
100
AcDbLine
 10
1475.97614309001
 20
913.03503921136
 30
0.0
 11
1475.97614309001
 21
803.0350392113602
 31
0.0
  0
LINE
  5
1AC
330
20
100
AcDbEntity
  8
_0-0_
  6
Continuous
 62
     4
100
AcDbLine
 10
1485.976143090009
 20
913.03503921136
 30
0.0
 11
1485.976143090009
 21
803.0350392113602
 31
0.0
  0
LINE
  5
1AD
330
20
100
AcDbEntity
  8
_0-0_
  6
Continuous
 62
     4
100
AcDbLine
 10
1295.97614309001
 20
813.03503921136
 30
0.0
 11
1475.97614309001
 21
813.03503921136
 31
0.0
  0
LINE
  5
1AE
330
20
100
AcDbEntity
  8
_0-0_
  6
Continuous
 62
     4
100
AcDbLine
 10
1245.976143090009
 20
813.03503921136
 30
0.0
 11
1285.976143090009
 21
813.03503921136
 31
0.0
  0
LINE
  5
1AF
330
20
100
AcDbEntity
  8
_0-0_
  6
Continuous
 62
     4
100
AcDbLine
 10
1485.976143090009
 20
813.03503921136
 30
0.0
 11
1525.976143090009
 21
813.03503921136
 31
0.0
  0
LINE
  5
1B0
330
20
100
AcDbEntity
  8
_0-0_
  6
Continuous
 62
     4
100
AcDbLine
 10
1295.97614309001
 20
813.03503921136
 30
0.0
 11
1285.976143090009
 21
813.03503921136
 31
0.0
  0
LINE
  5
1B1
330
20
100
AcDbEntity
  8
_0-0_
  6
Continuous
 62
     4
100
AcDbLine
 10
1485.976143090009
 20
813.03503921136
 30
0.0
 11
1475.97614309001
 21
813.03503921136
 31
0.0
  0
LINE
  5
1B2
330
20
100
AcDbEntity
  8
_0-0_
  6
Continuous
 62
     4
100
AcDbLine
 10
1485.976143090009
 20
813.03503921136
 30
0.0
 11
1507.709474181513
 21
818.8584677261667
 31
0.0
  0
LINE
  5
1B3
330
20
100
AcDbEntity
  8
_0-0_
  6
Continuous
 62
     4
100
AcDbLine
 10
1485.976143090009
 20
813.03503921136
 30
0.0
 11
1507.709474181513
 21
807.2116106965534
 31
0.0
  0
LINE
  5
1B4
330
20
100
AcDbEntity
  8
_0-0_
  6
Continuous
 62
     4
100
AcDbLine
 10
1475.97614309001
 20
813.03503921136
 30
0.0
 11
1454.242811998506
 21
807.2116106965534
 31
0.0
  0
LINE
  5
1B5
330
20
100
AcDbEntity
  8
_0-0_
  6
Continuous
 62
     4
100
AcDbLine
 10
1475.97614309001
 20
813.03503921136
 30
0.0
 11
1454.242811998506
 21
818.8584677261667
 31
0.0
  0
LINE
  5
1B6
330
20
100
AcDbEntity
  8
_0-0_
  6
Continuous
 62
     4
100
AcDbLine
 10
1295.97614309001
 20
813.03503921136
 30
0.0
 11
1317.709474181514
 21
818.8584677261667
 31
0.0
  0
LINE
  5
1B7
330
20
100
AcDbEntity
  8
_0-0_
  6
Continuous
 62
     4
100
AcDbLine
 10
1295.97614309001
 20
813.03503921136
 30
0.0
 11
1317.709474181514
 21
807.2116106965534
 31
0.0
  0
LINE
  5
1B8
330
20
100
AcDbEntity
  8
_0-0_
  6
Continuous
 62
     4
100
AcDbLine
 10
1285.976143090009
 20
813.03503921136
 30
0.0
 11
1264.242811998506
 21
807.2116106965534
 31
0.0
  0
LINE
  5
1B9
330
20
100
AcDbEntity
  8
_0-0_
  6
Continuous
 62
     4
100
AcDbLine
 10
1285.976143090009
 20
813.03503921136
 30
0.0
 11
1264.242811998506
 21
818.8584677261667
 31
0.0
  0
LINE
  5
1BA
330
20
100
AcDbEntity
  8
_0-0_
  6
Continuous
 62
     4
100
AcDbLine
 10
1085.976143090009
 20
913.03503921136
 30
0.0
 11
1085.976143090009
 21
693.0350392113601
 31
0.0
  0
LINE
  5
1BB
330
20
100
AcDbEntity
  8
_0-0_
  6
Continuous
 62
     4
100
AcDbLine
 10
1085.976143090009
 20
703.0350392113602
 30
0.0
 11
1685.97614309001
 21
703.0350392113602
 31
0.0
  0
LINE
  5
1BC
330
20
100
AcDbEntity
  8
_0-0_
  6
Continuous
 62
     4
100
AcDbLine
 10
1685.97614309001
 20
913.03503921136
 30
0.0
 11
1685.97614309001
 21
693.0350392113601
 31
0.0
  0
LINE
  5
1BD
330
20
100
AcDbEntity
  8
_0-0_
  6
Continuous
 62
     4
100
AcDbLine
 10
1685.97614309001
 20
703.0350392113602
 30
0.0
 11
1664.242811998505
 21
697.2116106965535
 31
0.0
  0
LINE
  5
1BE
330
20
100
AcDbEntity
  8
_0-0_
  6
Continuous
 62
     4
100
AcDbLine
 10
1685.97614309001
 20
703.0350392113602
 30
0.0
 11
1664.242811998505
 21
708.8584677261668
 31
0.0
  0
LINE
  5
1BF
330
20
100
AcDbEntity
  8
_0-0_
  6
Continuous
 62
     4
100
AcDbLine
 10
1085.976143090009
 20
703.0350392113602
 30
0.0
 11
1107.709474181514
 21
708.8584677261668
 31
0.0
  0
LINE
  5
1C0
330
20
100
AcDbEntity
  8
_0-0_
  6
Continuous
 62
     4
100
AcDbLine
 10
1085.976143090009
 20
703.0350392113602
 30
0.0
 11
1107.709474181514
 21
697.2116106965535
 31
0.0
  0
LINE
  5
1C1
330
20
100
AcDbEntity
  8
_0-0_
  6
Continuous
 62
     4
100
AcDbLine
 10
935.9761430900096
 20
913.03503921136
 30
0.0
 11
935.9761430900096
 21
583.0350392113603
 31
0.0
  0
LINE
  5
1C2
330
20
100
AcDbEntity
  8
_0-0_
  6
Continuous
 62
     4
100
AcDbLine
 10
1835.976143090009
 20
913.03503921136
 30
0.0
 11
1835.976143090009
 21
583.0350392113603
 31
0.0
  0
LINE
  5
1C3
330
20
100
AcDbEntity
  8
_0-0_
  6
Continuous
 62
     4
100
AcDbLine
 10
865.9761430900097
 20
593.03503921136
 30
0.0
 11
935.9761430900096
 21
593.03503921136
 31
0.0
  0
LINE
  5
1C4
330
20
100
AcDbEntity
  8
_0-0_
  6
Continuous
 62
     4
100
AcDbLine
 10
1835.976143090009
 20
593.03503921136
 30
0.0
 11
1905.976143090009
 21
593.03503921136
 31
0.0
  0
LINE
  5
1C5
330
20
100
AcDbEntity
  8
_0-0_
  6
Continuous
 62
     4
100
AcDbLine
 10
1835.976143090009
 20
593.03503921136
 30
0.0
 11
935.9761430900096
 21
593.03503921136
 31
0.0
  0
LINE
  5
1C6
330
20
100
AcDbEntity
  8
_0-0_
  6
Continuous
 62
     4
100
AcDbLine
 10
1835.976143090009
 20
593.03503921136
 30
0.0
 11
1857.709474181513
 21
598.858467726167
 31
0.0
  0
LINE
  5
1C7
330
20
100
AcDbEntity
  8
_0-0_
  6
Continuous
 62
     4
100
AcDbLine
 10
1835.976143090009
 20
593.03503921136
 30
0.0
 11
1857.709474181513
 21
587.2116106965535
 31
0.0
  0
LINE
  5
1C8
330
20
100
AcDbEntity
  8
_0-0_
  6
Continuous
 62
     4
100
AcDbLine
 10
1905.976143090009
 20
593.03503921136
 30
0.0
 11
1884.242811998506
 21
587.2116106965535
 31
0.0
  0
LINE
  5
1C9
330
20
100
AcDbEntity
  8
_0-0_
  6
Continuous
 62
     4
100
AcDbLine
 10
1905.976143090009
 20
593.03503921136
 30
0.0
 11
1884.242811998506
 21
598.858467726167
 31
0.0
  0
LINE
  5
1CA
330
20
100
AcDbEntity
  8
_0-0_
  6
Continuous
 62
     4
100
AcDbLine
 10
1835.976143090009
 20
593.03503921136
 30
0.0
 11
1814.242811998505
 21
587.2116106965535
 31
0.0
  0
LINE
  5
1CB
330
20
100
AcDbEntity
  8
_0-0_
  6
Continuous
 62
     4
100
AcDbLine
 10
1835.976143090009
 20
593.03503921136
 30
0.0
 11
1814.242811998505
 21
598.858467726167
 31
0.0
  0
LINE
  5
1CC
330
20
100
AcDbEntity
  8
_0-0_
  6
Continuous
 62
     4
100
AcDbLine
 10
935.9761430900096
 20
593.03503921136
 30
0.0
 11
957.7094741815136
 21
598.858467726167
 31
0.0
  0
LINE
  5
1CD
330
20
100
AcDbEntity
  8
_0-0_
  6
Continuous
 62
     4
100
AcDbLine
 10
935.9761430900096
 20
593.03503921136
 30
0.0
 11
957.7094741815136
 21
587.2116106965535
 31
0.0
  0
LINE
  5
1CE
330
20
100
AcDbEntity
  8
_0-0_
  6
Continuous
 62
     4
100
AcDbLine
 10
935.9761430900096
 20
593.03503921136
 30
0.0
 11
914.2428119985055
 21
587.2116106965535
 31
0.0
  0
LINE
  5
1CF
330
20
100
AcDbEntity
  8
_0-0_
  6
Continuous
 62
     4
100
AcDbLine
 10
935.9761430900096
 20
593.03503921136
 30
0.0
 11
914.2428119985055
 21
598.858467726167
 31
0.0
  0
LINE
  5
1D0
330
20
100
AcDbEntity
  8
_0-0_
  6
Continuous
 62
     4
100
AcDbLine
 10
865.9761430900097
 20
593.03503921136
 30
0.0
 11
887.7094741815136
 21
598.858467726167
 31
0.0
  0
LINE
  5
1D1
330
20
100
AcDbEntity
  8
_0-0_
  6
Continuous
 62
     4
100
AcDbLine
 10
865.9761430900097
 20
593.03503921136
 30
0.0
 11
887.7094741815136
 21
587.2116106965535
 31
0.0
  0
LINE
  5
1D2
330
20
100
AcDbEntity
  8
_0-0_
  6
Continuous
 62
     7
100
AcDbLine
 10
875.9761430900098
 20
933.0350392113601
 30
0.0
 11
1895.976143090009
 21
933.0350392113601
 31
0.0
  0
TEXT
  5
1D3
330
20
100
AcDbEntity
  8
_0-0_
 62
     7
100
AcDbText
 10
1491.774784197646
 20
822.3150075021141
 30
0.0
 40
45.0
  1
10
100
AcDbText
  0
TEXT
  5
1D4
330
20
100
AcDbEntity
  8
_0-0_
 62
     7
100
AcDbText
 10
1225.562772748673
 20
822.3150075021141
 30
0.0
 40
45.0
  1
10
100
AcDbText
  0
TEXT
  5
1D5
330
20
100
AcDbEntity
  8
_0-0_
 62
     7
100
AcDbText
 10
1351.837679902784
 20
714.929262767249
 30
0.0
 40
45.0
  1
600
100
AcDbText
  0
TEXT
  5
1D6
330
20
100
AcDbEntity
  8
_0-0_
 62
     7
100
AcDbText
 10
1351.837679902784
 20
603.2876916601868
 30
0.0
 40
45.0
  1
900
100
AcDbText
  0
TEXT
  5
1D7
330
20
100
AcDbEntity
  8
_0-0_
 62
     7
100
AcDbText
 10
1849.649275658866
 20
605.1178813504665
 30
0.0
 40
45.0
  1
70
100
AcDbText
  0
TEXT
  5
1D8
330
20
100
AcDbEntity
  8
_0-0_
 62
     7
100
AcDbText
 10
879.6487398106183
 20
606.9480710407462
 30
0.0
 40
45.0
  1
70
100
AcDbText
  0
LINE
  5
1D9
330
20
100
AcDbEntity
  8
_0-0_
  6
Continuous
 62
     7
100
AcDbLine
 10
865.9761430900097
 20
943.0350392113602
 30
0.0
 11
875.9761430900098
 21
933.0350392113601
 31
0.0
  0
LINE
  5
1DA
330
20
100
AcDbEntity
  8
_0-0_
  6
Continuous
 62
     7
100
AcDbLine
 10
1905.976143090009
 20
943.03503921136
 30
0.0
 11
1895.976143090009
 21
933.0350392113601
 31
0.0
  0
LINE
  5
1DB
330
20
100
AcDbEntity
  8
_0-0_
  6
Continuous
 62
     7
100
AcDbLine
 10
865.9761430900097
 20
1473.035039211359
 30
0.0
 11
865.9761430900097
 21
943.0350392113602
 31
0.0
  0
LINE
  5
1DC
330
20
100
AcDbEntity
  8
_0-0_
  6
DASHED1
 62
   136
100
AcDbLine
 10
935.9761430900096
 20
1473.03503921136
 30
0.0
 11
935.9761430900096
 21
1073.03503921136
 31
0.0
  0
LINE
  5
1DD
330
20
100
AcDbEntity
  8
_0-0_
  6
DASHED1
 62
   136
100
AcDbLine
 10
985.9761430900096
 20
1473.035039211359
 30
0.0
 11
985.9761430900096
 21
1023.03503921136
 31
0.0
  0
LINE
  5
1DE
330
20
100
AcDbEntity
  8
_0-0_
  6
DASHED1
 62
   136
100
AcDbLine
 10
1785.976143090009
 20
1473.035039211359
 30
0.0
 11
1785.976143090009
 21
1023.03503921136
 31
0.0
  0
LINE
  5
1DF
330
20
100
AcDbEntity
  8
_0-0_
  6
DASHED1
 62
   136
100
AcDbLine
 10
1835.976143090009
 20
1473.03503921136
 30
0.0
 11
1835.976143090009
 21
1073.03503921136
 31
0.0
  0
LINE
  5
1E0
330
20
100
AcDbEntity
  8
_0-0_
  6
Continuous
 62
     7
100
AcDbLine
 10
1905.976143090009
 20
1473.035039211359
 30
0.0
 11
1905.976143090009
 21
943.03503921136
 31
0.0
  0
LINE
  5
1E1
330
20
100
AcDbEntity
  8
_0-0_
  6
Continuous
 62
     3
100
AcDbLine
 10
2280.976143090009
 20
1228.03503921136
 30
0.0
 11
2280.976143090009
 21
1178.03503921136
 31
0.0
  0
LINE
  5
1E2
330
20
100
AcDbEntity
  8
_0-0_
  6
Continuous
 62
     3
100
AcDbLine
 10
2100.97614309001
 20
1228.03503921136
 30
0.0
 11
2280.976143090009
 21
1228.03503921136
 31
0.0
  0
LINE
  5
1E3
330
20
100
AcDbEntity
  8
_0-0_
  6
Continuous
 62
     3
100
AcDbLine
 10
2100.97614309001
 20
1178.03503921136
 30
0.0
 11
2280.976143090009
 21
1178.03503921136
 31
0.0
  0
LINE
  5
1E4
330
20
100
AcDbEntity
  8
_0-0_
  6
Continuous
 62
     3
100
AcDbLine
 10
2100.97614309001
 20
1228.03503921136
 30
0.0
 11
2050.976143090009
 21
1203.03503921136
 31
0.0
  0
LINE
  5
1E5
330
20
100
AcDbEntity
  8
_0-0_
  6
Continuous
 62
     3
100
AcDbLine
 10
2050.976143090009
 20
1203.03503921136
 30
0.0
 11
2100.97614309001
 21
1178.03503921136
 31
0.0
  0
TEXT
  5
1E6
330
20
100
AcDbEntity
  8
_0-0_
 62
     7
100
AcDbText
 10
2107.936002756821
 20
1179.513436501598
 30
0.0
 40
45.0
  1
B1-450
 41
0.69
100
AcDbText
  0
LINE
  5
1E7
330
20
100
AcDbEntity
  8
_0-0_
  6
Continuous
 62
     3
100
AcDbLine
 10
2280.574018288558
 20
1648.03503921136
 30
0.0
 11
2100.574018288559
 21
1648.03503921136
 31
0.0
  0
LINE
  5
1E8
330
20
100
AcDbEntity
  8
_0-0_
  6
Continuous
 62
     3
100
AcDbLine
 10
2280.574018288558
 20
1648.03503921136
 30
0.0
 11
2280.574018288558
 21
1598.03503921136
 31
0.0
  0
LINE
  5
1E9
330
20
100
AcDbEntity
  8
_0-0_
  6
Continuous
 62
     3
100
AcDbLine
 10
2280.574018288558
 20
1598.03503921136
 30
0.0
 11
2100.574018288559
 21
1598.03503921136
 31
0.0
  0
LINE
  5
1EA
330
20
100
AcDbEntity
  8
_0-0_
  6
Continuous
 62
     3
100
AcDbLine
 10
2100.574018288559
 20
1648.03503921136
 30
0.0
 11
2050.574018288559
 21
1623.03503921136
 31
0.0
  0
LINE
  5
1EB
330
20
100
AcDbEntity
  8
_0-0_
  6
Continuous
 62
     3
100
AcDbLine
 10
2050.574018288559
 20
1623.03503921136
 30
0.0
 11
2100.574018288559
 21
1598.03503921136
 31
0.0
  0
TEXT
  5
1EC
330
20
100
AcDbEntity
  8
_0-0_
 62
     7
100
AcDbText
 10
2105.933516233109
 20
1599.644199339608
 30
0.0
 40
45.0
  1
BH-300
 41
0.69
100
AcDbText
  0
LINE
  5
1ED
330
20
100
AcDbEntity
  8
_0-0_
  6
Continuous
 62
     4
100
AcDbLine
 10
1925.976143090009
 20
933.0350392113601
 30
0.0
 11
2035.976143090009
 21
933.0350392113601
 31
0.0
  0
LINE
  5
1EE
330
20
100
AcDbEntity
  8
_0-0_
  6
Continuous
 62
     4
100
AcDbLine
 10
1925.976143090009
 20
1723.03503921136
 30
0.0
 11
2035.976143090009
 21
1723.03503921136
 31
0.0
  0
LINE
  5
1EF
330
20
100
AcDbEntity
  8
_0-0_
  6
Continuous
 62
     4
100
AcDbLine
 10
1925.976143090009
 20
1473.035039211359
 30
0.0
 11
2035.976143090009
 21
1473.035039211359
 31
0.0
  0
LINE
  5
1F0
330
20
100
AcDbEntity
  8
_0-0_
  6
Continuous
 62
     4
100
AcDbLine
 10
1925.976143090009
 20
1403.03503921136
 30
0.0
 11
2035.976143090009
 21
1403.03503921136
 31
0.0
  0
LINE
  5
1F1
330
20
100
AcDbEntity
  8
_0-0_
  6
Continuous
 62
     4
100
AcDbLine
 10
2025.97614309001
 20
1773.03503921136
 30
0.0
 11
2025.97614309001
 21
1723.03503921136
 31
0.0
  0
LINE
  5
1F2
330
20
100
AcDbEntity
  8
_0-0_
  6
Continuous
 62
     4
100
AcDbLine
 10
2025.97614309001
 20
1723.03503921136
 30
0.0
 11
2025.97614309001
 21
1473.035039211359
 31
0.0
  0
LINE
  5
1F3
330
20
100
AcDbEntity
  8
_0-0_
  6
Continuous
 62
     4
100
AcDbLine
 10
2025.97614309001
 20
1403.03503921136
 30
0.0
 11
2025.97614309001
 21
933.0350392113601
 31
0.0
  0
LINE
  5
1F4
330
20
100
AcDbEntity
  8
_0-0_
  6
Continuous
 62
     4
100
AcDbLine
 10
2025.97614309001
 20
1473.035039211359
 30
0.0
 11
2025.97614309001
 21
1403.03503921136
 31
0.0
  0
LINE
  5
1F5
330
20
100
AcDbEntity
  8
_0-0_
  6
Continuous
 62
     4
100
AcDbLine
 10
2025.97614309001
 20
1723.03503921136
 30
0.0
 11
2031.799571604817
 21
1701.301708119856
 31
0.0
  0
LINE
  5
1F6
330
20
100
AcDbEntity
  8
_0-0_
  6
Continuous
 62
     4
100
AcDbLine
 10
2025.97614309001
 20
1723.03503921136
 30
0.0
 11
2020.152714575203
 21
1701.301708119856
 31
0.0
  0
LINE
  5
1F7
330
20
100
AcDbEntity
  8
_0-0_
  6
Continuous
 62
     4
100
AcDbLine
 10
2025.97614309001
 20
1473.035039211359
 30
0.0
 11
2020.152714575203
 21
1494.768370302864
 31
0.0
  0
LINE
  5
1F8
330
20
100
AcDbEntity
  8
_0-0_
  6
Continuous
 62
     4
100
AcDbLine
 10
2025.97614309001
 20
1473.035039211359
 30
0.0
 11
2031.799571604817
 21
1494.768370302864
 31
0.0
  0
LINE
  5
1F9
330
20
100
AcDbEntity
  8
_0-0_
  6
Continuous
 62
     4
100
AcDbLine
 10
2025.97614309001
 20
1473.035039211359
 30
0.0
 11
2031.799571604817
 21
1451.301708119856
 31
0.0
  0
LINE
  5
1FA
330
20
100
AcDbEntity
  8
_0-0_
  6
Continuous
 62
     4
100
AcDbLine
 10
2025.97614309001
 20
1473.035039211359
 30
0.0
 11
2020.152714575203
 21
1451.301708119856
 31
0.0
  0
LINE
  5
1FB
330
20
100
AcDbEntity
  8
_0-0_
  6
Continuous
 62
     4
100
AcDbLine
 10
2025.97614309001
 20
1403.03503921136
 30
0.0
 11
2020.152714575203
 21
1424.768370302864
 31
0.0
  0
LINE
  5
1FC
330
20
100
AcDbEntity
  8
_0-0_
  6
Continuous
 62
     4
100
AcDbLine
 10
2025.97614309001
 20
1403.03503921136
 30
0.0
 11
2031.799571604817
 21
1424.768370302864
 31
0.0
  0
LINE
  5
1FD
330
20
100
AcDbEntity
  8
_0-0_
  6
Continuous
 62
     4
100
AcDbLine
 10
2025.97614309001
 20
1403.03503921136
 30
0.0
 11
2031.799571604817
 21
1381.301708119856
 31
0.0
  0
LINE
  5
1FE
330
20
100
AcDbEntity
  8
_0-0_
  6
Continuous
 62
     4
100
AcDbLine
 10
2025.97614309001
 20
1403.03503921136
 30
0.0
 11
2020.152714575203
 21
1381.301708119856
 31
0.0
  0
LINE
  5
1FF
330
20
100
AcDbEntity
  8
_0-0_
  6
Continuous
 62
     4
100
AcDbLine
 10
2025.97614309001
 20
933.0350392113601
 30
0.0
 11
2020.152714575203
 21
954.768370302864
 31
0.0
  0
LINE
  5
200
330
20
100
AcDbEntity
  8
_0-0_
  6
Continuous
 62
     4
100
AcDbLine
 10
2025.97614309001
 20
933.0350392113601
 30
0.0
 11
2031.799571604817
 21
954.768370302864
 31
0.0
  0
TEXT
  5
201
330
20
100
AcDbEntity
  8
_0-0_
 62
     7
100
AcDbText
 10
2015.09455042332
 20
1724.734858256339
 30
0.0
 40
45.0
  1
50
 50
90.0
100
AcDbText
  0
TEXT
  5
202
330
20
100
AcDbEntity
  8
_0-0_
 62
     7
100
AcDbText
 10
2015.09455042332
 20
1564.839938097728
 30
0.0
 40
45.0
  1
250
 50
90.0
100
AcDbText
  0
TEXT
  5
203
330
20
100
AcDbEntity
  8
_0-0_
 62
     7
100
AcDbText
 10
2013.526953166863
 20
1417.485795990773
 30
0.0
 40
45.0
  1
70
 50
90.0
100
AcDbText
  0
TEXT
  5
204
330
20
100
AcDbEntity
  8
_0-0_
 62
     7
100
AcDbText
 10
2015.09455042332
 20
1132.183095315604
 30
0.0
 40
45.0
  1
470
 50
90.0
100
AcDbText
  0
LINE
  5
205
330
20
100
AcDbEntity
  8
_0-0_
  6
Continuous
 62
     4
100
AcDbLine
 10
845.9761430900098
 20
1673.035039211361
 30
0.0
 11
735.9761430900095
 21
1673.035039211361
 31
0.0
  0
LINE
  5
206
330
20
100
AcDbEntity
  8
_0-0_
  6
Continuous
 62
     4
100
AcDbLine
 10
845.9761430900098
 20
1573.03503921136
 30
0.0
 11
735.9761430900095
 21
1573.03503921136
 31
0.0
  0
LINE
  5
207
330
20
100
AcDbEntity
  8
_0-0_
  6
Continuous
 62
     4
100
AcDbLine
 10
845.9761430900098
 20
1473.035039211359
 30
0.0
 11
625.9761430900095
 21
1473.035039211359
 31
0.0
  0
LINE
  5
208
330
20
100
AcDbEntity
  8
_0-0_
  6
Continuous
 62
     4
100
AcDbLine
 10
845.9761430900098
 20
1373.03503921136
 30
0.0
 11
735.9761430900095
 21
1373.03503921136
 31
0.0
  0
LINE
  5
209
330
20
100
AcDbEntity
  8
_0-0_
  6
Continuous
 62
     4
100
AcDbLine
 10
845.9761430900098
 20
1073.03503921136
 30
0.0
 11
735.9761430900095
 21
1073.03503921136
 31
0.0
  0
LINE
  5
20A
330
20
100
AcDbEntity
  8
_0-0_
  6
Continuous
 62
     4
100
AcDbLine
 10
415.9761430900092
 20
2413.03503921136
 30
0.0
 11
415.9761430900092
 21
933.0350392113601
 31
0.0
  0
LINE
  5
20B
330
20
100
AcDbEntity
  8
_0-0_
  6
Continuous
 62
     4
100
AcDbLine
 10
845.9761430900098
 20
933.0350392113601
 30
0.0
 11
405.9761430900091
 21
933.0350392113601
 31
0.0
  0
LINE
  5
20C
330
20
100
AcDbEntity
  8
_0-0_
  6
Continuous
 62
     4
100
AcDbLine
 10
845.9761430900098
 20
1023.03503921136
 30
0.0
 11
515.9761430900093
 21
1023.03503921136
 31
0.0
  0
LINE
  5
20D
330
20
100
AcDbEntity
  8
_0-0_
  6
Continuous
 62
     4
100
AcDbLine
 10
745.9761430900097
 20
1673.035039211361
 30
0.0
 11
745.9761430900097
 21
1773.03503921136
 31
0.0
  0
LINE
  5
20E
330
20
100
AcDbEntity
  8
_0-0_
  6
Continuous
 62
     4
100
AcDbLine
 10
745.9761430900097
 20
1673.035039211361
 30
0.0
 11
745.9761430900097
 21
1573.03503921136
 31
0.0
  0
LINE
  5
20F
330
20
100
AcDbEntity
  8
_0-0_
  6
Continuous
 62
     4
100
AcDbLine
 10
745.9761430900097
 20
1673.035039211361
 30
0.0
 11
740.1527145752029
 21
1694.768370302864
 31
0.0
  0
LINE
  5
210
330
20
100
AcDbEntity
  8
_0-0_
  6
Continuous
 62
     4
100
AcDbLine
 10
745.9761430900097
 20
1673.035039211361
 30
0.0
 11
751.7995716048164
 21
1694.768370302864
 31
0.0
  0
LINE
  5
211
330
20
100
AcDbEntity
  8
_0-0_
  6
Continuous
 62
     4
100
AcDbLine
 10
745.9761430900097
 20
1673.035039211361
 30
0.0
 11
751.7995716048164
 21
1651.301708119856
 31
0.0
  0
LINE
  5
212
330
20
100
AcDbEntity
  8
_0-0_
  6
Continuous
 62
     4
100
AcDbLine
 10
745.9761430900097
 20
1673.035039211361
 30
0.0
 11
740.1527145752029
 21
1651.301708119856
 31
0.0
  0
LINE
  5
213
330
20
100
AcDbEntity
  8
_0-0_
  6
Continuous
 62
     4
100
AcDbLine
 10
745.9761430900097
 20
1573.03503921136
 30
0.0
 11
740.1527145752029
 21
1594.768370302864
 31
0.0
  0
LINE
  5
214
330
20
100
AcDbEntity
  8
_0-0_
  6
Continuous
 62
     4
100
AcDbLine
 10
745.9761430900097
 20
1573.03503921136
 30
0.0
 11
751.7995716048164
 21
1594.768370302864
 31
0.0
  0
LINE
  5
215
330
20
100
AcDbEntity
  8
_0-0_
  6
Continuous
 62
     4
100
AcDbLine
 10
745.9761430900097
 20
1573.03503921136
 30
0.0
 11
751.7995716048164
 21
1551.301708119856
 31
0.0
  0
LINE
  5
216
330
20
100
AcDbEntity
  8
_0-0_
  6
Continuous
 62
     4
100
AcDbLine
 10
745.9761430900097
 20
1573.03503921136
 30
0.0
 11
740.1527145752029
 21
1551.301708119856
 31
0.0
  0
LINE
  5
217
330
20
100
AcDbEntity
  8
_0-0_
  6
Continuous
 62
     4
100
AcDbLine
 10
745.9761430900097
 20
1573.03503921136
 30
0.0
 11
751.7995716048164
 21
1551.301708119856
 31
0.0
  0
LINE
  5
218
330
20
100
AcDbEntity
  8
_0-0_
  6
Continuous
 62
     4
100
AcDbLine
 10
745.9761430900097
 20
1573.03503921136
 30
0.0
 11
740.1527145752029
 21
1551.301708119856
 31
0.0
  0
LINE
  5
219
330
20
100
AcDbEntity
  8
_0-0_
  6
Continuous
 62
     4
100
AcDbLine
 10
745.9761430900097
 20
1573.03503921136
 30
0.0
 11
745.9761430900097
 21
1473.035039211359
 31
0.0
  0
LINE
  5
21A
330
20
100
AcDbEntity
  8
_0-0_
  6
Continuous
 62
     4
100
AcDbLine
 10
745.9761430900097
 20
1373.03503921136
 30
0.0
 11
745.9761430900097
 21
1073.03503921136
 31
0.0
  0
LINE
  5
21B
330
20
100
AcDbEntity
  8
_0-0_
  6
Continuous
 62
     4
100
AcDbLine
 10
745.9761430900097
 20
1473.035039211359
 30
0.0
 11
745.9761430900097
 21
1373.03503921136
 31
0.0
  0
LINE
  5
21C
330
20
100
AcDbEntity
  8
_0-0_
  6
Continuous
 62
     4
100
AcDbLine
 10
745.9761430900097
 20
1473.035039211359
 30
0.0
 11
740.1527145752029
 21
1494.768370302864
 31
0.0
  0
LINE
  5
21D
330
20
100
AcDbEntity
  8
_0-0_
  6
Continuous
 62
     4
100
AcDbLine
 10
745.9761430900097
 20
1473.035039211359
 30
0.0
 11
751.7995716048164
 21
1494.768370302864
 31
0.0
  0
LINE
  5
21E
330
20
100
AcDbEntity
  8
_0-0_
  6
Continuous
 62
     4
100
AcDbLine
 10
745.9761430900097
 20
1473.035039211359
 30
0.0
 11
751.7995716048164
 21
1451.301708119856
 31
0.0
  0
LINE
  5
21F
330
20
100
AcDbEntity
  8
_0-0_
  6
Continuous
 62
     4
100
AcDbLine
 10
745.9761430900097
 20
1473.035039211359
 30
0.0
 11
740.1527145752029
 21
1451.301708119856
 31
0.0
  0
LINE
  5
220
330
20
100
AcDbEntity
  8
_0-0_
  6
Continuous
 62
     4
100
AcDbLine
 10
745.9761430900097
 20
1373.03503921136
 30
0.0
 11
740.1527145752029
 21
1394.768370302864
 31
0.0
  0
LINE
  5
221
330
20
100
AcDbEntity
  8
_0-0_
  6
Continuous
 62
     4
100
AcDbLine
 10
745.9761430900097
 20
1373.03503921136
 30
0.0
 11
751.7995716048164
 21
1394.768370302864
 31
0.0
  0
LINE
  5
222
330
20
100
AcDbEntity
  8
_0-0_
  6
Continuous
 62
     4
100
AcDbLine
 10
745.9761430900097
 20
1373.03503921136
 30
0.0
 11
751.7995716048164
 21
1351.301708119856
 31
0.0
  0
LINE
  5
223
330
20
100
AcDbEntity
  8
_0-0_
  6
Continuous
 62
     4
100
AcDbLine
 10
745.9761430900097
 20
1373.03503921136
 30
0.0
 11
740.1527145752029
 21
1351.301708119856
 31
0.0
  0
LINE
  5
224
330
20
100
AcDbEntity
  8
_0-0_
  6
Continuous
 62
     4
100
AcDbLine
 10
745.9761430900097
 20
1073.03503921136
 30
0.0
 11
740.1527145752029
 21
1094.768370302864
 31
0.0
  0
LINE
  5
225
330
20
100
AcDbEntity
  8
_0-0_
  6
Continuous
 62
     4
100
AcDbLine
 10
745.9761430900097
 20
1073.03503921136
 30
0.0
 11
751.7995716048164
 21
1094.768370302864
 31
0.0
  0
LINE
  5
226
330
20
100
AcDbEntity
  8
_0-0_
  6
Continuous
 62
     4
100
AcDbLine
 10
635.9761430900094
 20
1473.035039211359
 30
0.0
 11
635.9761430900094
 21
1023.03503921136
 31
0.0
  0
LINE
  5
227
330
20
100
AcDbEntity
  8
_0-0_
  6
Continuous
 62
     4
100
AcDbLine
 10
635.9761430900094
 20
1773.03503921136
 30
0.0
 11
635.9761430900094
 21
1473.035039211359
 31
0.0
  0
LINE
  5
228
330
20
100
AcDbEntity
  8
_0-0_
  6
Continuous
 62
     4
100
AcDbLine
 10
635.9761430900094
 20
1473.035039211359
 30
0.0
 11
630.1527145752027
 21
1494.768370302864
 31
0.0
  0
LINE
  5
229
330
20
100
AcDbEntity
  8
_0-0_
  6
Continuous
 62
     4
100
AcDbLine
 10
635.9761430900094
 20
1473.035039211359
 30
0.0
 11
641.7995716048162
 21
1494.768370302864
 31
0.0
  0
LINE
  5
22A
330
20
100
AcDbEntity
  8
_0-0_
  6
Continuous
 62
     4
100
AcDbLine
 10
635.9761430900094
 20
1473.035039211359
 30
0.0
 11
641.7995716048162
 21
1451.301708119856
 31
0.0
  0
LINE
  5
22B
330
20
100
AcDbEntity
  8
_0-0_
  6
Continuous
 62
     4
100
AcDbLine
 10
635.9761430900094
 20
1473.035039211359
 30
0.0
 11
630.1527145752027
 21
1451.301708119856
 31
0.0
  0
LINE
  5
22C
330
20
100
AcDbEntity
  8
_0-0_
  6
Continuous
 62
     4
100
AcDbLine
 10
635.9761430900094
 20
1023.03503921136
 30
0.0
 11
630.1527145752027
 21
1044.768370302864
 31
0.0
  0
LINE
  5
22D
330
20
100
AcDbEntity
  8
_0-0_
  6
Continuous
 62
     4
100
AcDbLine
 10
635.9761430900094
 20
1023.03503921136
 30
0.0
 11
641.7995716048162
 21
1044.768370302864
 31
0.0
  0
LINE
  5
22E
330
20
100
AcDbEntity
  8
_0-0_
  6
Continuous
 62
     4
100
AcDbLine
 10
525.9761430900093
 20
933.0350392113601
 30
0.0
 11
520.1527145752026
 21
954.768370302864
 31
0.0
  0
LINE
  5
22F
330
20
100
AcDbEntity
  8
_0-0_
  6
Continuous
 62
     4
100
AcDbLine
 10
525.9761430900093
 20
933.0350392113601
 30
0.0
 11
531.7995716048161
 21
954.768370302864
 31
0.0
  0
LINE
  5
230
330
20
100
AcDbEntity
  8
_0-0_
  6
Continuous
 62
     4
100
AcDbLine
 10
525.9761430900093
 20
2223.03503921136
 30
0.0
 11
525.9761430900093
 21
1023.03503921136
 31
0.0
  0
LINE
  5
231
330
20
100
AcDbEntity
  8
_0-0_
  6
Continuous
 62
     4
100
AcDbLine
 10
525.9761430900093
 20
1023.03503921136
 30
0.0
 11
525.9761430900093
 21
933.0350392113601
 31
0.0
  0
LINE
  5
232
330
20
100
AcDbEntity
  8
_0-0_
  6
Continuous
 62
     4
100
AcDbLine
 10
525.9761430900093
 20
1023.03503921136
 30
0.0
 11
520.1527145752026
 21
1044.768370302864
 31
0.0
  0
LINE
  5
233
330
20
100
AcDbEntity
  8
_0-0_
  6
Continuous
 62
     4
100
AcDbLine
 10
525.9761430900093
 20
1023.03503921136
 30
0.0
 11
531.7995716048161
 21
1044.768370302864
 31
0.0
  0
LINE
  5
234
330
20
100
AcDbEntity
  8
_0-0_
  6
Continuous
 62
     4
100
AcDbLine
 10
525.9761430900093
 20
1023.03503921136
 30
0.0
 11
531.7995716048161
 21
1001.301708119856
 31
0.0
  0
LINE
  5
235
330
20
100
AcDbEntity
  8
_0-0_
  6
Continuous
 62
     4
100
AcDbLine
 10
525.9761430900093
 20
1023.03503921136
 30
0.0
 11
520.1527145752026
 21
1001.301708119856
 31
0.0
  0
LINE
  5
236
330
20
100
AcDbEntity
  8
_0-0_
  6
Continuous
 62
     4
100
AcDbLine
 10
415.9761430900092
 20
933.0350392113601
 30
0.0
 11
410.1527145752024
 21
954.768370302864
 31
0.0
  0
LINE
  5
237
330
20
100
AcDbEntity
  8
_0-0_
  6
Continuous
 62
     4
100
AcDbLine
 10
415.9761430900092
 20
933.0350392113601
 30
0.0
 11
421.7995716048159
 21
954.768370302864
 31
0.0
  0
TEXT
  5
238
330
20
100
AcDbEntity
  8
_0-0_
 62
     7
100
AcDbText
 10
406.4445734129384
 20
1627.984305986936
 30
0.0
 40
45.0
  1
1480
 50
90.0
100
AcDbText
  0
TEXT
  5
239
330
20
100
AcDbEntity
  8
_0-0_
 62
     7
100
AcDbText
 10
517.1736165608219
 20
1577.998052223034
 30
0.0
 40
45.0
  1
1200
 50
90.0
100
AcDbText
  0
TEXT
  5
23A
330
20
100
AcDbEntity
  8
_0-0_
 62
     7
100
AcDbText
 10
515.7323100936524
 20
955.0631877568351
 30
0.0
 40
45.0
  1
90
 50
90.0
100
AcDbText
  0
TEXT
  5
23B
330
20
100
AcDbEntity
  8
_0-0_
 62
     7
100
AcDbText
 10
627.2776229771729
 20
1590.176129288383
 30
0.0
 40
45.0
  1
300
 50
90.0
100
AcDbText
  0
TEXT
  5
23C
330
20
100
AcDbEntity
  8
_0-0_
 62
     7
100
AcDbText
 10
627.2776229771729
 20
1214.334740369725
 30
0.0
 40
45.0
  1
450
 50
90.0
100
AcDbText
  0
TEXT
  5
23D
330
20
100
AcDbEntity
  8
_0-0_
 62
     7
100
AcDbText
 10
735.5930232558139
 20
1373.160812573231
 30
0.0
 40
45.0
  1
100
 50
90.0
100
AcDbText
  0
TEXT
  5
23E
330
20
100
AcDbEntity
  8
_0-0_
 62
     7
100
AcDbText
 10
738.2030329010824
 20
1189.539648739675
 30
0.0
 40
45.0
  1
300
 50
90.0
100
AcDbText
  0
TEXT
  5
23F
330
20
100
AcDbEntity
  8
_0-0_
 62
     7
100
AcDbText
 10
735.5930232558139
 20
1696.561212271583
 30
0.0
 40
45.0
  1
100
 50
90.0
100
AcDbText
  0
TEXT
  5
240
330
20
100
AcDbEntity
  8
_0-0_
 62
     7
100
AcDbText
 10
736.3410138248848
 20
1588.70402018968
 30
0.0
 40
45.0
  1
100
 50
90.0
100
AcDbText
  0
TEXT
  5
241
330
20
100
AcDbEntity
  8
_0-0_
 62
     7
100
AcDbText
 10
734.845032686743
 20
1478.412260065086
 30
0.0
 40
45.0
  1
100
 50
90.0
100
AcDbText
  0
TEXT
  5
242
330
20
100
AcDbEntity
  8
_0-0_
 62
     7
100
AcDbText
 10
1296.330824861603
 20
824.9095088217057
 30
0.0
 40
45.0
  1
φ200
100
AcDbText
  0
LINE
  5
243
330
20
100
AcDbEntity
  8
_0-0_
  6
Continuous
 62
     7
100
AcDbLine
 10
237.0632530120481
 20
2919.743975903615
 30
0.0
 11
737.0632530120483
 21
2919.743975903615
 31
0.0
  0
LINE
  5
244
330
20
100
AcDbEntity
  8
_0-0_
  6
Continuous
 62
     7
100
AcDbLine
 10
737.0632530120483
 20
2919.743975903615
 30
0.0
 11
737.0632530120483
 21
3019.743975903615
 31
0.0
  0
TEXT
  5
245
330
20
100
AcDbEntity
  8
_0-0_
 62
     3
100
AcDbText
 10
287.0172704877998
 20
2931.999206290217
 30
0.0
 40
75.0
  1
組立構造図
100
AcDbText
  0
LINE
  5
246
330
20
100
AcDbEntity
  8
_0-0_
  6
Continuous
 62
   136
100
AcDbLine
 10
3298.989852564253
 20
1782.669203464277
 30
0.0
 11
3157.568496326943
 21
1924.090559701587
 31
0.0
  0
LINE
  5
247
330
20
100
AcDbEntity
  8
_0-0_
  6
Continuous
 62
   136
100
AcDbLine
 10
3298.989852564253
 20
1641.247847226967
 30
0.0
 11
3157.568496326943
 21
1499.826490989658
 31
0.0
  0
CIRCLE
  5
248
330
20
100
AcDbEntity
  8
_0-0_
  6
Continuous
 62
   136
100
AcDbCircle
 10
3369.700530682908
 20
1711.958525345622
 30
0.0
 40
100.0
  0
CIRCLE
  5
249
330
20
100
AcDbEntity
  8
_0-0_
  6
Continuous
 62
   136
100
AcDbCircle
 10
3369.700530682908
 20
1711.958525345622
 30
0.0
 40
90.0
  0
LINE
  5
24A
330
20
100
AcDbEntity
  8
_0-0_
  6
Continuous
 62
   136
100
AcDbLine
 10
3440.411208801563
 20
1641.247847226967
 30
0.0
 11
3581.832565038872
 21
1499.826490989658
 31
0.0
  0
LINE
  5
24B
330
20
100
AcDbEntity
  8
_0-0_
  6
Continuous
 62
   136
100
AcDbLine
 10
3440.411208801563
 20
1782.669203464277
 30
0.0
 11
3581.832565038872
 21
1924.090559701587
 31
0.0
  0
LINE
  5
24C
330
20
100
AcDbEntity
  8
_0-0_
  6
DASHED1
 62
     6
100
AcDbLine
 10
905.9761430900096
 20
1983.03503921136
 30
0.0
 11
935.9761430900096
 21
1983.03503921136
 31
0.0
  0
LINE
  5
24D
330
20
100
AcDbEntity
  8
_0-0_
  6
DASHED1
 62
     6
100
AcDbLine
 10
905.9761430900096
 20
1983.03503921136
 30
0.0
 11
905.9761430900096
 21
1963.03503921136
 31
0.0
  0
LINE
  5
24E
330
20
100
AcDbEntity
  8
_0-0_
  6
DASHED1
 62
     6
100
AcDbLine
 10
905.9761430900096
 20
1963.03503921136
 30
0.0
 11
935.9761430900096
 21
1963.03503921136
 31
0.0
  0
LINE
  5
24F
330
20
100
AcDbEntity
  8
_0-0_
  6
DASHED1
 62
     6
100
AcDbLine
 10
905.9761430900096
 20
1733.03503921136
 30
0.0
 11
935.9761430900096
 21
1733.03503921136
 31
0.0
  0
LINE
  5
250
330
20
100
AcDbEntity
  8
_0-0_
  6
DASHED1
 62
     6
100
AcDbLine
 10
905.9761430900096
 20
1733.03503921136
 30
0.0
 11
905.9761430900096
 21
1713.03503921136
 31
0.0
  0
LINE
  5
251
330
20
100
AcDbEntity
  8
_0-0_
  6
DASHED1
 62
     6
100
AcDbLine
 10
905.9761430900096
 20
1713.03503921136
 30
0.0
 11
935.9761430900096
 21
1713.03503921136
 31
0.0
  0
CIRCLE
  5
252
330
20
100
AcDbEntity
  8
_0-0_
  6
DASHED1
 62
     6
100
AcDbCircle
 10
1185.976143090009
 20
1723.03503921136
 30
0.0
 40
10.0
  0
CIRCLE
  5
253
330
20
100
AcDbEntity
  8
_0-0_
  6
DASHED1
 62
     6
100
AcDbCircle
 10
1385.97614309001
 20
1723.03503921136
 30
0.0
 40
10.0
  0
CIRCLE
  5
254
330
20
100
AcDbEntity
  8
_0-0_
  6
DASHED1
 62
     6
100
AcDbCircle
 10
1585.976143090009
 20
1723.03503921136
 30
0.0
 40
10.0
  0
LINE
  5
255
330
20
100
AcDbEntity
  8
_0-0_
  6
DASHED1
 62
     6
100
AcDbLine
 10
1835.976143090009
 20
1713.03503921136
 30
0.0
 11
1865.976143090009
 21
1713.03503921136
 31
0.0
  0
LINE
  5
256
330
20
100
AcDbEntity
  8
_0-0_
  6
DASHED1
 62
     6
100
AcDbLine
 10
1835.976143090009
 20
1733.03503921136
 30
0.0
 11
1865.976143090009
 21
1733.03503921136
 31
0.0
  0
LINE
  5
257
330
20
100
AcDbEntity
  8
_0-0_
  6
DASHED1
 62
     6
100
AcDbLine
 10
1865.976143090009
 20
1733.03503921136
 30
0.0
 11
1865.976143090009
 21
1713.03503921136
 31
0.0
  0
LINE
  5
258
330
20
100
AcDbEntity
  8
_0-0_
  6
DASHED1
 62
     6
100
AcDbLine
 10
1835.976143090009
 20
1963.03503921136
 30
0.0
 11
1865.976143090009
 21
1963.03503921136
 31
0.0
  0
LINE
  5
259
330
20
100
AcDbEntity
  8
_0-0_
  6
DASHED1
 62
     6
100
AcDbLine
 10
1835.976143090009
 20
1983.03503921136
 30
0.0
 11
1865.976143090009
 21
1983.03503921136
 31
0.0
  0
LINE
  5
25A
330
20
100
AcDbEntity
  8
_0-0_
  6
DASHED1
 62
     6
100
AcDbLine
 10
1865.976143090009
 20
1983.03503921136
 30
0.0
 11
1865.976143090009
 21
1963.03503921136
 31
0.0
  0
CIRCLE
  5
25B
330
20
100
AcDbEntity
  8
_0-0_
  6
DASHED1
 62
     6
100
AcDbCircle
 10
1585.976143090009
 20
1973.03503921136
 30
0.0
 40
10.0
  0
CIRCLE
  5
25C
330
20
100
AcDbEntity
  8
_0-0_
  6
DASHED1
 62
     6
100
AcDbCircle
 10
1385.97614309001
 20
1973.03503921136
 30
0.0
 40
10.0
  0
CIRCLE
  5
25D
330
20
100
AcDbEntity
  8
_0-0_
  6
DASHED1
 62
     6
100
AcDbCircle
 10
1185.976143090009
 20
1973.03503921136
 30
0.0
 40
10.0
  0
LINE
  5
25E
330
20
100
AcDbEntity
  8
_0-0_
  6
DASHED1
 62
     6
100
AcDbLine
 10
1835.976143090009
 20
1413.03503921136
 30
0.0
 11
1865.976143090009
 21
1413.03503921136
 31
0.0
  0
LINE
  5
25F
330
20
100
AcDbEntity
  8
_0-0_
  6
DASHED1
 62
     6
100
AcDbLine
 10
1835.976143090009
 20
1393.03503921136
 30
0.0
 11
1865.976143090009
 21
1393.03503921136
 31
0.0
  0
LINE
  5
260
330
20
100
AcDbEntity
  8
_0-0_
  6
DASHED1
 62
     6
100
AcDbLine
 10
1865.976143090009
 20
1413.03503921136
 30
0.0
 11
1865.976143090009
 21
1393.03503921136
 31
0.0
  0
CIRCLE
  5
261
330
20
100
AcDbEntity
  8
_0-0_
  6
DASHED1
 62
     6
100
AcDbCircle
 10
1585.976143090009
 20
1403.03503921136
 30
0.0
 40
10.0
  0
CIRCLE
  5
262
330
20
100
AcDbEntity
  8
_0-0_
  6
DASHED1
 62
     6
100
AcDbCircle
 10
1385.97614309001
 20
1403.03503921136
 30
0.0
 40
10.0
  0
CIRCLE
  5
263
330
20
100
AcDbEntity
  8
_0-0_
  6
DASHED1
 62
     6
100
AcDbCircle
 10
1185.976143090009
 20
1403.03503921136
 30
0.0
 40
10.0
  0
LINE
  5
264
330
20
100
AcDbEntity
  8
_0-0_
  6
DASHED1
 62
     6
100
AcDbLine
 10
905.9761430900096
 20
1393.03503921136
 30
0.0
 11
935.9761430900096
 21
1393.03503921136
 31
0.0
  0
LINE
  5
265
330
20
100
AcDbEntity
  8
_0-0_
  6
DASHED1
 62
     6
100
AcDbLine
 10
905.9761430900096
 20
1413.03503921136
 30
0.0
 11
905.9761430900096
 21
1393.03503921136
 31
0.0
  0
LINE
  5
266
330
20
100
AcDbEntity
  8
_0-0_
  6
DASHED1
 62
     6
100
AcDbLine
 10
905.9761430900096
 20
1413.03503921136
 30
0.0
 11
935.9761430900096
 21
1413.03503921136
 31
0.0
  0
LINE
  5
267
330
20
100
AcDbEntity
  8
_0-0_
  6
DASHED1
 62
     6
100
AcDbLine
 10
3159.700530682908
 20
2191.958525345622
 30
0.0
 11
3159.700530682908
 21
2161.958525345622
 31
0.0
  0
LINE
  5
268
330
20
100
AcDbEntity
  8
_0-0_
  6
DASHED1
 62
     6
100
AcDbLine
 10
3159.700530682908
 20
2191.958525345622
 30
0.0
 11
3179.700530682908
 21
2191.958525345622
 31
0.0
  0
LINE
  5
269
330
20
100
AcDbEntity
  8
_0-0_
  6
DASHED1
 62
     6
100
AcDbLine
 10
3179.700530682908
 20
2191.958525345622
 30
0.0
 11
3179.700530682908
 21
2161.958525345622
 31
0.0
  0
LINE
  5
26A
330
20
100
AcDbEntity
  8
_0-0_
  6
DASHED1
 62
     6
100
AcDbLine
 10
3359.700530682907
 20
2191.958525345622
 30
0.0
 11
3359.700530682907
 21
2161.958525345622
 31
0.0
  0
LINE
  5
26B
330
20
100
AcDbEntity
  8
_0-0_
  6
DASHED1
 62
     6
100
AcDbLine
 10
3359.700530682907
 20
2191.958525345622
 30
0.0
 11
3379.700530682908
 21
2191.958525345622
 31
0.0
  0
LINE
  5
26C
330
20
100
AcDbEntity
  8
_0-0_
  6
DASHED1
 62
     6
100
AcDbLine
 10
3379.700530682908
 20
2191.958525345622
 30
0.0
 11
3379.700530682908
 21
2161.958525345622
 31
0.0
  0
LINE
  5
26D
330
20
100
AcDbEntity
  8
_0-0_
  6
DASHED1
 62
     6
100
AcDbLine
 10
3559.700530682909
 20
2191.958525345622
 30
0.0
 11
3559.700530682909
 21
2161.958525345622
 31
0.0
  0
LINE
  5
26E
330
20
100
AcDbEntity
  8
_0-0_
  6
DASHED1
 62
     6
100
AcDbLine
 10
3559.700530682909
 20
2191.958525345622
 30
0.0
 11
3579.700530682908
 21
2191.958525345622
 31
0.0
  0
LINE
  5
26F
330
20
100
AcDbEntity
  8
_0-0_
  6
DASHED1
 62
     6
100
AcDbLine
 10
3579.700530682908
 20
2191.958525345622
 30
0.0
 11
3579.700530682908
 21
2161.958525345622
 31
0.0
  0
LINE
  5
270
330
20
100
AcDbEntity
  8
_0-0_
  6
DASHED1
 62
     6
100
AcDbLine
 10
3819.700530682908
 20
1921.958525345623
 30
0.0
 11
3849.700530682907
 21
1921.958525345623
 31
0.0
  0
LINE
  5
271
330
20
100
AcDbEntity
  8
_0-0_
  6
DASHED1
 62
     6
100
AcDbLine
 10
3819.700530682908
 20
1901.958525345622
 30
0.0
 11
3849.700530682907
 21
1901.958525345622
 31
0.0
  0
LINE
  5
272
330
20
100
AcDbEntity
  8
_0-0_
  6
DASHED1
 62
     6
100
AcDbLine
 10
3849.700530682907
 20
1921.958525345623
 30
0.0
 11
3849.700530682907
 21
1901.958525345622
 31
0.0
  0
LINE
  5
273
330
20
100
AcDbEntity
  8
_0-0_
  6
DASHED1
 62
     6
100
AcDbLine
 10
3819.700530682908
 20
1721.958525345622
 30
0.0
 11
3849.700530682907
 21
1721.958525345622
 31
0.0
  0
LINE
  5
274
330
20
100
AcDbEntity
  8
_0-0_
  6
DASHED1
 62
     6
100
AcDbLine
 10
3819.700530682908
 20
1701.958525345622
 30
0.0
 11
3849.700530682907
 21
1701.958525345622
 31
0.0
  0
LINE
  5
275
330
20
100
AcDbEntity
  8
_0-0_
  6
DASHED1
 62
     6
100
AcDbLine
 10
3849.700530682907
 20
1721.958525345622
 30
0.0
 11
3849.700530682907
 21
1701.958525345622
 31
0.0
  0
LINE
  5
276
330
20
100
AcDbEntity
  8
_0-0_
  6
DASHED1
 62
     6
100
AcDbLine
 10
3819.700530682908
 20
1521.958525345621
 30
0.0
 11
3849.700530682907
 21
1521.958525345621
 31
0.0
  0
LINE
  5
277
330
20
100
AcDbEntity
  8
_0-0_
  6
DASHED1
 62
     6
100
AcDbLine
 10
3819.700530682908
 20
1501.958525345622
 30
0.0
 11
3849.700530682907
 21
1501.958525345622
 31
0.0
  0
LINE
  5
278
330
20
100
AcDbEntity
  8
_0-0_
  6
DASHED1
 62
     6
100
AcDbLine
 10
3849.700530682907
 20
1521.958525345621
 30
0.0
 11
3849.700530682907
 21
1501.958525345622
 31
0.0
  0
LINE
  5
279
330
20
100
AcDbEntity
  8
_0-0_
  6
DASHED1
 62
     6
100
AcDbLine
 10
3159.700530682908
 20
1261.958525345622
 30
0.0
 11
3159.700530682908
 21
1231.958525345622
 31
0.0
  0
LINE
  5
27A
330
20
100
AcDbEntity
  8
_0-0_
  6
DASHED1
 62
     6
100
AcDbLine
 10
3159.700530682908
 20
1231.958525345622
 30
0.0
 11
3179.700530682908
 21
1231.958525345622
 31
0.0
  0
LINE
  5
27B
330
20
100
AcDbEntity
  8
_0-0_
  6
DASHED1
 62
     6
100
AcDbLine
 10
3179.700530682908
 20
1261.958525345622
 30
0.0
 11
3179.700530682908
 21
1231.958525345622
 31
0.0
  0
LINE
  5
27C
330
20
100
AcDbEntity
  8
_0-0_
  6
DASHED1
 62
     6
100
AcDbLine
 10
3359.700530682907
 20
1261.958525345622
 30
0.0
 11
3359.700530682907
 21
1231.958525345622
 31
0.0
  0
LINE
  5
27D
330
20
100
AcDbEntity
  8
_0-0_
  6
DASHED1
 62
     6
100
AcDbLine
 10
3359.700530682907
 20
1231.958525345622
 30
0.0
 11
3379.700530682908
 21
1231.958525345622
 31
0.0
  0
LINE
  5
27E
330
20
100
AcDbEntity
  8
_0-0_
  6
DASHED1
 62
     6
100
AcDbLine
 10
3379.700530682908
 20
1261.958525345622
 30
0.0
 11
3379.700530682908
 21
1231.958525345622
 31
0.0
  0
LINE
  5
27F
330
20
100
AcDbEntity
  8
_0-0_
  6
DASHED1
 62
     6
100
AcDbLine
 10
3559.700530682909
 20
1261.958525345622
 30
0.0
 11
3559.700530682909
 21
1231.958525345622
 31
0.0
  0
LINE
  5
280
330
20
100
AcDbEntity
  8
_0-0_
  6
DASHED1
 62
     6
100
AcDbLine
 10
3559.700530682909
 20
1231.958525345622
 30
0.0
 11
3579.700530682908
 21
1231.958525345622
 31
0.0
  0
LINE
  5
281
330
20
100
AcDbEntity
  8
_0-0_
  6
DASHED1
 62
     6
100
AcDbLine
 10
3579.700530682908
 20
1261.958525345622
 30
0.0
 11
3579.700530682908
 21
1231.958525345622
 31
0.0
  0
LINE
  5
282
330
20
100
AcDbEntity
  8
_0-0_
  6
DASHED1
 62
     6
100
AcDbLine
 10
2889.700530682908
 20
1921.958525345623
 30
0.0
 11
2919.700530682908
 21
1921.958525345623
 31
0.0
  0
LINE
  5
283
330
20
100
AcDbEntity
  8
_0-0_
  6
DASHED1
 62
     6
100
AcDbLine
 10
2889.700530682908
 20
1921.958525345623
 30
0.0
 11
2889.700530682908
 21
1901.958525345622
 31
0.0
  0
LINE
  5
284
330
20
100
AcDbEntity
  8
_0-0_
  6
DASHED1
 62
     6
100
AcDbLine
 10
2889.700530682908
 20
1901.958525345622
 30
0.0
 11
2919.700530682908
 21
1901.958525345622
 31
0.0
  0
LINE
  5
285
330
20
100
AcDbEntity
  8
_0-0_
  6
DASHED1
 62
     6
100
AcDbLine
 10
2889.700530682908
 20
1721.958525345622
 30
0.0
 11
2919.700530682908
 21
1721.958525345622
 31
0.0
  0
LINE
  5
286
330
20
100
AcDbEntity
  8
_0-0_
  6
DASHED1
 62
     6
100
AcDbLine
 10
2889.700530682908
 20
1721.958525345622
 30
0.0
 11
2889.700530682908
 21
1701.958525345622
 31
0.0
  0
LINE
  5
287
330
20
100
AcDbEntity
  8
_0-0_
  6
DASHED1
 62
     6
100
AcDbLine
 10
2889.700530682908
 20
1701.958525345622
 30
0.0
 11
2919.700530682908
 21
1701.958525345622
 31
0.0
  0
LINE
  5
288
330
20
100
AcDbEntity
  8
_0-0_
  6
DASHED1
 62
     6
100
AcDbLine
 10
2889.700530682908
 20
1521.958525345621
 30
0.0
 11
2919.700530682908
 21
1521.958525345621
 31
0.0
  0
LINE
  5
289
330
20
100
AcDbEntity
  8
_0-0_
  6
DASHED1
 62
     6
100
AcDbLine
 10
2889.700530682908
 20
1521.958525345621
 30
0.0
 11
2889.700530682908
 21
1501.958525345622
 31
0.0
  0
LINE
  5
28A
330
20
100
AcDbEntity
  8
_0-0_
  6
DASHED1
 62
     6
100
AcDbLine
 10
2889.700530682908
 20
1501.958525345622
 30
0.0
 11
2919.700530682908
 21
1501.958525345622
 31
0.0
  0
TEXT
  5
28B
330
20
100
AcDbEntity
  8
_0-0_
 62
     7
100
AcDbText
 10
2466.661368459627
 20
408.3721453715147
 30
0.0
 40
45.0
  1
型　　式
100
AcDbText
  0
TEXT
  5
28C
330
20
100
AcDbEntity
  8
_0-0_
 62
     7
100
AcDbText
 10
2466.593603486089
 20
128.2012650351386
 30
0.0
 40
45.0
  1
検　　図
100
AcDbText
  0
TEXT
  5
28D
330
20
100
AcDbEntity
  8
_0-0_
 62
     7
100
AcDbText
 10
2465.351123058425
 20
199.0226494120167
 30
0.0
 40
45.0
  1
摘　　要
100
AcDbText
  0
TEXT
  5
28E
330
20
100
AcDbEntity
  8
_0-0_
 62
     7
100
AcDbText
 10
2466.593603486089
 20
269.8440337888946
 30
0.0
 40
45.0
  1
寸　　法
100
AcDbText
  0
TEXT
  5
28F
330
20
100
AcDbEntity
  8
_0-0_
 62
     7
100
AcDbText
 10
2465.351123058425
 20
340.6654181657728
 30
0.0
 40
45.0
  1
呼 び 名
100
AcDbText
  0
TEXT
  5
290
330
20
100
AcDbEntity
  8
_0-0_
 62
     7
100
AcDbText
 10
2815.412316077345
 20
268.6015533612301
 30
0.0
 40
45.0
  1
900×900×1200
100
AcDbText
  0
TEXT
  5
291
330
20
100
AcDbEntity
  8
_0-0_
 62
     7
100
AcDbText
 10
2815.804465633217
 20
339.4229377381082
 30
0.0
 40
45.0
  1
H-0912(CR-600)
100
AcDbText
  0
TEXT
  5
292
330
20
100
AcDbEntity
  8
_0-0_
 62
     7
100
AcDbText
 10
2992.162824388184
 20
409.0018416873216
 30
0.0
 40
45.0
  1
900型
100
AcDbText
  0
LINE
  5
293
330
20
100
AcDbEntity
  8
_0-0_
  6
Continuous
 62
     4
100
AcDbLine
 10
4009.700530682906
 20
2011.958525345622
 30
0.0
 11
4009.700530682906
 21
1411.958525345622
 31
0.0
  0
LINE
  5
294
330
20
100
AcDbEntity
  8
_0-0_
  6
Continuous
 62
     4
100
AcDbLine
 10
3909.700530682907
 20
2011.958525345622
 30
0.0
 11
4019.700530682907
 21
2011.958525345622
 31
0.0
  0
LINE
  5
295
330
20
100
AcDbEntity
  8
_0-0_
  6
Continuous
 62
     4
100
AcDbLine
 10
3909.700530682907
 20
1411.958525345622
 30
0.0
 11
4019.700530682907
 21
1411.958525345622
 31
0.0
  0
LINE
  5
296
330
20
100
AcDbEntity
  8
_0-0_
  6
Continuous
 62
     4
100
AcDbLine
 10
4009.700530682906
 20
2011.958525345622
 30
0.0
 11
4015.523959197714
 21
1990.225194254119
 31
0.0
  0
LINE
  5
297
330
20
100
AcDbEntity
  8
_0-0_
  6
Continuous
 62
     4
100
AcDbLine
 10
4009.700530682906
 20
2011.958525345622
 30
0.0
 11
4003.877102168101
 21
1990.225194254119
 31
0.0
  0
LINE
  5
298
330
20
100
AcDbEntity
  8
_0-0_
  6
Continuous
 62
     4
100
AcDbLine
 10
4009.700530682906
 20
1411.958525345622
 30
0.0
 11
4003.877102168101
 21
1433.691856437126
 31
0.0
  0
LINE
  5
299
330
20
100
AcDbEntity
  8
_0-0_
  6
Continuous
 62
     4
100
AcDbLine
 10
4009.700530682906
 20
1411.958525345622
 30
0.0
 11
4015.523959197714
 21
1433.691856437126
 31
0.0
  0
TEXT
  5
29A
330
20
100
AcDbEntity
  8
_0-0_
 62
     7
100
AcDbText
 10
4001.72567248955
 20
1677.506537348623
 30
0.0
 40
45.0
  1
600
 50
90.0
100
AcDbText
  0
LINE
  5
29B
330
20
100
AcDbEntity
  8
_0-0_
  6
Continuous
 62
     4
100
AcDbLine
 10
3369.700530682908
 20
2251.958525345622
 30
0.0
 11
3369.700530682908
 21
2361.958525345622
 31
0.0
  0
LINE
  5
29C
330
20
100
AcDbEntity
  8
_0-0_
  6
Continuous
 62
     4
100
AcDbLine
 10
3569.700530682908
 20
2251.958525345622
 30
0.0
 11
3569.700530682908
 21
2361.958525345622
 31
0.0
  0
LINE
  5
29D
330
20
100
AcDbEntity
  8
_0-0_
  6
Continuous
 62
     4
100
AcDbLine
 10
3169.700530682908
 20
2251.958525345622
 30
0.0
 11
3169.700530682908
 21
2361.958525345622
 31
0.0
  0
LINE
  5
29E
330
20
100
AcDbEntity
  8
_0-0_
  6
Continuous
 62
     4
100
AcDbLine
 10
3569.700530682908
 20
2351.958525345622
 30
0.0
 11
3369.700530682908
 21
2351.958525345622
 31
0.0
  0
LINE
  5
29F
330
20
100
AcDbEntity
  8
_0-0_
  6
Continuous
 62
     4
100
AcDbLine
 10
3369.700530682908
 20
2351.958525345622
 30
0.0
 11
3169.700530682908
 21
2351.958525345622
 31
0.0
  0
LINE
  5
2A0
330
20
100
AcDbEntity
  8
_0-0_
  6
Continuous
 62
     4
100
AcDbLine
 10
3569.700530682908
 20
2351.958525345622
 30
0.0
 11
3547.967199591404
 21
2346.135096830816
 31
0.0
  0
LINE
  5
2A1
330
20
100
AcDbEntity
  8
_0-0_
  6
Continuous
 62
     4
100
AcDbLine
 10
3569.700530682908
 20
2351.958525345622
 30
0.0
 11
3547.967199591404
 21
2357.781953860429
 31
0.0
  0
LINE
  5
2A2
330
20
100
AcDbEntity
  8
_0-0_
  6
Continuous
 62
     4
100
AcDbLine
 10
3369.700530682908
 20
2351.958525345622
 30
0.0
 11
3391.433861774412
 21
2357.781953860429
 31
0.0
  0
LINE
  5
2A3
330
20
100
AcDbEntity
  8
_0-0_
  6
Continuous
 62
     4
100
AcDbLine
 10
3369.700530682908
 20
2351.958525345622
 30
0.0
 11
3391.433861774412
 21
2346.135096830816
 31
0.0
  0
LINE
  5
2A4
330
20
100
AcDbEntity
  8
_0-0_
  6
Continuous
 62
     4
100
AcDbLine
 10
3369.700530682908
 20
2351.958525345622
 30
0.0
 11
3347.967199591404
 21
2346.135096830816
 31
0.0
  0
LINE
  5
2A5
330
20
100
AcDbEntity
  8
_0-0_
  6
Continuous
 62
     4
100
AcDbLine
 10
3369.700530682908
 20
2351.958525345622
 30
0.0
 11
3347.967199591404
 21
2357.781953860429
 31
0.0
  0
LINE
  5
2A6
330
20
100
AcDbEntity
  8
_0-0_
  6
Continuous
 62
     4
100
AcDbLine
 10
3169.700530682908
 20
2351.958525345622
 30
0.0
 11
3191.433861774412
 21
2357.781953860429
 31
0.0
  0
LINE
  5
2A7
330
20
100
AcDbEntity
  8
_0-0_
  6
Continuous
 62
     4
100
AcDbLine
 10
3169.700530682908
 20
2351.958525345622
 30
0.0
 11
3191.433861774412
 21
2346.135096830816
 31
0.0
  0
TEXT
  5
2A8
330
20
100
AcDbEntity
  8
_0-0_
 62
     7
100
AcDbText
 10
3221.159901945437
 20
2364.577266865452
 30
0.0
 40
45.0
  1
200
100
AcDbText
  0
TEXT
  5
2A9
330
20
100
AcDbEntity
  8
_0-0_
 62
     7
100
AcDbText
 10
3418.64190079753
 20
2365.048381394749
 30
0.0
 40
45.0
  1
200
100
AcDbText
  0
LINE
  5
2AA
330
20
100
AcDbEntity
  8
_0-0_
  6
Continuous
 62
     4
100
AcDbLine
 10
2829.700530682908
 20
1711.958525345622
 30
0.0
 11
2719.700530682907
 21
1711.958525345622
 31
0.0
  0
LINE
  5
2AB
330
20
100
AcDbEntity
  8
_0-0_
  6
Continuous
 62
     4
100
AcDbLine
 10
2829.700530682908
 20
1511.958525345622
 30
0.0
 11
2719.700530682907
 21
1511.958525345622
 31
0.0
  0
LINE
  5
2AC
330
20
100
AcDbEntity
  8
_0-0_
  6
Continuous
 62
     4
100
AcDbLine
 10
2829.700530682908
 20
1911.958525345622
 30
0.0
 11
2719.700530682907
 21
1911.958525345622
 31
0.0
  0
LINE
  5
2AD
330
20
100
AcDbEntity
  8
_0-0_
  6
Continuous
 62
     4
100
AcDbLine
 10
2729.700530682908
 20
1511.958525345622
 30
0.0
 11
2729.700530682908
 21
1711.958525345622
 31
0.0
  0
LINE
  5
2AE
330
20
100
AcDbEntity
  8
_0-0_
  6
Continuous
 62
     4
100
AcDbLine
 10
2729.700530682908
 20
1911.958525345622
 30
0.0
 11
2729.700530682908
 21
1711.958525345622
 31
0.0
  0
LINE
  5
2AF
330
20
100
AcDbEntity
  8
_0-0_
  6
Continuous
 62
     4
100
AcDbLine
 10
2729.700530682908
 20
1911.958525345622
 30
0.0
 11
2735.523959197716
 21
1890.225194254119
 31
0.0
  0
LINE
  5
2B0
330
20
100
AcDbEntity
  8
_0-0_
  6
Continuous
 62
     4
100
AcDbLine
 10
2729.700530682908
 20
1911.958525345622
 30
0.0
 11
2723.877102168101
 21
1890.225194254119
 31
0.0
  0
LINE
  5
2B1
330
20
100
AcDbEntity
  8
_0-0_
  6
Continuous
 62
     4
100
AcDbLine
 10
2729.700530682908
 20
1711.958525345622
 30
0.0
 11
2723.877102168101
 21
1733.691856437126
 31
0.0
  0
LINE
  5
2B2
330
20
100
AcDbEntity
  8
_0-0_
  6
Continuous
 62
     4
100
AcDbLine
 10
2729.700530682908
 20
1711.958525345622
 30
0.0
 11
2735.523959197716
 21
1733.691856437126
 31
0.0
  0
LINE
  5
2B3
330
20
100
AcDbEntity
  8
_0-0_
  6
Continuous
 62
     4
100
AcDbLine
 10
2729.700530682908
 20
1711.958525345622
 30
0.0
 11
2735.523959197716
 21
1690.225194254118
 31
0.0
  0
LINE
  5
2B4
330
20
100
AcDbEntity
  8
_0-0_
  6
Continuous
 62
     4
100
AcDbLine
 10
2729.700530682908
 20
1711.958525345622
 30
0.0
 11
2723.877102168101
 21
1690.225194254118
 31
0.0
  0
LINE
  5
2B5
330
20
100
AcDbEntity
  8
_0-0_
  6
Continuous
 62
     4
100
AcDbLine
 10
2729.700530682908
 20
1511.958525345622
 30
0.0
 11
2723.877102168101
 21
1533.691856437126
 31
0.0
  0
LINE
  5
2B6
330
20
100
AcDbEntity
  8
_0-0_
  6
Continuous
 62
     4
100
AcDbLine
 10
2729.700530682908
 20
1511.958525345622
 30
0.0
 11
2735.523959197716
 21
1533.691856437126
 31
0.0
  0
TEXT
  5
2B7
330
20
100
AcDbEntity
  8
_0-0_
 62
     7
100
AcDbText
 10
2721.947303686387
 20
1777.223993913761
 30
0.0
 40
45.0
  1
200
 50
90.0
100
AcDbText
  0
TEXT
  5
2B8
330
20
100
AcDbEntity
  8
_0-0_
 62
     7
100
AcDbText
 10
2720.434174158157
 20
1577.490896187502
 30
0.0
 40
45.0
  1
200
 50
90.0
100
AcDbText
  0
LINE
  5
2B9
330
20
100
AcDbEntity
  8
_0-0_
  6
Continuous
 62
     4
100
AcDbLine
 10
1905.976143090009
 20
483.0350392113603
 30
0.0
 11
865.9761430900097
 21
483.0350392113603
 31
0.0
  0
LINE
  5
2BA
330
20
100
AcDbEntity
  8
_0-0_
  6
Continuous
 62
     4
100
AcDbLine
 10
865.9761430900097
 20
913.03503921136
 30
0.0
 11
865.9761430900097
 21
473.0350392113601
 31
0.0
  0
LINE
  5
2BB
330
20
100
AcDbEntity
  8
_0-0_
  6
Continuous
 62
     4
100
AcDbLine
 10
1905.976143090009
 20
913.03503921136
 30
0.0
 11
1905.976143090009
 21
473.0350392113601
 31
0.0
  0
LINE
  5
2BC
330
20
100
AcDbEntity
  8
_0-0_
  6
Continuous
 62
     4
100
AcDbLine
 10
1905.976143090009
 20
483.0350392113603
 30
0.0
 11
1884.242811998506
 21
477.2116106965535
 31
0.0
  0
LINE
  5
2BD
330
20
100
AcDbEntity
  8
_0-0_
  6
Continuous
 62
     4
100
AcDbLine
 10
1905.976143090009
 20
483.0350392113603
 30
0.0
 11
1884.242811998506
 21
488.858467726167
 31
0.0
  0
LINE
  5
2BE
330
20
100
AcDbEntity
  8
_0-0_
  6
Continuous
 62
     4
100
AcDbLine
 10
865.9761430900097
 20
483.0350392113603
 30
0.0
 11
887.7094741815136
 21
488.858467726167
 31
0.0
  0
LINE
  5
2BF
330
20
100
AcDbEntity
  8
_0-0_
  6
Continuous
 62
     4
100
AcDbLine
 10
865.9761430900097
 20
483.0350392113603
 30
0.0
 11
887.7094741815136
 21
477.2116106965535
 31
0.0
  0
TEXT
  5
2C0
330
20
100
AcDbEntity
  8
_0-0_
 62
     7
100
AcDbText
 10
1340.800678521983
 20
490.4941430889816
 30
0.0
 40
45.0
  1
1040
100
AcDbText
  0
LINE
  5
2C1
330
20
100
AcDbEntity
  8
_0-0_
  6
Continuous
 62
     4
100
AcDbLine
 10
950.9761430900097
 20
2643.035039211361
 30
0.0
 11
1820.976143090009
 21
2643.035039211361
 31
0.0
  0
LINE
  5
2C2
330
20
100
AcDbEntity
  8
_0-0_
  6
Continuous
 62
     4
100
AcDbLine
 10
950.9761430900097
 20
2653.03503921136
 30
0.0
 11
950.9761430900097
 21
2433.03503921136
 31
0.0
  0
LINE
  5
2C3
330
20
100
AcDbEntity
  8
_0-0_
  6
Continuous
 62
     4
100
AcDbLine
 10
1820.976143090009
 20
2653.03503921136
 30
0.0
 11
1820.976143090009
 21
2433.03503921136
 31
0.0
  0
LINE
  5
2C4
330
20
100
AcDbEntity
  8
_0-0_
  6
Continuous
 62
     4
100
AcDbLine
 10
1820.976143090009
 20
2643.035039211361
 30
0.0
 11
1799.242811998506
 21
2637.211610696553
 31
0.0
  0
LINE
  5
2C5
330
20
100
AcDbEntity
  8
_0-0_
  6
Continuous
 62
     4
100
AcDbLine
 10
1820.976143090009
 20
2643.035039211361
 30
0.0
 11
1799.242811998506
 21
2648.858467726167
 31
0.0
  0
LINE
  5
2C6
330
20
100
AcDbEntity
  8
_0-0_
  6
Continuous
 62
     4
100
AcDbLine
 10
950.9761430900097
 20
2643.035039211361
 30
0.0
 11
972.7094741815136
 21
2648.858467726167
 31
0.0
  0
LINE
  5
2C7
330
20
100
AcDbEntity
  8
_0-0_
  6
Continuous
 62
     4
100
AcDbLine
 10
950.9761430900097
 20
2643.035039211361
 30
0.0
 11
972.7094741815136
 21
2637.211610696553
 31
0.0
  0
TEXT
  5
2C8
330
20
100
AcDbEntity
  8
_0-0_
 62
     7
100
AcDbText
 10
1329.580564691452
 20
2652.910551494029
 30
0.0
 40
45.0
  1
φ870
100
AcDbText
  0
TEXT
  5
2C9
330
20
100
AcDbEntity
  8
_0-0_
 62
     7
100
AcDbText
 10
1329.580564691452
 20
2543.575400762633
 30
0.0
 40
45.0
  1
φ600
100
AcDbText
  0
TEXT
  5
2CA
330
20
100
AcDbEntity
  8
_0-0_
 62
     7
100
AcDbText
 10
3698.320099156088
 20
269.1317869378469
 30
0.0
 40
45.0
  1
FKHH-H0912-CR600
 41
0.7800000000000001
100
AcDbText
  0
ENDSEC
  0
SECTION
  2
OBJECTS
  0
DICTIONARY
  5
C
330
0
100
AcDbDictionary
281
     1
  3
ACAD_COLOR
350
1B
  3
ACAD_GROUP
350
D
  3
ACAD_LAYOUT
350
19
  3
ACAD_MATERIAL
350
1A
  3
ACAD_MLINESTYLE
350
16
  3
ACAD_PLOTSETTINGS
350
18
  3
ACAD_PLOTSTYLENAME
350
E
  3
ACDBHEADERROUNDTRIPXREC
350
2D2
  3
AcDbVariableDictionary
350
2CE
  0
DICTIONARY
  5
1B
102
{ACAD_REACTORS
330
C
102
}
330
C
100
AcDbDictionary
281
     1
  0
DICTIONARY
  5
D
102
{ACAD_REACTORS
330
C
102
}
330
C
100
AcDbDictionary
281
     1
  0
DICTIONARY
  5
19
102
{ACAD_REACTORS
330
C
102
}
330
C
100
AcDbDictionary
281
     1
  3
Model
350
23
  3
レイアウト1
350
1F
  0
DICTIONARY
  5
1A
102
{ACAD_REACTORS
330
C
102
}
330
C
100
AcDbDictionary
281
     1
  0
DICTIONARY
  5
16
102
{ACAD_REACTORS
330
C
102
}
330
C
100
AcDbDictionary
281
     1
  3
Standard
350
17
  0
DICTIONARY
  5
18
102
{ACAD_REACTORS
330
C
102
}
330
C
100
AcDbDictionary
281
     1
  0
ACDBDICTIONARYWDFLT
  5
E
102
{ACAD_REACTORS
330
C
102
}
330
C
100
AcDbDictionary
281
     1
  3
Normal
350
F
100
AcDbDictionaryWithDefault
340
F
  0
DICTIONARY
  5
2D2
102
{ACAD_REACTORS
330
C
102
}
330
C
100
AcDbDictionary
281
     1
  3
COLORDICT
350
2D4
  3
MATERIALDICT
350
2D3
  0
DICTIONARY
  5
2CE
102
{ACAD_REACTORS
330
C
102
}
330
C
100
AcDbDictionary
281
     1
  3
DIMASSOC
350
2CF
  3
PROJECTNAME
350
2D0
  0
LAYOUT
  5
23
102
{ACAD_XDICTIONARY
360
2D7
102
}
102
{ACAD_REACTORS
330
19
102
}
330
19
100
AcDbPlotSettings
  1

  2
RICOH imagio MP C3300 RPCS
  4

  6

 40
0.0
 41
0.0
 42
0.0
 43
0.0
 44
0.0
 45
0.0
 46
0.0
 47
0.0
 48
0.0
 49
0.0
140
0.0
141
0.0
142
1.0
143
1.0
 70
  1712
 72
     0
 73
     0
 74
     0
  7

 75
     0
147
1.0
148
0.0
149
0.0
100
AcDbLayout
  1
Model
 70
     1
 71
     0
 10
0.0
 20
0.0
 11
12.0
 21
9.0
 12
0.0
 22
0.0
 32
0.0
 14
0.0
 24
0.0
 34
0.0
 15
0.0
 25
0.0
 35
0.0
146
0.0
 13
0.0
 23
0.0
 33
0.0
 16
1.0
 26
0.0
 36
0.0
 17
0.0
 27
1.0
 37
0.0
 76
     0
330
20
  0
LAYOUT
  5
1F
102
{ACAD_XDICTIONARY
360
2D5
102
}
102
{ACAD_REACTORS
330
19
102
}
330
19
100
AcDbPlotSettings
  1

  2
RICOH imagio MP C3300 RPCS
  4

  6

 40
0.0
 41
0.0
 42
0.0
 43
0.0
 44
0.0
 45
0.0
 46
0.0
 47
0.0
 48
0.0
 49
0.0
140
0.0
141
0.0
142
1.0
143
1.0
 70
   688
 72
     0
 73
     0
 74
     5
  7

 75
    16
147
1.0
148
0.0
149
0.0
100
AcDbLayout
  1
レイアウト1
 70
     1
 71
     1
 10
0.0
 20
0.0
 11
12.0
 21
9.0
 12
0.0
 22
0.0
 32
0.0
 14
1.000000000000000E+20
 24
1.000000000000000E+20
 34
1.000000000000000E+20
 15
-1.000000000000000E+20
 25
-1.000000000000000E+20
 35
-1.000000000000000E+20
146
0.0
 13
0.0
 23
0.0
 33
0.0
 16
1.0
 26
0.0
 36
0.0
 17
0.0
 27
1.0
 37
0.0
 76
     0
330
1C
  0
MLINESTYLE
  5
17
102
{ACAD_REACTORS
330
16
102
}
330
16
100
AcDbMlineStyle
  2
STANDARD
 70
     0
  3

 62
   256
 51
90.0
 52
90.0
 71
     2
 49
0.5
 62
   256
  6
BYLAYER
 49
-0.5
 62
   256
  6
BYLAYER
  0
ACDBPLACEHOLDER
  5
F
102
{ACAD_REACTORS
330
E
102
}
330
E
  0
XRECORD
  5
2D4
102
{ACAD_REACTORS
330
2D2
102
}
330
2D2
100
AcDbXrecord
280
     1
340
1B
  0
XRECORD
  5
2D3
102
{ACAD_REACTORS
330
2D2
102
}
330
2D2
100
AcDbXrecord
280
     1
340
1A
  0
DICTIONARYVAR
  5
2CF
102
{ACAD_REACTORS
330
2CE
102
}
330
2CE
100
DictionaryVariables
280
     0
  1
1
  0
DICTIONARYVAR
  5
2D0
102
{ACAD_REACTORS
330
2CE
102
}
330
2CE
100
DictionaryVariables
280
     0
  1

  0
DICTIONARY
  5
2D7
330
23
100
AcDbDictionary
280
     1
281
     1
  3
ACAD_XREC_ROUNDTRIP
360
2D8
  0
DICTIONARY
  5
2D5
330
1F
100
AcDbDictionary
280
     1
281
     1
  3
ACAD_XREC_ROUNDTRIP
360
2D6
  0
XRECORD
  5
2D8
102
{ACAD_REACTORS
330
2D7
102
}
330
2D7
100
AcDbXrecord
280
     1
102
SHADEPLOT
 70
     0
102
SHADEPLOTRESLEVEL
 70
     2
102
SHADEPLOTCUSTOMDPI
 70
   300
  0
XRECORD
  5
2D6
102
{ACAD_REACTORS
330
2D5
102
}
330
2D5
100
AcDbXrecord
280
     1
102
SHADEPLOT
 70
     0
102
SHADEPLOTRESLEVEL
 70
     2
102
SHADEPLOTCUSTOMDPI
 70
   300
  0
ENDSEC
  0
EOF
