  0
SECTION
  2
HEADER
  9
$ACADVER
  1
AC1015
  9
$ACADMAINTVER
 70
    20
  9
$DWGCODEPAGE
  3
ANSI_932
  9
$INSBASE
 10
0.0
 20
0.0
 30
0.0
  9
$EXTMIN
 10
156.6211077624702
 20
52.84572320210213
 30
-0.0015258207003583
  9
$EXTMAX
 10
6027.150740530436
 20
4067.468271343348
 30
0.0000000349246037
  9
$LIMMIN
 10
0.0
 20
0.0
  9
$LIMMAX
 10
5940.0
 20
4200.0
  9
$ORTHOMODE
 70
     1
  9
$REGENMODE
 70
     1
  9
$FILLMODE
 70
     1
  9
$QTEXTMODE
 70
     0
  9
$MIRRTEXT
 70
     0
  9
$LTSCALE
 40
20.0
  9
$ATTMODE
 70
     1
  9
$TEXTSIZE
 40
0.2
  9
$TRACEWID
 40
0.05
  9
$TEXTSTYLE
  7
STANDARD
  9
$CLAYER
  8
0
  9
$CELTYPE
  6
CONTINUOUS
  9
$CECOLOR
 62
   256
  9
$CELTSCALE
 40
1.0
  9
$DISPSILH
 70
     0
  9
$DIMSCALE
 40
1.0
  9
$DIMASZ
 40
0.18
  9
$DIMEXO
 40
0.0625
  9
$DIMDLI
 40
0.38
  9
$DIMRND
 40
0.0
  9
$DIMDLE
 40
0.0
  9
$DIMEXE
 40
0.18
  9
$DIMTP
 40
0.0
  9
$DIMTM
 40
0.0
  9
$DIMTXT
 40
0.18
  9
$DIMCEN
 40
0.09
  9
$DIMTSZ
 40
0.0
  9
$DIMTOL
 70
     0
  9
$DIMLIM
 70
     0
  9
$DIMTIH
 70
     1
  9
$DIMTOH
 70
     1
  9
$DIMSE1
 70
     0
  9
$DIMSE2
 70
     0
  9
$DIMTAD
 70
     0
  9
$DIMZIN
 70
     0
  9
$DIMBLK
  1

  9
$DIMASO
 70
     1
  9
$DIMSHO
 70
     1
  9
$DIMPOST
  1

  9
$DIMAPOST
  1

  9
$DIMALT
 70
     0
  9
$DIMALTD
 70
     2
  9
$DIMALTF
 40
25.4
  9
$DIMLFAC
 40
1.0
  9
$DIMTOFL
 70
     0
  9
$DIMTVP
 40
0.0
  9
$DIMTIX
 70
     0
  9
$DIMSOXD
 70
     0
  9
$DIMSAH
 70
     0
  9
$DIMBLK1
  1

  9
$DIMBLK2
  1

  9
$DIMSTYLE
  2
Standard
  9
$DIMCLRD
 70
     0
  9
$DIMCLRE
 70
     0
  9
$DIMCLRT
 70
     0
  9
$DIMTFAC
 40
1.0
  9
$DIMGAP
 40
0.09
  9
$DIMJUST
 70
     0
  9
$DIMSD1
 70
     0
  9
$DIMSD2
 70
     0
  9
$DIMTOLJ
 70
     1
  9
$DIMTZIN
 70
     0
  9
$DIMALTZ
 70
     0
  9
$DIMALTTZ
 70
     0
  9
$DIMUPT
 70
     0
  9
$DIMDEC
 70
     4
  9
$DIMTDEC
 70
     4
  9
$DIMALTU
 70
     2
  9
$DIMALTTD
 70
     2
  9
$DIMTXSTY
  7
STANDARD
  9
$DIMAUNIT
 70
     0
  9
$DIMADEC
 70
     0
  9
$DIMALTRND
 40
0.0
  9
$DIMAZIN
 70
     0
  9
$DIMDSEP
 70
    46
  9
$DIMATFIT
 70
     3
  9
$DIMFRAC
 70
     0
  9
$DIMLDRBLK
  1

  9
$DIMLUNIT
 70
     2
  9
$DIMLWD
 70
    -2
  9
$DIMLWE
 70
    -2
  9
$DIMTMOVE
 70
     0
  9
$LUNITS
 70
     2
  9
$LUPREC
 70
     4
  9
$SKETCHINC
 40
0.1
  9
$FILLETRAD
 40
0.0
  9
$AUNITS
 70
     0
  9
$AUPREC
 70
     0
  9
$MENU
  1
.
  9
$ELEVATION
 40
0.0
  9
$PELEVATION
 40
0.0
  9
$THICKNESS
 40
0.0
  9
$LIMCHECK
 70
     0
  9
$CHAMFERA
 40
0.0
  9
$CHAMFERB
 40
0.0
  9
$CHAMFERC
 40
0.0
  9
$CHAMFERD
 40
0.0
  9
$SKPOLY
 70
     0
  9
$TDCREATE
 40
2457253.474625822
  9
$TDUCREATE
 40
2457253.099625822
  9
$TDUPDATE
 40
2457253.485078021
  9
$TDUUPDATE
 40
2457253.110078021
  9
$TDINDWG
 40
0.0104527431
  9
$TDUSRTIMER
 40
0.0104527431
  9
$USRTIMER
 70
     1
  9
$ANGBASE
 50
0.0
  9
$ANGDIR
 70
     0
  9
$PDMODE
 70
     0
  9
$PDSIZE
 40
0.0
  9
$PLINEWID
 40
0.0
  9
$SPLFRAME
 70
     0
  9
$SPLINETYPE
 70
     6
  9
$SPLINESEGS
 70
     8
  9
$HANDSEED
  5
306
  9
$SURFTAB1
 70
     6
  9
$SURFTAB2
 70
     6
  9
$SURFTYPE
 70
     6
  9
$SURFU
 70
     6
  9
$SURFV
 70
     6
  9
$UCSBASE
  2

  9
$UCSNAME
  2

  9
$UCSORG
 10
0.0
 20
0.0
 30
0.0
  9
$UCSXDIR
 10
1.0
 20
0.0
 30
0.0
  9
$UCSYDIR
 10
0.0
 20
1.0
 30
0.0
  9
$UCSORTHOREF
  2

  9
$UCSORTHOVIEW
 70
     0
  9
$UCSORGTOP
 10
0.0
 20
0.0
 30
0.0
  9
$UCSORGBOTTOM
 10
0.0
 20
0.0
 30
0.0
  9
$UCSORGLEFT
 10
0.0
 20
0.0
 30
0.0
  9
$UCSORGRIGHT
 10
0.0
 20
0.0
 30
0.0
  9
$UCSORGFRONT
 10
0.0
 20
0.0
 30
0.0
  9
$UCSORGBACK
 10
0.0
 20
0.0
 30
0.0
  9
$PUCSBASE
  2

  9
$PUCSNAME
  2

  9
$PUCSORG
 10
0.0
 20
0.0
 30
0.0
  9
$PUCSXDIR
 10
1.0
 20
0.0
 30
0.0
  9
$PUCSYDIR
 10
0.0
 20
1.0
 30
0.0
  9
$PUCSORTHOREF
  2

  9
$PUCSORTHOVIEW
 70
     0
  9
$PUCSORGTOP
 10
0.0
 20
0.0
 30
0.0
  9
$PUCSORGBOTTOM
 10
0.0
 20
0.0
 30
0.0
  9
$PUCSORGLEFT
 10
0.0
 20
0.0
 30
0.0
  9
$PUCSORGRIGHT
 10
0.0
 20
0.0
 30
0.0
  9
$PUCSORGFRONT
 10
0.0
 20
0.0
 30
0.0
  9
$PUCSORGBACK
 10
0.0
 20
0.0
 30
0.0
  9
$USERI1
 70
     0
  9
$USERI2
 70
     0
  9
$USERI3
 70
     0
  9
$USERI4
 70
     0
  9
$USERI5
 70
     0
  9
$USERR1
 40
0.0
  9
$USERR2
 40
0.0
  9
$USERR3
 40
0.0
  9
$USERR4
 40
0.0
  9
$USERR5
 40
0.0
  9
$WORLDVIEW
 70
     1
  9
$SHADEDGE
 70
     3
  9
$SHADEDIF
 70
    70
  9
$TILEMODE
 70
     1
  9
$MAXACTVP
 70
    64
  9
$PINSBASE
 10
0.0
 20
0.0
 30
0.0
  9
$PLIMCHECK
 70
     0
  9
$PEXTMIN
 10
1.000000000000000E+20
 20
1.000000000000000E+20
 30
1.000000000000000E+20
  9
$PEXTMAX
 10
-1.000000000000000E+20
 20
-1.000000000000000E+20
 30
-1.000000000000000E+20
  9
$PLIMMIN
 10
0.0
 20
0.0
  9
$PLIMMAX
 10
12.0
 20
9.0
  9
$UNITMODE
 70
     0
  9
$VISRETAIN
 70
     1
  9
$PLINEGEN
 70
     0
  9
$PSLTSCALE
 70
     1
  9
$TREEDEPTH
 70
  3020
  9
$CMLSTYLE
  2
Standard
  9
$CMLJUST
 70
     0
  9
$CMLSCALE
 40
1.0
  9
$PROXYGRAPHICS
 70
     1
  9
$MEASUREMENT
 70
     0
  9
$CELWEIGHT
370
    -1
  9
$ENDCAPS
280
     0
  9
$JOINSTYLE
280
     0
  9
$LWDISPLAY
290
     0
  9
$INSUNITS
 70
     0
  9
$HYPERLINKBASE
  1

  9
$STYLESHEET
  1

  9
$XEDIT
290
     1
  9
$CEPSNTYPE
380
     0
  9
$PSTYLEMODE
290
     1
  9
$FINGERPRINTGUID
  2
{6AAB489B-7A5C-44CA-AE75-4F30A9B16746}
  9
$VERSIONGUID
  2
{5047BEE1-286A-42E7-8E40-F0AEB8273FC0}
  9
$EXTNAMES
290
     1
  9
$PSVPSCALE
 40
0.0
  9
$OLESTARTUP
290
     0
  0
ENDSEC
  0
SECTION
  2
CLASSES
  0
CLASS
  1
ACDBDICTIONARYWDFLT
  2
AcDbDictionaryWithDefault
  3
ObjectDBX Classes
 90
        0
280
     0
281
     0
  0
CLASS
  1
DICTIONARYVAR
  2
AcDbDictionaryVar
  3
ObjectDBX Classes
 90
        0
280
     0
281
     0
  0
CLASS
  1
ACDBPLACEHOLDER
  2
AcDbPlaceHolder
  3
ObjectDBX Classes
 90
        0
280
     0
281
     0
  0
CLASS
  1
LAYOUT
  2
AcDbLayout
  3
ObjectDBX Classes
 90
        0
280
     0
281
     0
  0
ENDSEC
  0
SECTION
  2
TABLES
  0
TABLE
  2
VPORT
  5
8
330
0
100
AcDbSymbolTable
 70
     3
  0
VPORT
  5
2FE
330
8
100
AcDbSymbolTableRecord
100
AcDbViewportTableRecord
  2
*Active
 70
     0
 10
0.0
 20
0.0
 11
1.0
 21
1.0
 12
3303.280922521692
 22
2158.464123875258
 13
0.0
 23
0.0
 14
1.0
 24
1.0
 15
0.0
 25
0.0
 16
0.0
 26
0.0
 36
1.0
 17
0.0
 27
0.0
 37
0.0
 40
5680.975663015871
 41
1.609333333333333
 42
50.0
 43
0.0
 44
0.0
 50
0.0
 51
0.0
 71
     0
 72
   100
 73
     1
 74
     1
 75
     0
 76
     0
 77
     0
 78
     0
281
     0
 65
     1
110
0.0
120
0.0
130
0.0
111
1.0
121
0.0
131
0.0
112
0.0
122
1.0
132
0.0
 79
     0
146
0.0
  0
ENDTAB
  0
TABLE
  2
LTYPE
  5
5
330
0
100
AcDbSymbolTable
 70
    35
  0
LTYPE
  5
13
330
5
100
AcDbSymbolTableRecord
100
AcDbLinetypeTableRecord
  2
ByBlock
 70
     0
  3

 72
    65
 73
     0
 40
0.0
  0
LTYPE
  5
14
330
5
100
AcDbSymbolTableRecord
100
AcDbLinetypeTableRecord
  2
ByLayer
 70
     0
  3

 72
    65
 73
     0
 40
0.0
  0
LTYPE
  5
15
330
5
100
AcDbSymbolTableRecord
100
AcDbLinetypeTableRecord
  2
CONTINUOUS
 70
     0
  3
実線
 72
    65
 73
     0
 40
0.0
  0
LTYPE
  5
24
330
5
100
AcDbSymbolTableRecord
100
AcDbLinetypeTableRecord
  2
DASHED1
 70
     0
  3
--  --  --  --  --  --  --  --  
 72
    65
 73
     2
 40
2.5
 49
1.25
 74
     0
 49
-1.25
 74
     0
  0
LTYPE
  5
25
330
5
100
AcDbSymbolTableRecord
100
AcDbLinetypeTableRecord
  2
DASHED2
 70
     0
  3
----    ----    ----    ----    
 72
    65
 73
     2
 40
5.0
 49
2.5
 74
     0
 49
-2.5
 74
     0
  0
LTYPE
  5
26
330
5
100
AcDbSymbolTableRecord
100
AcDbLinetypeTableRecord
  2
DASHED3
 70
     0
  3
------  ------  ------  ------  
 72
    65
 73
     2
 40
5.0
 49
3.75
 74
     0
 49
-1.25
 74
     0
  0
LTYPE
  5
27
330
5
100
AcDbSymbolTableRecord
100
AcDbLinetypeTableRecord
  2
CENTER1
 70
     0
  3
----- - ----- - ----- - ----- - 
 72
    65
 73
     4
 40
10.0
 49
6.25
 74
     0
 49
-1.25
 74
     0
 49
1.25
 74
     0
 49
-1.25
 74
     0
  0
LTYPE
  5
28
330
5
100
AcDbSymbolTableRecord
100
AcDbLinetypeTableRecord
  2
CENTER2
 70
     0
  3
----------  --  ----------  --  
 72
    65
 73
     4
 40
20.0
 49
12.5
 74
     0
 49
-2.5
 74
     0
 49
2.5
 74
     0
 49
-2.5
 74
     0
  0
LTYPE
  5
29
330
5
100
AcDbSymbolTableRecord
100
AcDbLinetypeTableRecord
  2
PHANTOM1
 70
     0
  3
--- - - --- - - --- - - --- - - 
 72
    65
 73
     6
 40
10.0
 49
3.25
 74
     0
 49
-1.25
 74
     0
 49
1.25
 74
     0
 49
-1.25
 74
     0
 49
1.25
 74
     0
 49
-1.25
 74
     0
  0
LTYPE
  5
2A
330
5
100
AcDbSymbolTableRecord
100
AcDbLinetypeTableRecord
  2
PHANTOM2
 70
     0
  3
--------  -  -  --------  -  -  
 72
    65
 73
     6
 40
20.0
 49
10.0
 74
     0
 49
-2.5
 74
     0
 49
1.25
 74
     0
 49
-2.5
 74
     0
 49
1.25
 74
     0
 49
-2.5
 74
     0
  0
LTYPE
  5
2B
330
5
100
AcDbSymbolTableRecord
100
AcDbLinetypeTableRecord
  2
DOT
 70
     0
  3
-   -   -   -   -   -   -   -   
 72
    65
 73
     2
 40
2.5
 49
0.625
 74
     0
 49
-1.875
 74
     0
  0
LTYPE
  5
2C
330
5
100
AcDbSymbolTableRecord
100
AcDbLinetypeTableRecord
  2
DUMMY
 70
     0
  3
ダミー
 72
    65
 73
     0
 40
0.0
  0
LTYPE
  5
2D
330
5
100
AcDbSymbolTableRecord
100
AcDbLinetypeTableRecord
  2
RAND1
 70
     0
  3
ランダム線1
 72
    65
 73
     4
 40
10.0
 49
1.0
 74
     0
 49
-2.0
 74
     0
 49
3.0
 74
     0
 49
-4.0
 74
     0
  0
LTYPE
  5
2E
330
5
100
AcDbSymbolTableRecord
100
AcDbLinetypeTableRecord
  2
RAND2
 70
     0
  3
ランダム線2
 72
    65
 73
     4
 40
14.0
 49
2.0
 74
     0
 49
-3.0
 74
     0
 49
4.0
 74
     0
 49
-5.0
 74
     0
  0
LTYPE
  5
2F
330
5
100
AcDbSymbolTableRecord
100
AcDbLinetypeTableRecord
  2
RAND3
 70
     0
  3
ランダム線3
 72
    65
 73
     4
 40
18.0
 49
3.0
 74
     0
 49
-4.0
 74
     0
 49
5.0
 74
     0
 49
-6.0
 74
     0
  0
LTYPE
  5
30
330
5
100
AcDbSymbolTableRecord
100
AcDbLinetypeTableRecord
  2
RAND4
 70
     0
  3
ランダム線4
 72
    65
 73
     4
 40
22.0
 49
4.0
 74
     0
 49
-5.0
 74
     0
 49
6.0
 74
     0
 49
-7.0
 74
     0
  0
LTYPE
  5
31
330
5
100
AcDbSymbolTableRecord
100
AcDbLinetypeTableRecord
  2
RAND5
 70
     0
  3
ランダム線5
 72
    65
 73
     4
 40
26.0
 49
5.0
 74
     0
 49
-6.0
 74
     0
 49
7.0
 74
     0
 49
-8.0
 74
     0
  0
LTYPE
  5
32
330
5
100
AcDbSymbolTableRecord
100
AcDbLinetypeTableRecord
  2
LONG1
 70
     0
  3
----------  --  ----------  --  
 72
    65
 73
     4
 40
40.0
 49
32.5
 74
     0
 49
-2.5
 74
     0
 49
2.5
 74
     0
 49
-2.5
 74
     0
  0
LTYPE
  5
33
330
5
100
AcDbSymbolTableRecord
100
AcDbLinetypeTableRecord
  2
LONG2
 70
     0
  3
--------  -  -  --------  -  -  
 72
    65
 73
     6
 40
40.0
 49
30.0
 74
     0
 49
-2.5
 74
     0
 49
1.25
 74
     0
 49
-2.5
 74
     0
 49
1.25
 74
     0
 49
-2.5
 74
     0
  0
LTYPE
  5
34
330
5
100
AcDbSymbolTableRecord
100
AcDbLinetypeTableRecord
  2
LONG3
 70
     0
  3
+++++++++++++++..+++++++++++++++
 72
    65
 73
     2
 40
40.0
 49
37.5
 74
     0
 49
-2.5
 74
     0
  0
LTYPE
  5
35
330
5
100
AcDbSymbolTableRecord
100
AcDbLinetypeTableRecord
  2
LONG4
 70
     0
  3
+++++++++++++++..+++++++++++++++
 72
    65
 73
     2
 40
80.0
 49
75.0
 74
     0
 49
-5.0
 74
     0
  0
LTYPE
  5
36
330
5
100
AcDbSymbolTableRecord
100
AcDbLinetypeTableRecord
  2
LONG5
 70
     0
  3
----------  --  ----------  --  
 72
    65
 73
     4
 40
60.0
 49
37.5
 74
     0
 49
-7.5
 74
     0
 49
7.5
 74
     0
 49
-7.5
 74
     0
  0
LTYPE
  5
37
330
5
100
AcDbSymbolTableRecord
100
AcDbLinetypeTableRecord
  2
DASHED
 70
     0
  3
-------   -------------   ------
 72
    65
 73
     2
 40
7.5
 49
6.0
 74
     0
 49
-1.5
 74
     0
  0
LTYPE
  5
38
330
5
100
AcDbSymbolTableRecord
100
AcDbLinetypeTableRecord
  2
DASHED_SPACED
 70
     0
  3
----        --------        ----
 72
    65
 73
     2
 40
12.0
 49
6.0
 74
     0
 49
-6.0
 74
     0
  0
LTYPE
  5
39
330
5
100
AcDbSymbolTableRecord
100
AcDbLinetypeTableRecord
  2
LONG_DASHED_DOTTED
 70
     0
  3
------------- --- --------------
 72
    65
 73
     4
 40
15.25
 49
12.0
 74
     0
 49
-1.5
 74
     0
 49
0.25
 74
     0
 49
-1.5
 74
     0
  0
LTYPE
  5
3A
330
5
100
AcDbSymbolTableRecord
100
AcDbLinetypeTableRecord
  2
LONG_DASHED_DOUBLE-DOTTED
 70
     0
  3
----------- --- --- ------------
 72
    65
 73
     6
 40
17.0
 49
12.0
 74
     0
 49
-1.5
 74
     0
 49
0.25
 74
     0
 49
-1.5
 74
     0
 49
0.25
 74
     0
 49
-1.5
 74
     0
  0
LTYPE
  5
3B
330
5
100
AcDbSymbolTableRecord
100
AcDbLinetypeTableRecord
  2
LONG_DASHED_TRIPLICATE-DOTTED
 70
     0
  3
--------- --- --- --- ----------
 72
    65
 73
     8
 40
18.75
 49
12.0
 74
     0
 49
-1.5
 74
     0
 49
0.25
 74
     0
 49
-1.5
 74
     0
 49
0.25
 74
     0
 49
-1.5
 74
     0
 49
0.25
 74
     0
 49
-1.5
 74
     0
  0
LTYPE
  5
3C
330
5
100
AcDbSymbolTableRecord
100
AcDbLinetypeTableRecord
  2
DOTTED
 70
     0
  3
   -       -       -       -    
 72
    65
 73
     2
 40
1.75
 49
0.25
 74
     0
 49
-1.5
 74
     0
  0
LTYPE
  5
3D
330
5
100
AcDbSymbolTableRecord
100
AcDbLinetypeTableRecord
  2
CHAIN
 70
     0
  3
-------------- -- --------------
 72
    65
 73
     4
 40
18.5
 49
12.0
 74
     0
 49
-1.5
 74
     0
 49
3.5
 74
     0
 49
-1.5
 74
     0
  0
LTYPE
  5
3E
330
5
100
AcDbSymbolTableRecord
100
AcDbLinetypeTableRecord
  2
CHAIN_DOUBLE_DASH
 70
     0
  3
------------ -- -- -------------
 72
    65
 73
     6
 40
23.5
 49
12.0
 74
     0
 49
-1.5
 74
     0
 49
3.5
 74
     0
 49
-1.5
 74
     0
 49
3.5
 74
     0
 49
-1.5
 74
     0
  0
LTYPE
  5
3F
330
5
100
AcDbSymbolTableRecord
100
AcDbLinetypeTableRecord
  2
DASHED_DOTTED
 70
     0
  3
-----------     -     ----------
 72
    65
 73
     4
 40
9.25
 49
6.0
 74
     0
 49
-1.5
 74
     0
 49
0.25
 74
     0
 49
-1.5
 74
     0
  0
LTYPE
  5
40
330
5
100
AcDbSymbolTableRecord
100
AcDbLinetypeTableRecord
  2
DOUBLE-DASHED_DOTTED
 70
     0
  3
------   -----------   -   -----
 72
    65
 73
     6
 40
16.75
 49
6.0
 74
     0
 49
-1.5
 74
     0
 49
6.0
 74
     0
 49
-1.5
 74
     0
 49
0.25
 74
     0
 49
-1.5
 74
     0
  0
LTYPE
  5
41
330
5
100
AcDbSymbolTableRecord
100
AcDbLinetypeTableRecord
  2
DASHED_DOUBLE-DOTTED
 70
     0
  3
---------    -    -    ---------
 72
    65
 73
     6
 40
11.0
 49
6.0
 74
     0
 49
-1.5
 74
     0
 49
0.25
 74
     0
 49
-1.5
 74
     0
 49
0.25
 74
     0
 49
-1.5
 74
     0
  0
LTYPE
  5
42
330
5
100
AcDbSymbolTableRecord
100
AcDbLinetypeTableRecord
  2
DOUBLE-DASHED_DOUBLE-DOTTED
 70
     0
  3
-----   ---------   -   -   ----
 72
    65
 73
     8
 40
18.5
 49
6.0
 74
     0
 49
-1.5
 74
     0
 49
6.0
 74
     0
 49
-1.5
 74
     0
 49
0.25
 74
     0
 49
-1.5
 74
     0
 49
0.25
 74
     0
 49
-1.5
 74
     0
  0
LTYPE
  5
43
330
5
100
AcDbSymbolTableRecord
100
AcDbLinetypeTableRecord
  2
DASHED_TRIPLICATE-DOTTED
 70
     0
  3
-------    -    -    -    ------
 72
    65
 73
     8
 40
12.75
 49
6.0
 74
     0
 49
-1.5
 74
     0
 49
0.25
 74
     0
 49
-1.5
 74
     0
 49
0.25
 74
     0
 49
-1.5
 74
     0
 49
0.25
 74
     0
 49
-1.5
 74
     0
  0
LTYPE
  5
44
330
5
100
AcDbSymbolTableRecord
100
AcDbLinetypeTableRecord
  2
DOUBLE-DASHED_TRIPLICATE-DOTTED
 70
     0
  3
-----  ---------  -  -  -  -----
 72
    65
 73
    10
 40
20.25
 49
6.0
 74
     0
 49
-1.5
 74
     0
 49
6.0
 74
     0
 49
-1.5
 74
     0
 49
0.25
 74
     0
 49
-1.5
 74
     0
 49
0.25
 74
     0
 49
-1.5
 74
     0
 49
0.25
 74
     0
 49
-1.5
 74
     0
  0
LTYPE
  5
45
330
5
100
AcDbSymbolTableRecord
100
AcDbLinetypeTableRecord
  2
UNDEFINED
 70
     0
  3
--------------------------------
 72
    65
 73
     0
 40
0.0
  0
ENDTAB
  0
TABLE
  2
LAYER
  5
2
330
0
100
AcDbSymbolTable
 70
     3
  0
LAYER
  5
10
330
2
100
AcDbSymbolTableRecord
100
AcDbLayerTableRecord
  2
0
 70
     0
 62
     7
  6
CONTINUOUS
370
    -3
390
F
  0
LAYER
  5
47
330
2
100
AcDbSymbolTableRecord
100
AcDbLayerTableRecord
  2
_0-0_
 70
     0
 62
     7
  6
CONTINUOUS
370
    -3
390
F
  0
LAYER
  5
48
330
2
100
AcDbSymbolTableRecord
100
AcDbLayerTableRecord
  2
ADD_LINE
 70
     0
 62
     7
  6
CONTINUOUS
370
    -3
390
F
  0
ENDTAB
  0
TABLE
  2
STYLE
  5
3
330
0
100
AcDbSymbolTable
 70
     2
  0
STYLE
  5
11
330
3
100
AcDbSymbolTableRecord
100
AcDbTextStyleTableRecord
  2
STANDARD
 70
     0
 40
0.0
 41
1.0
 50
0.0
 71
     0
 42
0.2
  3
txt
  4
bigfont.shx
  0
STYLE
  5
46
330
3
100
AcDbSymbolTableRecord
100
AcDbTextStyleTableRecord
  2
TATEGAKI
 70
     4
 40
0.0
 41
1.0
 50
0.0
 71
     0
 42
1.0
  3
txt
  4
bigfont.shx
  0
ENDTAB
  0
TABLE
  2
VIEW
  5
6
330
0
100
AcDbSymbolTable
 70
     0
  0
ENDTAB
  0
TABLE
  2
UCS
  5
7
330
0
100
AcDbSymbolTable
 70
     0
  0
ENDTAB
  0
TABLE
  2
APPID
  5
9
330
0
100
AcDbSymbolTable
 70
     1
  0
APPID
  5
12
330
9
100
AcDbSymbolTableRecord
100
AcDbRegAppTableRecord
  2
ACAD
 70
     0
  0
ENDTAB
  0
TABLE
  2
DIMSTYLE
  5
A
330
0
100
AcDbSymbolTable
 70
     1
100
AcDbDimStyleTable
 71
     0
  0
DIMSTYLE
105
2F8
330
A
100
AcDbSymbolTableRecord
100
AcDbDimStyleTableRecord
  2
Standard
 70
     0
340
11
  0
ENDTAB
  0
TABLE
  2
BLOCK_RECORD
  5
1
330
0
100
AcDbSymbolTable
 70
     0
  0
BLOCK_RECORD
  5
20
330
1
100
AcDbSymbolTableRecord
100
AcDbBlockTableRecord
  2
*Model_Space
340
23
  0
BLOCK_RECORD
  5
1C
330
1
100
AcDbSymbolTableRecord
100
AcDbBlockTableRecord
  2
*Paper_Space
340
1F
  0
ENDTAB
  0
ENDSEC
  0
SECTION
  2
BLOCKS
  0
BLOCK
  5
21
330
20
100
AcDbEntity
  8
0
100
AcDbBlockBegin
  2
*Model_Space
 70
     0
 10
0.0
 20
0.0
 30
0.0
  3
*Model_Space
  1

  0
ENDBLK
  5
22
330
20
100
AcDbEntity
  8
0
100
AcDbBlockEnd
  0
BLOCK
  5
1D
330
1C
100
AcDbEntity
 67
     1
  8
0
100
AcDbBlockBegin
  2
*Paper_Space
 70
     0
 10
0.0
 20
0.0
 30
0.0
  3
*Paper_Space
  1

  0
ENDBLK
  5
1E
330
1C
100
AcDbEntity
 67
     1
  8
0
100
AcDbBlockEnd
  0
ENDSEC
  0
SECTION
  2
ENTITIES
  0
LINE
  5
4C
330
20
100
AcDbEntity
  8
_0-0_
  6
Continuous
 62
     4
100
AcDbLine
 10
3963.166485440478
 20
1738.986653147005
 30
0.0
 11
3693.166485440477
 21
1738.986653147005
 31
0.0
  0
LINE
  5
4D
330
20
100
AcDbEntity
  8
_0-0_
  6
Continuous
 62
     4
100
AcDbLine
 10
2455.668408365153
 20
2381.227436557144
 30
0.0
 11
2590.668408365153
 21
2381.227436557144
 31
0.0
  0
LINE
  5
4E
330
20
100
AcDbEntity
  8
_0-0_
  6
Continuous
 62
     7
100
AcDbLine
 10
4675.046288549484
 20
773.4404976794722
 30
0.0
 11
4675.046288549484
 21
173.4404976794721
 31
0.0
  0
LINE
  5
4F
330
20
100
AcDbEntity
  8
_0-0_
  6
Continuous
 62
     7
100
AcDbLine
 10
3775.046288549485
 20
773.4404976794722
 30
0.0
 11
3775.046288549485
 21
173.4404976794721
 31
0.0
  0
LINE
  5
50
330
20
100
AcDbEntity
  8
_0-0_
  6
Continuous
 62
     7
100
AcDbLine
 10
3475.046288549485
 20
773.4404976794722
 30
0.0
 11
3475.046288549485
 21
173.4404976794721
 31
0.0
  0
LINE
  5
51
330
20
100
AcDbEntity
  8
_0-0_
  6
Continuous
 62
     7
100
AcDbLine
 10
4975.046288549485
 20
773.4404976794722
 30
0.0
 11
4975.046288549485
 21
273.4404976794721
 31
0.0
  0
LINE
  5
52
330
20
100
AcDbEntity
  8
_0-0_
  6
Continuous
 62
     7
100
AcDbLine
 10
5775.046288549485
 20
273.4404976794721
 30
0.0
 11
3475.046288549485
 21
273.4404976794721
 31
0.0
  0
LINE
  5
53
330
20
100
AcDbEntity
  8
_0-0_
  6
Continuous
 62
     7
100
AcDbLine
 10
5775.046288549485
 20
373.4404976794721
 30
0.0
 11
3475.046288549485
 21
373.4404976794721
 31
0.0
  0
LINE
  5
54
330
20
100
AcDbEntity
  8
_0-0_
  6
Continuous
 62
     7
100
AcDbLine
 10
5775.046288549485
 20
473.440497679472
 30
0.0
 11
3475.046288549485
 21
473.440497679472
 31
0.0
  0
LINE
  5
55
330
20
100
AcDbEntity
  8
_0-0_
  6
Continuous
 62
     7
100
AcDbLine
 10
5775.046288549485
 20
573.4404976794722
 30
0.0
 11
3475.046288549485
 21
573.4404976794722
 31
0.0
  0
LINE
  5
56
330
20
100
AcDbEntity
  8
_0-0_
  6
Continuous
 62
     7
100
AcDbLine
 10
5775.046288549485
 20
673.4404976794722
 30
0.0
 11
3475.046288549485
 21
673.4404976794722
 31
0.0
  0
LINE
  5
57
330
20
100
AcDbEntity
  8
_0-0_
  6
Continuous
 62
     7
100
AcDbLine
 10
5775.046288549485
 20
773.4404976794722
 30
0.0
 11
3475.046288549485
 21
773.4404976794722
 31
0.0
  0
LINE
  5
58
330
20
100
AcDbEntity
  8
_0-0_
  6
Continuous
 62
     7
100
AcDbLine
 10
4075.046288549485
 20
273.4404976794721
 30
0.0
 11
4075.046288549485
 21
173.4404976794721
 31
0.0
  0
LINE
  5
59
330
20
100
AcDbEntity
  8
_0-0_
  6
Continuous
 62
     7
100
AcDbLine
 10
4375.046288549484
 20
273.4404976794721
 30
0.0
 11
4375.046288549484
 21
173.4404976794721
 31
0.0
  0
LINE
  5
5A
330
20
100
AcDbEntity
  8
_0-0_
  6
Continuous
 62
     4
100
AcDbLine
 10
1280.668408365153
 20
3356.227436557145
 30
0.0
 11
2440.668408365153
 21
3356.227436557145
 31
0.0
  0
LINE
  5
5B
330
20
100
AcDbEntity
  8
_0-0_
  6
Continuous
 62
     4
100
AcDbLine
 10
605.6684083651532
 20
2951.227436557145
 30
0.0
 11
605.6684083651532
 21
1351.227436557144
 31
0.0
  0
LINE
  5
5C
330
20
100
AcDbEntity
  8
_0-0_
  6
Continuous
 62
     4
100
AcDbLine
 10
1280.668408365153
 20
2966.227436557145
 30
0.0
 11
1280.668408365153
 21
3371.227436557145
 31
0.0
  0
LINE
  5
5D
330
20
100
AcDbEntity
  8
_0-0_
  6
Continuous
 62
     4
100
AcDbLine
 10
1265.668408365153
 20
2951.227436557145
 30
0.0
 11
590.6684083651533
 21
2951.227436557145
 31
0.0
  0
LINE
  5
5E
330
20
100
AcDbEntity
  8
_0-0_
  6
Continuous
 62
     4
100
AcDbLine
 10
1265.668408365153
 20
1351.227436557144
 30
0.0
 11
590.6684083651533
 21
1351.227436557144
 31
0.0
  0
LINE
  5
5F
330
20
100
AcDbEntity
  8
_0-0_
  6
Continuous
 62
     7
100
AcDbLine
 10
1280.668408365153
 20
2451.227436557144
 30
0.0
 11
2440.668408365153
 21
2451.227436557144
 31
0.0
  0
LINE
  5
60
330
20
100
AcDbEntity
  8
_0-0_
  6
Continuous
 62
     7
100
AcDbLine
 10
1280.668408365153
 20
1951.227436557144
 30
0.0
 11
2440.668408365153
 21
1951.227436557144
 31
0.0
  0
LINE
  5
61
330
20
100
AcDbEntity
  8
_0-0_
  6
DASHED1
 62
   136
100
AcDbLine
 10
1410.668408365153
 20
2751.227436557145
 30
0.0
 11
1410.668408365153
 21
1451.227436557144
 31
0.0
  0
LINE
  5
62
330
20
100
AcDbEntity
  8
_0-0_
  6
DASHED1
 62
   136
100
AcDbLine
 10
2310.668408365153
 20
2751.227436557145
 30
0.0
 11
2310.668408365153
 21
1451.227436557144
 31
0.0
  0
LINE
  5
63
330
20
100
AcDbEntity
  8
_0-0_
  6
DASHED1
 62
   136
100
AcDbLine
 10
1360.668408365153
 20
2701.227436557144
 30
0.0
 11
2360.668408365153
 21
2701.227436557144
 31
0.0
  0
LINE
  5
64
330
20
100
AcDbEntity
  8
_0-0_
  6
DASHED1
 62
   136
100
AcDbLine
 10
1360.668408365153
 20
1501.227436557144
 30
0.0
 11
2360.668408365153
 21
1501.227436557144
 31
0.0
  0
LINE
  5
65
330
20
100
AcDbEntity
  8
_0-0_
  6
DASHED1
 62
   136
100
AcDbLine
 10
1410.668408365153
 20
2751.227436557145
 30
0.0
 11
1360.668408365153
 21
2701.227436557144
 31
0.0
  0
LINE
  5
66
330
20
100
AcDbEntity
  8
_0-0_
  6
DASHED1
 62
   136
100
AcDbLine
 10
1410.668408365153
 20
2751.227436557145
 30
0.0
 11
2310.668408365153
 21
2751.227436557145
 31
0.0
  0
LINE
  5
67
330
20
100
AcDbEntity
  8
_0-0_
  6
DASHED1
 62
   136
100
AcDbLine
 10
2310.668408365153
 20
2751.227436557145
 30
0.0
 11
2360.668408365153
 21
2701.227436557144
 31
0.0
  0
LINE
  5
68
330
20
100
AcDbEntity
  8
_0-0_
  6
DASHED1
 62
   136
100
AcDbLine
 10
1360.668408365153
 20
1501.227436557144
 30
0.0
 11
1410.668408365153
 21
1451.227436557144
 31
0.0
  0
LINE
  5
69
330
20
100
AcDbEntity
  8
_0-0_
  6
DASHED1
 62
   136
100
AcDbLine
 10
2360.668408365153
 20
1501.227436557144
 30
0.0
 11
2310.668408365153
 21
1451.227436557144
 31
0.0
  0
LINE
  5
6A
330
20
100
AcDbEntity
  8
_0-0_
  6
DASHED1
 62
   136
100
AcDbLine
 10
2360.668408365153
 20
2701.227436557144
 30
0.0
 11
2360.668408365153
 21
1501.227436557144
 31
0.0
  0
LINE
  5
6B
330
20
100
AcDbEntity
  8
_0-0_
  6
Continuous
 62
     7
100
AcDbLine
 10
2440.668408365153
 20
2841.227436557145
 30
0.0
 11
2440.668408365153
 21
1361.227436557144
 31
0.0
  0
LINE
  5
6C
330
20
100
AcDbEntity
  8
_0-0_
  6
Continuous
 62
     7
100
AcDbLine
 10
2440.668408365153
 20
1361.227436557144
 30
0.0
 11
2430.668408365153
 21
1351.227436557144
 31
0.0
  0
LINE
  5
6D
330
20
100
AcDbEntity
  8
_0-0_
  6
Continuous
 62
     7
100
AcDbLine
 10
1280.668408365153
 20
2841.227436557145
 30
0.0
 11
1280.668408365153
 21
1361.227436557144
 31
0.0
  0
LINE
  5
6E
330
20
100
AcDbEntity
  8
_0-0_
  6
Continuous
 62
     7
100
AcDbLine
 10
1280.668408365153
 20
1361.227436557144
 30
0.0
 11
1290.668408365153
 21
1351.227436557144
 31
0.0
  0
LINE
  5
6F
330
20
100
AcDbEntity
  8
_0-0_
  6
Continuous
 62
     7
100
AcDbLine
 10
1290.668408365153
 20
1351.227436557144
 30
0.0
 11
2430.668408365153
 21
1351.227436557144
 31
0.0
  0
LINE
  5
70
330
20
100
AcDbEntity
  8
_0-0_
  6
DASHED1
 62
   136
100
AcDbLine
 10
1430.668408365153
 20
2851.227436557145
 30
0.0
 11
1420.668408365153
 21
2751.227436557145
 31
0.0
  0
LINE
  5
71
330
20
100
AcDbEntity
  8
_0-0_
  6
DASHED1
 62
   136
100
AcDbLine
 10
2030.668408365153
 20
2851.227436557145
 30
0.0
 11
2040.668408365153
 21
2751.227436557145
 31
0.0
  0
LINE
  5
72
330
20
100
AcDbEntity
  8
_0-0_
  6
DASHED1
 62
   136
100
AcDbLine
 10
1430.668408365153
 20
2851.227436557145
 30
0.0
 11
1430.668408365153
 21
2951.227436557145
 31
0.0
  0
LINE
  5
73
330
20
100
AcDbEntity
  8
_0-0_
  6
DASHED1
 62
   136
100
AcDbLine
 10
2030.668408365153
 20
2851.227436557145
 30
0.0
 11
2030.668408365153
 21
2951.227436557145
 31
0.0
  0
LINE
  5
74
330
20
100
AcDbEntity
  8
_0-0_
  6
Continuous
 62
     7
100
AcDbLine
 10
1290.668408365153
 20
2851.227436557145
 30
0.0
 11
1280.668408365153
 21
2841.227436557145
 31
0.0
  0
LINE
  5
75
330
20
100
AcDbEntity
  8
_0-0_
  6
Continuous
 62
     7
100
AcDbLine
 10
1290.668408365153
 20
2851.227436557145
 30
0.0
 11
2430.668408365153
 21
2851.227436557145
 31
0.0
  0
LINE
  5
76
330
20
100
AcDbEntity
  8
_0-0_
  6
Continuous
 62
     7
100
AcDbLine
 10
2430.668408365153
 20
2851.227436557145
 30
0.0
 11
2440.668408365153
 21
2841.227436557145
 31
0.0
  0
LINE
  5
77
330
20
100
AcDbEntity
  8
_0-0_
  6
Continuous
 62
     7
100
AcDbLine
 10
2161.143439556681
 20
2941.726812726584
 30
0.0
 11
2165.668408365153
 21
2851.227436557145
 31
0.0
  0
ARC
  5
78
330
20
100
AcDbEntity
  8
_0-0_
  6
Continuous
 62
     7
100
AcDbCircle
 10
2151.155916167903
 20
2941.227436557145
 30
0.0
 40
10.0
100
AcDbArc
 50
2.862405226111732
 51
90.00000000000003
  0
LINE
  5
79
330
20
100
AcDbEntity
  8
_0-0_
  6
Continuous
 62
     7
100
AcDbLine
 10
1310.180900562403
 20
2951.227436557145
 30
0.0
 11
2151.155916167903
 21
2951.227436557145
 31
0.0
  0
LINE
  5
7A
330
20
100
AcDbEntity
  8
_0-0_
  6
Continuous
 62
     7
100
AcDbLine
 10
1300.193377173625
 20
2941.726812726584
 30
0.0
 11
1295.668408365153
 21
2851.227436557145
 31
0.0
  0
ARC
  5
7B
330
20
100
AcDbEntity
  8
_0-0_
  6
Continuous
 62
     7
100
AcDbCircle
 10
1310.180900562403
 20
2941.227436557145
 30
0.0
 40
10.0
100
AcDbArc
 50
90.0
 51
177.1375947738882
  0
LINE
  5
7C
330
20
100
AcDbEntity
  8
_0-0_
  6
Continuous
 62
     4
100
AcDbLine
 10
1430.668408365153
 20
2966.227436557145
 30
0.0
 11
1430.668408365153
 21
3101.227436557145
 31
0.0
  0
LINE
  5
7D
330
20
100
AcDbEntity
  8
_0-0_
  6
Continuous
 62
     4
100
AcDbLine
 10
2030.668408365153
 20
2966.227436557145
 30
0.0
 11
2030.668408365153
 21
3101.227436557145
 31
0.0
  0
LINE
  5
7E
330
20
100
AcDbEntity
  8
_0-0_
  6
Continuous
 62
     4
100
AcDbLine
 10
1295.668408365153
 20
2966.227436557145
 30
0.0
 11
1295.668408365153
 21
3236.227436557145
 31
0.0
  0
LINE
  5
7F
330
20
100
AcDbEntity
  8
_0-0_
  6
Continuous
 62
     4
100
AcDbLine
 10
2165.668408365153
 20
2966.227436557145
 30
0.0
 11
2165.668408365153
 21
3236.227436557145
 31
0.0
  0
LINE
  5
80
330
20
100
AcDbEntity
  8
_0-0_
  6
Continuous
 62
     4
100
AcDbLine
 10
1295.668408365153
 20
3221.227436557145
 30
0.0
 11
2165.668408365153
 21
3221.227436557145
 31
0.0
  0
LINE
  5
81
330
20
100
AcDbEntity
  8
_0-0_
  6
Continuous
 62
     4
100
AcDbLine
 10
1295.668408365153
 20
3086.227436557145
 30
0.0
 11
1430.668408365153
 21
3086.227436557145
 31
0.0
  0
LINE
  5
82
330
20
100
AcDbEntity
  8
_0-0_
  6
Continuous
 62
     4
100
AcDbLine
 10
2030.668408365153
 20
3086.227436557145
 30
0.0
 11
2165.668408365153
 21
3086.227436557145
 31
0.0
  0
LINE
  5
83
330
20
100
AcDbEntity
  8
_0-0_
  6
Continuous
 62
     4
100
AcDbLine
 10
2030.668408365153
 20
3086.227436557145
 30
0.0
 11
1430.668408365153
 21
3086.227436557145
 31
0.0
  0
LINE
  5
84
330
20
100
AcDbEntity
  8
_0-0_
  6
Continuous
 62
     4
100
AcDbLine
 10
2440.668408365153
 20
3371.227436557145
 30
0.0
 11
2440.668408365153
 21
2866.227436557145
 31
0.0
  0
LINE
  5
85
330
20
100
AcDbEntity
  8
_0-0_
  6
Continuous
 62
     4
100
AcDbLine
 10
2440.668408365153
 20
2966.227436557145
 30
0.0
 11
2440.668408365153
 21
2866.227436557145
 31
0.0
  0
LINE
  5
86
330
20
100
AcDbEntity
  8
_0-0_
  6
Continuous
 62
     4
100
AcDbLine
 10
1265.668408365153
 20
2851.227436557145
 30
0.0
 11
725.6684083651532
 21
2851.227436557145
 31
0.0
  0
LINE
  5
87
330
20
100
AcDbEntity
  8
_0-0_
  6
Continuous
 62
     4
100
AcDbLine
 10
1265.668408365153
 20
2451.227436557144
 30
0.0
 11
995.6684083651532
 21
2451.227436557144
 31
0.0
  0
LINE
  5
88
330
20
100
AcDbEntity
  8
_0-0_
  6
Continuous
 62
     4
100
AcDbLine
 10
1265.668408365153
 20
1951.227436557144
 30
0.0
 11
995.6684083651532
 21
1951.227436557144
 31
0.0
  0
LINE
  5
89
330
20
100
AcDbEntity
  8
_0-0_
  6
Continuous
 62
     4
100
AcDbLine
 10
1265.668408365153
 20
1811.227436557144
 30
0.0
 11
1130.668408365153
 21
1811.227436557144
 31
0.0
  0
LINE
  5
8A
330
20
100
AcDbEntity
  8
_0-0_
  6
Continuous
 62
     4
100
AcDbLine
 10
1265.668408365153
 20
1511.227436557144
 30
0.0
 11
1130.668408365153
 21
1511.227436557144
 31
0.0
  0
LINE
  5
8B
330
20
100
AcDbEntity
  8
_0-0_
  6
Continuous
 62
     4
100
AcDbLine
 10
1145.668408365153
 20
1811.227436557144
 30
0.0
 11
1145.668408365153
 21
1511.227436557144
 31
0.0
  0
LINE
  5
8C
330
20
100
AcDbEntity
  8
_0-0_
  6
Continuous
 62
     4
100
AcDbLine
 10
1145.668408365153
 20
1811.227436557144
 30
0.0
 11
1145.668408365153
 21
1951.227436557144
 31
0.0
  0
LINE
  5
8D
330
20
100
AcDbEntity
  8
_0-0_
  6
Continuous
 62
     4
100
AcDbLine
 10
1010.668408365153
 20
2751.227436557145
 30
0.0
 11
1010.668408365153
 21
2451.227436557144
 31
0.0
  0
LINE
  5
8E
330
20
100
AcDbEntity
  8
_0-0_
  6
Continuous
 62
     4
100
AcDbLine
 10
1010.668408365153
 20
2451.227436557144
 30
0.0
 11
1010.668408365153
 21
1951.227436557144
 31
0.0
  0
LINE
  5
8F
330
20
100
AcDbEntity
  8
_0-0_
  6
Continuous
 62
     4
100
AcDbLine
 10
875.6684083651533
 20
2751.227436557145
 30
0.0
 11
875.6684083651533
 21
2851.227436557145
 31
0.0
  0
LINE
  5
90
330
20
100
AcDbEntity
  8
_0-0_
  6
Continuous
 62
     4
100
AcDbLine
 10
1265.668408365153
 20
2751.227436557145
 30
0.0
 11
860.6684083651533
 21
2751.227436557145
 31
0.0
  0
LINE
  5
91
330
20
100
AcDbEntity
  8
_0-0_
  6
Continuous
 62
     4
100
AcDbLine
 10
740.6684083651533
 20
2851.227436557145
 30
0.0
 11
740.6684083651533
 21
1351.227436557144
 31
0.0
  0
LINE
  5
92
330
20
100
AcDbEntity
  8
_0-0_
  6
Continuous
 62
     4
100
AcDbLine
 10
740.6684083651533
 20
2851.227436557145
 30
0.0
 11
740.6684083651533
 21
2951.227436557145
 31
0.0
  0
LINE
  5
93
330
20
100
AcDbEntity
  8
_0-0_
  6
Continuous
 62
     4
100
AcDbLine
 10
1265.668408365153
 20
1451.227436557144
 30
0.0
 11
860.6684083651533
 21
1451.227436557144
 31
0.0
  0
LINE
  5
94
330
20
100
AcDbEntity
  8
_0-0_
  6
Continuous
 62
     4
100
AcDbLine
 10
1145.668408365153
 20
1951.227436557144
 30
0.0
 11
1154.985893988844
 21
1916.454106810737
 31
0.0
  0
LINE
  5
95
330
20
100
AcDbEntity
  8
_0-0_
  6
Continuous
 62
     4
100
AcDbLine
 10
1145.668408365153
 20
1951.227436557144
 30
0.0
 11
1136.350922741462
 21
1916.454106810737
 31
0.0
  0
LINE
  5
96
330
20
100
AcDbEntity
  8
_0-0_
  6
Continuous
 62
     4
100
AcDbLine
 10
1145.668408365153
 20
1811.227436557144
 30
0.0
 11
1136.350922741462
 21
1846.00076630355
 31
0.0
  0
LINE
  5
97
330
20
100
AcDbEntity
  8
_0-0_
  6
Continuous
 62
     4
100
AcDbLine
 10
1145.668408365153
 20
1811.227436557144
 30
0.0
 11
1154.985893988844
 21
1846.00076630355
 31
0.0
  0
LINE
  5
98
330
20
100
AcDbEntity
  8
_0-0_
  6
Continuous
 62
     4
100
AcDbLine
 10
1145.668408365153
 20
1811.227436557144
 30
0.0
 11
1154.985893988844
 21
1776.454106810738
 31
0.0
  0
LINE
  5
99
330
20
100
AcDbEntity
  8
_0-0_
  6
Continuous
 62
     4
100
AcDbLine
 10
1145.668408365153
 20
1811.227436557144
 30
0.0
 11
1136.350922741462
 21
1776.454106810738
 31
0.0
  0
LINE
  5
9A
330
20
100
AcDbEntity
  8
_0-0_
  6
Continuous
 62
     4
100
AcDbLine
 10
1145.668408365153
 20
1511.227436557144
 30
0.0
 11
1136.350922741462
 21
1546.00076630355
 31
0.0
  0
LINE
  5
9B
330
20
100
AcDbEntity
  8
_0-0_
  6
Continuous
 62
     4
100
AcDbLine
 10
1145.668408365153
 20
1511.227436557144
 30
0.0
 11
1154.985893988844
 21
1546.00076630355
 31
0.0
  0
LINE
  5
9C
330
20
100
AcDbEntity
  8
_0-0_
  6
Continuous
 62
     4
100
AcDbLine
 10
605.6684083651532
 20
2951.227436557145
 30
0.0
 11
614.9858939888441
 21
2916.454106810738
 31
0.0
  0
LINE
  5
9D
330
20
100
AcDbEntity
  8
_0-0_
  6
Continuous
 62
     4
100
AcDbLine
 10
605.6684083651532
 20
2951.227436557145
 30
0.0
 11
596.3509227414625
 21
2916.454106810738
 31
0.0
  0
LINE
  5
9E
330
20
100
AcDbEntity
  8
_0-0_
  6
Continuous
 62
     4
100
AcDbLine
 10
605.6684083651532
 20
1351.227436557144
 30
0.0
 11
596.3509227414625
 21
1386.00076630355
 31
0.0
  0
LINE
  5
9F
330
20
100
AcDbEntity
  8
_0-0_
  6
Continuous
 62
     4
100
AcDbLine
 10
605.6684083651532
 20
1351.227436557144
 30
0.0
 11
614.9858939888441
 21
1386.00076630355
 31
0.0
  0
LINE
  5
A0
330
20
100
AcDbEntity
  8
_0-0_
  6
Continuous
 62
     4
100
AcDbLine
 10
740.6684083651533
 20
1351.227436557144
 30
0.0
 11
731.3509227414624
 21
1386.00076630355
 31
0.0
  0
LINE
  5
A1
330
20
100
AcDbEntity
  8
_0-0_
  6
Continuous
 62
     4
100
AcDbLine
 10
740.6684083651533
 20
1351.227436557144
 30
0.0
 11
749.9858939888439
 21
1386.00076630355
 31
0.0
  0
LINE
  5
A2
330
20
100
AcDbEntity
  8
_0-0_
  6
Continuous
 62
     4
100
AcDbLine
 10
740.6684083651533
 20
2851.227436557145
 30
0.0
 11
749.9858939888439
 21
2816.454106810738
 31
0.0
  0
LINE
  5
A3
330
20
100
AcDbEntity
  8
_0-0_
  6
Continuous
 62
     4
100
AcDbLine
 10
740.6684083651533
 20
2851.227436557145
 30
0.0
 11
731.3509227414624
 21
2816.454106810738
 31
0.0
  0
LINE
  5
A4
330
20
100
AcDbEntity
  8
_0-0_
  6
Continuous
 62
     4
100
AcDbLine
 10
740.6684083651533
 20
2851.227436557145
 30
0.0
 11
731.3509227414624
 21
2886.000766303551
 31
0.0
  0
LINE
  5
A5
330
20
100
AcDbEntity
  8
_0-0_
  6
Continuous
 62
     4
100
AcDbLine
 10
740.6684083651533
 20
2851.227436557145
 30
0.0
 11
749.9858939888439
 21
2886.000766303551
 31
0.0
  0
LINE
  5
A6
330
20
100
AcDbEntity
  8
_0-0_
  6
Continuous
 62
     4
100
AcDbLine
 10
740.6684083651533
 20
2951.227436557145
 30
0.0
 11
749.9858939888439
 21
2916.454106810738
 31
0.0
  0
LINE
  5
A7
330
20
100
AcDbEntity
  8
_0-0_
  6
Continuous
 62
     4
100
AcDbLine
 10
740.6684083651533
 20
2951.227436557145
 30
0.0
 11
731.3509227414624
 21
2916.454106810738
 31
0.0
  0
LINE
  5
A8
330
20
100
AcDbEntity
  8
_0-0_
  6
Continuous
 62
     4
100
AcDbLine
 10
875.6684083651533
 20
2851.227436557145
 30
0.0
 11
884.985893988844
 21
2816.454106810738
 31
0.0
  0
LINE
  5
A9
330
20
100
AcDbEntity
  8
_0-0_
  6
Continuous
 62
     4
100
AcDbLine
 10
875.6684083651533
 20
2851.227436557145
 30
0.0
 11
866.3509227414625
 21
2816.454106810738
 31
0.0
  0
LINE
  5
AA
330
20
100
AcDbEntity
  8
_0-0_
  6
Continuous
 62
     4
100
AcDbLine
 10
875.6684083651533
 20
2751.227436557145
 30
0.0
 11
866.3509227414625
 21
2786.00076630355
 31
0.0
  0
LINE
  5
AB
330
20
100
AcDbEntity
  8
_0-0_
  6
Continuous
 62
     4
100
AcDbLine
 10
875.6684083651533
 20
2751.227436557145
 30
0.0
 11
884.985893988844
 21
2786.00076630355
 31
0.0
  0
LINE
  5
AC
330
20
100
AcDbEntity
  8
_0-0_
  6
Continuous
 62
     4
100
AcDbLine
 10
875.6684083651533
 20
2751.227436557145
 30
0.0
 11
884.985893988844
 21
2716.454106810738
 31
0.0
  0
LINE
  5
AD
330
20
100
AcDbEntity
  8
_0-0_
  6
Continuous
 62
     4
100
AcDbLine
 10
875.6684083651533
 20
2751.227436557145
 30
0.0
 11
866.3509227414625
 21
2716.454106810738
 31
0.0
  0
LINE
  5
AE
330
20
100
AcDbEntity
  8
_0-0_
  6
Continuous
 62
     4
100
AcDbLine
 10
875.6684083651533
 20
2751.227436557145
 30
0.0
 11
875.6684083651533
 21
1451.227436557144
 31
0.0
  0
LINE
  5
AF
330
20
100
AcDbEntity
  8
_0-0_
  6
Continuous
 62
     4
100
AcDbLine
 10
875.6684083651533
 20
1451.227436557144
 30
0.0
 11
875.6684083651533
 21
1351.227436557144
 31
0.0
  0
LINE
  5
B0
330
20
100
AcDbEntity
  8
_0-0_
  6
Continuous
 62
     4
100
AcDbLine
 10
875.6684083651533
 20
1451.227436557144
 30
0.0
 11
866.3509227414625
 21
1486.00076630355
 31
0.0
  0
LINE
  5
B1
330
20
100
AcDbEntity
  8
_0-0_
  6
Continuous
 62
     4
100
AcDbLine
 10
875.6684083651533
 20
1451.227436557144
 30
0.0
 11
884.985893988844
 21
1486.00076630355
 31
0.0
  0
LINE
  5
B2
330
20
100
AcDbEntity
  8
_0-0_
  6
Continuous
 62
     4
100
AcDbLine
 10
875.6684083651533
 20
1451.227436557144
 30
0.0
 11
884.985893988844
 21
1416.454106810737
 31
0.0
  0
LINE
  5
B3
330
20
100
AcDbEntity
  8
_0-0_
  6
Continuous
 62
     4
100
AcDbLine
 10
875.6684083651533
 20
1451.227436557144
 30
0.0
 11
866.3509227414625
 21
1416.454106810737
 31
0.0
  0
LINE
  5
B4
330
20
100
AcDbEntity
  8
_0-0_
  6
Continuous
 62
     4
100
AcDbLine
 10
875.6684083651533
 20
1351.227436557144
 30
0.0
 11
866.3509227414625
 21
1386.00076630355
 31
0.0
  0
LINE
  5
B5
330
20
100
AcDbEntity
  8
_0-0_
  6
Continuous
 62
     4
100
AcDbLine
 10
875.6684083651533
 20
1351.227436557144
 30
0.0
 11
884.985893988844
 21
1386.00076630355
 31
0.0
  0
LINE
  5
B6
330
20
100
AcDbEntity
  8
_0-0_
  6
Continuous
 62
     4
100
AcDbLine
 10
1010.668408365153
 20
1951.227436557144
 30
0.0
 11
1010.668408365153
 21
1451.227436557144
 31
0.0
  0
LINE
  5
B7
330
20
100
AcDbEntity
  8
_0-0_
  6
Continuous
 62
     4
100
AcDbLine
 10
1010.668408365153
 20
1451.227436557144
 30
0.0
 11
1001.350922741462
 21
1486.00076630355
 31
0.0
  0
LINE
  5
B8
330
20
100
AcDbEntity
  8
_0-0_
  6
Continuous
 62
     4
100
AcDbLine
 10
1010.668408365153
 20
1451.227436557144
 30
0.0
 11
1019.985893988844
 21
1486.00076630355
 31
0.0
  0
LINE
  5
B9
330
20
100
AcDbEntity
  8
_0-0_
  6
Continuous
 62
     4
100
AcDbLine
 10
1010.668408365153
 20
1951.227436557144
 30
0.0
 11
1019.985893988844
 21
1916.454106810737
 31
0.0
  0
LINE
  5
BA
330
20
100
AcDbEntity
  8
_0-0_
  6
Continuous
 62
     4
100
AcDbLine
 10
1010.668408365153
 20
1951.227436557144
 30
0.0
 11
1001.350922741462
 21
1916.454106810737
 31
0.0
  0
LINE
  5
BB
330
20
100
AcDbEntity
  8
_0-0_
  6
Continuous
 62
     4
100
AcDbLine
 10
1010.668408365153
 20
2451.227436557144
 30
0.0
 11
1019.985893988844
 21
2416.454106810737
 31
0.0
  0
LINE
  5
BC
330
20
100
AcDbEntity
  8
_0-0_
  6
Continuous
 62
     4
100
AcDbLine
 10
1010.668408365153
 20
2451.227436557144
 30
0.0
 11
1001.350922741462
 21
2416.454106810737
 31
0.0
  0
LINE
  5
BD
330
20
100
AcDbEntity
  8
_0-0_
  6
Continuous
 62
     4
100
AcDbLine
 10
1010.668408365153
 20
1951.227436557144
 30
0.0
 11
1001.350922741462
 21
1986.00076630355
 31
0.0
  0
LINE
  5
BE
330
20
100
AcDbEntity
  8
_0-0_
  6
Continuous
 62
     4
100
AcDbLine
 10
1010.668408365153
 20
1951.227436557144
 30
0.0
 11
1019.985893988844
 21
1986.00076630355
 31
0.0
  0
LINE
  5
BF
330
20
100
AcDbEntity
  8
_0-0_
  6
Continuous
 62
     4
100
AcDbLine
 10
1010.668408365153
 20
2751.227436557145
 30
0.0
 11
1019.985893988844
 21
2716.454106810738
 31
0.0
  0
LINE
  5
C0
330
20
100
AcDbEntity
  8
_0-0_
  6
Continuous
 62
     4
100
AcDbLine
 10
1010.668408365153
 20
2751.227436557145
 30
0.0
 11
1001.350922741462
 21
2716.454106810738
 31
0.0
  0
LINE
  5
C1
330
20
100
AcDbEntity
  8
_0-0_
  6
Continuous
 62
     4
100
AcDbLine
 10
1010.668408365153
 20
2451.227436557144
 30
0.0
 11
1001.350922741462
 21
2486.000766303551
 31
0.0
  0
LINE
  5
C2
330
20
100
AcDbEntity
  8
_0-0_
  6
Continuous
 62
     4
100
AcDbLine
 10
1010.668408365153
 20
2451.227436557144
 30
0.0
 11
1019.985893988844
 21
2486.000766303551
 31
0.0
  0
LINE
  5
C3
330
20
100
AcDbEntity
  8
_0-0_
  6
Continuous
 62
     4
100
AcDbLine
 10
1280.668408365153
 20
3356.227436557145
 30
0.0
 11
1315.44173811156
 21
3365.544922180835
 31
0.0
  0
LINE
  5
C4
330
20
100
AcDbEntity
  8
_0-0_
  6
Continuous
 62
     4
100
AcDbLine
 10
1280.668408365153
 20
3356.227436557145
 30
0.0
 11
1315.44173811156
 21
3346.909950933453
 31
0.0
  0
LINE
  5
C5
330
20
100
AcDbEntity
  8
_0-0_
  6
Continuous
 62
     4
100
AcDbLine
 10
2440.668408365153
 20
3356.227436557145
 30
0.0
 11
2405.895078618747
 21
3346.909950933453
 31
0.0
  0
LINE
  5
C6
330
20
100
AcDbEntity
  8
_0-0_
  6
Continuous
 62
     4
100
AcDbLine
 10
2440.668408365153
 20
3356.227436557145
 30
0.0
 11
2405.895078618747
 21
3365.544922180835
 31
0.0
  0
LINE
  5
C7
330
20
100
AcDbEntity
  8
_0-0_
  6
Continuous
 62
     4
100
AcDbLine
 10
2165.668408365153
 20
3221.227436557145
 30
0.0
 11
2130.895078618747
 21
3211.909950933453
 31
0.0
  0
LINE
  5
C8
330
20
100
AcDbEntity
  8
_0-0_
  6
Continuous
 62
     4
100
AcDbLine
 10
2165.668408365153
 20
3221.227436557145
 30
0.0
 11
2130.895078618747
 21
3230.544922180835
 31
0.0
  0
LINE
  5
C9
330
20
100
AcDbEntity
  8
_0-0_
  6
Continuous
 62
     4
100
AcDbLine
 10
1295.668408365153
 20
3221.227436557145
 30
0.0
 11
1330.44173811156
 21
3230.544922180835
 31
0.0
  0
LINE
  5
CA
330
20
100
AcDbEntity
  8
_0-0_
  6
Continuous
 62
     4
100
AcDbLine
 10
1295.668408365153
 20
3221.227436557145
 30
0.0
 11
1330.44173811156
 21
3211.909950933453
 31
0.0
  0
LINE
  5
CB
330
20
100
AcDbEntity
  8
_0-0_
  6
Continuous
 62
     4
100
AcDbLine
 10
1295.668408365153
 20
3086.227436557145
 30
0.0
 11
1330.44173811156
 21
3095.544922180835
 31
0.0
  0
LINE
  5
CC
330
20
100
AcDbEntity
  8
_0-0_
  6
Continuous
 62
     4
100
AcDbLine
 10
1295.668408365153
 20
3086.227436557145
 30
0.0
 11
1330.44173811156
 21
3076.909950933453
 31
0.0
  0
LINE
  5
CD
330
20
100
AcDbEntity
  8
_0-0_
  6
Continuous
 62
     4
100
AcDbLine
 10
1430.668408365153
 20
3086.227436557145
 30
0.0
 11
1395.895078618746
 21
3076.909950933453
 31
0.0
  0
LINE
  5
CE
330
20
100
AcDbEntity
  8
_0-0_
  6
Continuous
 62
     4
100
AcDbLine
 10
1430.668408365153
 20
3086.227436557145
 30
0.0
 11
1395.895078618746
 21
3095.544922180835
 31
0.0
  0
LINE
  5
CF
330
20
100
AcDbEntity
  8
_0-0_
  6
Continuous
 62
     4
100
AcDbLine
 10
1430.668408365153
 20
3086.227436557145
 30
0.0
 11
1465.44173811156
 21
3095.544922180835
 31
0.0
  0
LINE
  5
D0
330
20
100
AcDbEntity
  8
_0-0_
  6
Continuous
 62
     4
100
AcDbLine
 10
1430.668408365153
 20
3086.227436557145
 30
0.0
 11
1465.44173811156
 21
3076.909950933453
 31
0.0
  0
LINE
  5
D1
330
20
100
AcDbEntity
  8
_0-0_
  6
Continuous
 62
     4
100
AcDbLine
 10
2030.668408365153
 20
3086.227436557145
 30
0.0
 11
1995.895078618746
 21
3076.909950933453
 31
0.0
  0
LINE
  5
D2
330
20
100
AcDbEntity
  8
_0-0_
  6
Continuous
 62
     4
100
AcDbLine
 10
2030.668408365153
 20
3086.227436557145
 30
0.0
 11
1995.895078618746
 21
3095.544922180835
 31
0.0
  0
LINE
  5
D3
330
20
100
AcDbEntity
  8
_0-0_
  6
Continuous
 62
     4
100
AcDbLine
 10
2030.668408365153
 20
3086.227436557145
 30
0.0
 11
2065.44173811156
 21
3095.544922180835
 31
0.0
  0
LINE
  5
D4
330
20
100
AcDbEntity
  8
_0-0_
  6
Continuous
 62
     4
100
AcDbLine
 10
2030.668408365153
 20
3086.227436557145
 30
0.0
 11
2065.44173811156
 21
3076.909950933453
 31
0.0
  0
LINE
  5
D5
330
20
100
AcDbEntity
  8
_0-0_
  6
Continuous
 62
     4
100
AcDbLine
 10
2165.668408365153
 20
3086.227436557145
 30
0.0
 11
2130.895078618747
 21
3076.909950933453
 31
0.0
  0
LINE
  5
D6
330
20
100
AcDbEntity
  8
_0-0_
  6
Continuous
 62
     4
100
AcDbLine
 10
2165.668408365153
 20
3086.227436557145
 30
0.0
 11
2130.895078618747
 21
3095.544922180835
 31
0.0
  0
LINE
  5
D7
330
20
100
AcDbEntity
  8
_0-0_
  6
Continuous
 62
     4
100
AcDbLine
 10
1265.668408365153
 20
2101.227436557144
 30
0.0
 11
1130.668408365153
 21
2101.227436557144
 31
0.0
  0
LINE
  5
D8
330
20
100
AcDbEntity
  8
_0-0_
  6
Continuous
 62
     4
100
AcDbLine
 10
1265.668408365153
 20
2301.227436557144
 30
0.0
 11
1130.668408365153
 21
2301.227436557144
 31
0.0
  0
LINE
  5
D9
330
20
100
AcDbEntity
  8
_0-0_
  6
Continuous
 62
     4
100
AcDbLine
 10
1145.668408365153
 20
1951.227436557144
 30
0.0
 11
1145.668408365153
 21
2101.227436557144
 31
0.0
  0
LINE
  5
DA
330
20
100
AcDbEntity
  8
_0-0_
  6
Continuous
 62
     4
100
AcDbLine
 10
1145.668408365153
 20
2301.227436557144
 30
0.0
 11
1145.668408365153
 21
2451.227436557144
 31
0.0
  0
LINE
  5
DB
330
20
100
AcDbEntity
  8
_0-0_
  6
Continuous
 62
     4
100
AcDbLine
 10
1145.668408365153
 20
2301.227436557144
 30
0.0
 11
1145.668408365153
 21
2101.227436557144
 31
0.0
  0
LINE
  5
DC
330
20
100
AcDbEntity
  8
_0-0_
  6
Continuous
 62
     4
100
AcDbLine
 10
1145.668408365153
 20
2451.227436557144
 30
0.0
 11
1154.985893988844
 21
2416.454106810737
 31
0.0
  0
LINE
  5
DD
330
20
100
AcDbEntity
  8
_0-0_
  6
Continuous
 62
     4
100
AcDbLine
 10
1145.668408365153
 20
2451.227436557144
 30
0.0
 11
1136.350922741462
 21
2416.454106810737
 31
0.0
  0
LINE
  5
DE
330
20
100
AcDbEntity
  8
_0-0_
  6
Continuous
 62
     4
100
AcDbLine
 10
1145.668408365153
 20
2301.227436557144
 30
0.0
 11
1136.350922741462
 21
2336.00076630355
 31
0.0
  0
LINE
  5
DF
330
20
100
AcDbEntity
  8
_0-0_
  6
Continuous
 62
     4
100
AcDbLine
 10
1145.668408365153
 20
2301.227436557144
 30
0.0
 11
1154.985893988844
 21
2336.00076630355
 31
0.0
  0
LINE
  5
E0
330
20
100
AcDbEntity
  8
_0-0_
  6
Continuous
 62
     4
100
AcDbLine
 10
1145.668408365153
 20
2301.227436557144
 30
0.0
 11
1154.985893988844
 21
2266.454106810737
 31
0.0
  0
LINE
  5
E1
330
20
100
AcDbEntity
  8
_0-0_
  6
Continuous
 62
     4
100
AcDbLine
 10
1145.668408365153
 20
2301.227436557144
 30
0.0
 11
1136.350922741462
 21
2266.454106810737
 31
0.0
  0
LINE
  5
E2
330
20
100
AcDbEntity
  8
_0-0_
  6
Continuous
 62
     4
100
AcDbLine
 10
1145.668408365153
 20
2101.227436557144
 30
0.0
 11
1136.350922741462
 21
2136.00076630355
 31
0.0
  0
LINE
  5
E3
330
20
100
AcDbEntity
  8
_0-0_
  6
Continuous
 62
     4
100
AcDbLine
 10
1145.668408365153
 20
2101.227436557144
 30
0.0
 11
1154.985893988844
 21
2136.00076630355
 31
0.0
  0
LINE
  5
E4
330
20
100
AcDbEntity
  8
_0-0_
  6
Continuous
 62
     4
100
AcDbLine
 10
1145.668408365153
 20
2101.227436557144
 30
0.0
 11
1154.985893988844
 21
2066.454106810738
 31
0.0
  0
LINE
  5
E5
330
20
100
AcDbEntity
  8
_0-0_
  6
Continuous
 62
     4
100
AcDbLine
 10
1145.668408365153
 20
2101.227436557144
 30
0.0
 11
1136.350922741462
 21
2066.454106810738
 31
0.0
  0
LINE
  5
E6
330
20
100
AcDbEntity
  8
_0-0_
  6
Continuous
 62
     4
100
AcDbLine
 10
1145.668408365153
 20
1951.227436557144
 30
0.0
 11
1136.350922741462
 21
1986.00076630355
 31
0.0
  0
LINE
  5
E7
330
20
100
AcDbEntity
  8
_0-0_
  6
Continuous
 62
     4
100
AcDbLine
 10
1145.668408365153
 20
1951.227436557144
 30
0.0
 11
1154.985893988844
 21
1986.00076630355
 31
0.0
  0
LINE
  5
E8
330
20
100
AcDbEntity
  8
_0-0_
  6
Continuous
 62
     4
100
AcDbLine
 10
1360.668408365153
 20
1336.227436557144
 30
0.0
 11
1360.668408365153
 21
931.227436557144
 31
0.0
  0
LINE
  5
E9
330
20
100
AcDbEntity
  8
_0-0_
  6
Continuous
 62
     4
100
AcDbLine
 10
2360.668408365153
 20
1336.227436557144
 30
0.0
 11
2360.668408365153
 21
931.227436557144
 31
0.0
  0
LINE
  5
EA
330
20
100
AcDbEntity
  8
_0-0_
  6
Continuous
 62
     4
100
AcDbLine
 10
1280.668408365153
 20
946.227436557144
 30
0.0
 11
1360.668408365153
 21
946.227436557144
 31
0.0
  0
LINE
  5
EB
330
20
100
AcDbEntity
  8
_0-0_
  6
Continuous
 62
     4
100
AcDbLine
 10
2360.668408365153
 20
946.227436557144
 30
0.0
 11
2440.668408365153
 21
946.227436557144
 31
0.0
  0
LINE
  5
EC
330
20
100
AcDbEntity
  8
_0-0_
  6
Continuous
 62
     4
100
AcDbLine
 10
2360.668408365153
 20
946.227436557144
 30
0.0
 11
1360.668408365153
 21
946.227436557144
 31
0.0
  0
LINE
  5
ED
330
20
100
AcDbEntity
  8
_0-0_
  6
Continuous
 62
     4
100
AcDbLine
 10
2440.668408365153
 20
946.227436557144
 30
0.0
 11
2405.895078618747
 21
936.909950933453
 31
0.0
  0
LINE
  5
EE
330
20
100
AcDbEntity
  8
_0-0_
  6
Continuous
 62
     4
100
AcDbLine
 10
2440.668408365153
 20
946.227436557144
 30
0.0
 11
2405.895078618747
 21
955.5449221808347
 31
0.0
  0
LINE
  5
EF
330
20
100
AcDbEntity
  8
_0-0_
  6
Continuous
 62
     4
100
AcDbLine
 10
2360.668408365153
 20
946.227436557144
 30
0.0
 11
2395.44173811156
 21
955.5449221808347
 31
0.0
  0
LINE
  5
F0
330
20
100
AcDbEntity
  8
_0-0_
  6
Continuous
 62
     4
100
AcDbLine
 10
2360.668408365153
 20
946.227436557144
 30
0.0
 11
2395.44173811156
 21
936.909950933453
 31
0.0
  0
LINE
  5
F1
330
20
100
AcDbEntity
  8
_0-0_
  6
Continuous
 62
     4
100
AcDbLine
 10
2360.668408365153
 20
946.227436557144
 30
0.0
 11
2325.895078618747
 21
936.909950933453
 31
0.0
  0
LINE
  5
F2
330
20
100
AcDbEntity
  8
_0-0_
  6
Continuous
 62
     4
100
AcDbLine
 10
2360.668408365153
 20
946.227436557144
 30
0.0
 11
2325.895078618747
 21
955.5449221808347
 31
0.0
  0
LINE
  5
F3
330
20
100
AcDbEntity
  8
_0-0_
  6
Continuous
 62
     4
100
AcDbLine
 10
1360.668408365153
 20
946.227436557144
 30
0.0
 11
1395.44173811156
 21
955.5449221808347
 31
0.0
  0
LINE
  5
F4
330
20
100
AcDbEntity
  8
_0-0_
  6
Continuous
 62
     4
100
AcDbLine
 10
1360.668408365153
 20
946.227436557144
 30
0.0
 11
1395.44173811156
 21
936.909950933453
 31
0.0
  0
LINE
  5
F5
330
20
100
AcDbEntity
  8
_0-0_
  6
Continuous
 62
     4
100
AcDbLine
 10
1360.668408365153
 20
946.227436557144
 30
0.0
 11
1325.895078618746
 21
936.909950933453
 31
0.0
  0
LINE
  5
F6
330
20
100
AcDbEntity
  8
_0-0_
  6
Continuous
 62
     4
100
AcDbLine
 10
1360.668408365153
 20
946.227436557144
 30
0.0
 11
1325.895078618746
 21
955.5449221808347
 31
0.0
  0
LINE
  5
F7
330
20
100
AcDbEntity
  8
_0-0_
  6
Continuous
 62
     4
100
AcDbLine
 10
1280.668408365153
 20
946.227436557144
 30
0.0
 11
1315.44173811156
 21
955.5449221808347
 31
0.0
  0
LINE
  5
F8
330
20
100
AcDbEntity
  8
_0-0_
  6
Continuous
 62
     4
100
AcDbLine
 10
1280.668408365153
 20
946.227436557144
 30
0.0
 11
1315.44173811156
 21
936.909950933453
 31
0.0
  0
LINE
  5
F9
330
20
100
AcDbEntity
  8
_0-0_
  6
Continuous
 62
   136
100
AcDbLine
 10
1560.668408365153
 20
2301.227436557144
 30
0.0
 11
1560.668408365153
 21
2101.227436557144
 31
0.0
  0
LINE
  5
FA
330
20
100
AcDbEntity
  8
_0-0_
  6
Continuous
 62
   136
100
AcDbLine
 10
1560.668408365153
 20
2101.227436557144
 30
0.0
 11
2160.668408365153
 21
2101.227436557144
 31
0.0
  0
LINE
  5
FB
330
20
100
AcDbEntity
  8
_0-0_
  6
Continuous
 62
   136
100
AcDbLine
 10
2160.668408365153
 20
2301.227436557144
 30
0.0
 11
2160.668408365153
 21
2101.227436557144
 31
0.0
  0
LINE
  5
FC
330
20
100
AcDbEntity
  8
_0-0_
  6
Continuous
 62
   136
100
AcDbLine
 10
1560.668408365153
 20
2301.227436557144
 30
0.0
 11
2160.668408365153
 21
2301.227436557144
 31
0.0
  0
LINE
  5
FD
330
20
100
AcDbEntity
  8
_0-0_
  6
Continuous
 62
   136
100
AcDbLine
 10
1560.668408365153
 20
1811.227436557144
 30
0.0
 11
2160.668408365153
 21
1811.227436557144
 31
0.0
  0
LINE
  5
FE
330
20
100
AcDbEntity
  8
_0-0_
  6
Continuous
 62
   136
100
AcDbLine
 10
1560.668408365153
 20
1811.227436557144
 30
0.0
 11
1560.668408365153
 21
1511.227436557144
 31
0.0
  0
LINE
  5
FF
330
20
100
AcDbEntity
  8
_0-0_
  6
Continuous
 62
   136
100
AcDbLine
 10
2160.668408365153
 20
1811.227436557144
 30
0.0
 11
2160.668408365153
 21
1511.227436557144
 31
0.0
  0
LINE
  5
100
330
20
100
AcDbEntity
  8
_0-0_
  6
Continuous
 62
   136
100
AcDbLine
 10
1560.668408365153
 20
1511.227436557144
 30
0.0
 11
2160.668408365153
 21
1511.227436557144
 31
0.0
  0
LINE
  5
101
330
20
100
AcDbEntity
  8
_0-0_
  6
Continuous
 62
     4
100
AcDbLine
 10
2160.668408365153
 20
1336.227436557144
 30
0.0
 11
2160.668408365153
 21
1066.227436557144
 31
0.0
  0
LINE
  5
102
330
20
100
AcDbEntity
  8
_0-0_
  6
Continuous
 62
     4
100
AcDbLine
 10
1560.668408365153
 20
1336.227436557144
 30
0.0
 11
1560.668408365153
 21
1066.227436557144
 31
0.0
  0
LINE
  5
103
330
20
100
AcDbEntity
  8
_0-0_
  6
Continuous
 62
     4
100
AcDbLine
 10
1560.668408365153
 20
1081.227436557144
 30
0.0
 11
2160.668408365153
 21
1081.227436557144
 31
0.0
  0
LINE
  5
104
330
20
100
AcDbEntity
  8
_0-0_
  6
Continuous
 62
     4
100
AcDbLine
 10
2160.668408365153
 20
1081.227436557144
 30
0.0
 11
2125.895078618746
 21
1071.909950933453
 31
0.0
  0
LINE
  5
105
330
20
100
AcDbEntity
  8
_0-0_
  6
Continuous
 62
     4
100
AcDbLine
 10
2160.668408365153
 20
1081.227436557144
 30
0.0
 11
2125.895078618746
 21
1090.544922180835
 31
0.0
  0
LINE
  5
106
330
20
100
AcDbEntity
  8
_0-0_
  6
Continuous
 62
     4
100
AcDbLine
 10
1560.668408365153
 20
1081.227436557144
 30
0.0
 11
1595.44173811156
 21
1090.544922180835
 31
0.0
  0
LINE
  5
107
330
20
100
AcDbEntity
  8
_0-0_
  6
Continuous
 62
     4
100
AcDbLine
 10
1560.668408365153
 20
1081.227436557144
 30
0.0
 11
1595.44173811156
 21
1071.909950933453
 31
0.0
  0
LINE
  5
108
330
20
100
AcDbEntity
  8
_0-0_
  6
Continuous
 62
     4
100
AcDbLine
 10
2455.668408365153
 20
2451.227436557144
 30
0.0
 11
2590.668408365153
 21
2451.227436557144
 31
0.0
  0
LINE
  5
109
330
20
100
AcDbEntity
  8
_0-0_
  6
Continuous
 62
     4
100
AcDbLine
 10
2455.668408365153
 20
2581.227436557144
 30
0.0
 11
2590.668408365153
 21
2581.227436557144
 31
0.0
  0
LINE
  5
10A
330
20
100
AcDbEntity
  8
_0-0_
  6
Continuous
 62
     4
100
AcDbLine
 10
2455.668408365153
 20
1951.227436557144
 30
0.0
 11
2590.668408365153
 21
1951.227436557144
 31
0.0
  0
LINE
  5
10B
330
20
100
AcDbEntity
  8
_0-0_
  6
Continuous
 62
     4
100
AcDbLine
 10
2455.668408365153
 20
1861.227436557143
 30
0.0
 11
2590.668408365153
 21
1861.227436557143
 31
0.0
  0
LINE
  5
10C
330
20
100
AcDbEntity
  8
_0-0_
  6
Continuous
 62
     4
100
AcDbLine
 10
2575.668408365153
 20
2381.227436557144
 30
0.0
 11
2575.668408365153
 21
1951.227436557144
 31
0.0
  0
LINE
  5
10D
330
20
100
AcDbEntity
  8
_0-0_
  6
Continuous
 62
     4
100
AcDbLine
 10
2575.668408365153
 20
2581.227436557144
 30
0.0
 11
2575.668408365153
 21
2451.227436557144
 31
0.0
  0
LINE
  5
10E
330
20
100
AcDbEntity
  8
_0-0_
  6
Continuous
 62
     4
100
AcDbLine
 10
2575.668408365153
 20
2451.227436557144
 30
0.0
 11
2575.668408365153
 21
2381.227436557144
 31
0.0
  0
LINE
  5
10F
330
20
100
AcDbEntity
  8
_0-0_
  6
Continuous
 62
     4
100
AcDbLine
 10
2575.668408365153
 20
1951.227436557144
 30
0.0
 11
2575.668408365153
 21
1861.227436557143
 31
0.0
  0
LINE
  5
110
330
20
100
AcDbEntity
  8
_0-0_
  6
Continuous
 62
     4
100
AcDbLine
 10
2575.668408365153
 20
2581.227436557144
 30
0.0
 11
2584.985893988844
 21
2546.454106810737
 31
0.0
  0
LINE
  5
111
330
20
100
AcDbEntity
  8
_0-0_
  6
Continuous
 62
     4
100
AcDbLine
 10
2575.668408365153
 20
2581.227436557144
 30
0.0
 11
2566.350922741463
 21
2546.454106810737
 31
0.0
  0
LINE
  5
112
330
20
100
AcDbEntity
  8
_0-0_
  6
Continuous
 62
     4
100
AcDbLine
 10
2575.668408365153
 20
2451.227436557144
 30
0.0
 11
2566.350922741463
 21
2486.000766303551
 31
0.0
  0
LINE
  5
113
330
20
100
AcDbEntity
  8
_0-0_
  6
Continuous
 62
     4
100
AcDbLine
 10
2575.668408365153
 20
2451.227436557144
 30
0.0
 11
2584.985893988844
 21
2486.000766303551
 31
0.0
  0
LINE
  5
114
330
20
100
AcDbEntity
  8
_0-0_
  6
Continuous
 62
     4
100
AcDbLine
 10
2575.668408365153
 20
2381.227436557144
 30
0.0
 11
2584.985893988844
 21
2346.454106810737
 31
0.0
  0
LINE
  5
115
330
20
100
AcDbEntity
  8
_0-0_
  6
Continuous
 62
     4
100
AcDbLine
 10
2575.668408365153
 20
2381.227436557144
 30
0.0
 11
2566.350922741463
 21
2346.454106810737
 31
0.0
  0
LINE
  5
116
330
20
100
AcDbEntity
  8
_0-0_
  6
Continuous
 62
     4
100
AcDbLine
 10
2575.668408365153
 20
1951.227436557144
 30
0.0
 11
2566.350922741463
 21
1986.00076630355
 31
0.0
  0
LINE
  5
117
330
20
100
AcDbEntity
  8
_0-0_
  6
Continuous
 62
     4
100
AcDbLine
 10
2575.668408365153
 20
1951.227436557144
 30
0.0
 11
2584.985893988844
 21
1986.00076630355
 31
0.0
  0
LINE
  5
118
330
20
100
AcDbEntity
  8
_0-0_
  6
Continuous
 62
     4
100
AcDbLine
 10
2575.668408365153
 20
1951.227436557144
 30
0.0
 11
2584.985893988844
 21
1916.454106810737
 31
0.0
  0
LINE
  5
119
330
20
100
AcDbEntity
  8
_0-0_
  6
Continuous
 62
     4
100
AcDbLine
 10
2575.668408365153
 20
1951.227436557144
 30
0.0
 11
2566.350922741463
 21
1916.454106810737
 31
0.0
  0
LINE
  5
11A
330
20
100
AcDbEntity
  8
_0-0_
  6
Continuous
 62
     4
100
AcDbLine
 10
2575.668408365153
 20
1861.227436557143
 30
0.0
 11
2566.350922741463
 21
1896.00076630355
 31
0.0
  0
LINE
  5
11B
330
20
100
AcDbEntity
  8
_0-0_
  6
Continuous
 62
     4
100
AcDbLine
 10
2575.668408365153
 20
1861.227436557143
 30
0.0
 11
2584.985893988844
 21
1896.00076630355
 31
0.0
  0
LINE
  5
11C
330
20
100
AcDbEntity
  8
_0-0_
  6
Continuous
 62
     7
100
AcDbLine
 10
2770.668408365153
 20
2941.227436557145
 30
0.0
 11
2690.668408365153
 21
2901.227436557145
 31
0.0
  0
LINE
  5
11D
330
20
100
AcDbEntity
  8
_0-0_
  6
Continuous
 62
     7
100
AcDbLine
 10
2690.668408365153
 20
2901.227436557145
 30
0.0
 11
2770.668408365153
 21
2861.227436557145
 31
0.0
  0
LINE
  5
11E
330
20
100
AcDbEntity
  8
_0-0_
  6
Continuous
 62
     7
100
AcDbLine
 10
2770.668408365153
 20
2691.227436557144
 30
0.0
 11
2690.668408365153
 21
2651.227436557144
 31
0.0
  0
LINE
  5
11F
330
20
100
AcDbEntity
  8
_0-0_
  6
Continuous
 62
     7
100
AcDbLine
 10
2690.668408365153
 20
2651.227436557144
 30
0.0
 11
2770.668408365153
 21
2611.227436557144
 31
0.0
  0
LINE
  5
120
330
20
100
AcDbEntity
  8
_0-0_
  6
Continuous
 62
     7
100
AcDbLine
 10
2770.668408365153
 20
2241.227436557144
 30
0.0
 11
2690.668408365153
 21
2201.227436557144
 31
0.0
  0
LINE
  5
121
330
20
100
AcDbEntity
  8
_0-0_
  6
Continuous
 62
     7
100
AcDbLine
 10
2690.668408365153
 20
2201.227436557144
 30
0.0
 11
2770.668408365153
 21
2161.227436557144
 31
0.0
  0
LINE
  5
122
330
20
100
AcDbEntity
  8
_0-0_
  6
Continuous
 62
     7
100
AcDbLine
 10
2770.668408365153
 20
1691.227436557143
 30
0.0
 11
2690.668408365153
 21
1651.227436557144
 31
0.0
  0
LINE
  5
123
330
20
100
AcDbEntity
  8
_0-0_
  6
Continuous
 62
     7
100
AcDbLine
 10
2690.668408365153
 20
1651.227436557144
 30
0.0
 11
2770.668408365153
 21
1611.227436557143
 31
0.0
  0
LINE
  5
124
330
20
100
AcDbEntity
  8
_0-0_
  6
Continuous
 62
     7
100
AcDbLine
 10
2770.668408365153
 20
1691.227436557143
 30
0.0
 11
2970.668408365153
 21
1691.227436557143
 31
0.0
  0
LINE
  5
125
330
20
100
AcDbEntity
  8
_0-0_
  6
Continuous
 62
     7
100
AcDbLine
 10
2970.668408365153
 20
1691.227436557143
 30
0.0
 11
2970.668408365153
 21
1611.227436557143
 31
0.0
  0
LINE
  5
126
330
20
100
AcDbEntity
  8
_0-0_
  6
Continuous
 62
     7
100
AcDbLine
 10
2970.668408365153
 20
1611.227436557143
 30
0.0
 11
2770.668408365153
 21
1611.227436557143
 31
0.0
  0
LINE
  5
127
330
20
100
AcDbEntity
  8
_0-0_
  6
Continuous
 62
     7
100
AcDbLine
 10
2770.668408365153
 20
2161.227436557144
 30
0.0
 11
2970.668408365153
 21
2161.227436557144
 31
0.0
  0
LINE
  5
128
330
20
100
AcDbEntity
  8
_0-0_
  6
Continuous
 62
     7
100
AcDbLine
 10
2970.668408365153
 20
2161.227436557144
 30
0.0
 11
2970.668408365153
 21
2241.227436557144
 31
0.0
  0
LINE
  5
129
330
20
100
AcDbEntity
  8
_0-0_
  6
Continuous
 62
     7
100
AcDbLine
 10
2970.668408365153
 20
2241.227436557144
 30
0.0
 11
2770.668408365153
 21
2241.227436557144
 31
0.0
  0
LINE
  5
12A
330
20
100
AcDbEntity
  8
_0-0_
  6
Continuous
 62
     7
100
AcDbLine
 10
2770.668408365153
 20
2611.227436557144
 30
0.0
 11
2970.668408365153
 21
2611.227436557144
 31
0.0
  0
LINE
  5
12B
330
20
100
AcDbEntity
  8
_0-0_
  6
Continuous
 62
     7
100
AcDbLine
 10
2970.668408365153
 20
2611.227436557144
 30
0.0
 11
2970.668408365153
 21
2691.227436557144
 31
0.0
  0
LINE
  5
12C
330
20
100
AcDbEntity
  8
_0-0_
  6
Continuous
 62
     7
100
AcDbLine
 10
2970.668408365153
 20
2691.227436557144
 30
0.0
 11
2770.668408365153
 21
2691.227436557144
 31
0.0
  0
LINE
  5
12D
330
20
100
AcDbEntity
  8
_0-0_
  6
Continuous
 62
     7
100
AcDbLine
 10
2770.668408365153
 20
2861.227436557145
 30
0.0
 11
2970.668408365153
 21
2861.227436557145
 31
0.0
  0
LINE
  5
12E
330
20
100
AcDbEntity
  8
_0-0_
  6
Continuous
 62
     7
100
AcDbLine
 10
2970.668408365153
 20
2861.227436557145
 30
0.0
 11
2970.668408365153
 21
2941.227436557145
 31
0.0
  0
LINE
  5
12F
330
20
100
AcDbEntity
  8
_0-0_
  6
Continuous
 62
     7
100
AcDbLine
 10
2970.668408365153
 20
2941.227436557145
 30
0.0
 11
2770.668408365153
 21
2941.227436557145
 31
0.0
  0
LINE
  5
130
330
20
100
AcDbEntity
  8
_0-0_
  6
Continuous
 62
     4
100
AcDbLine
 10
2067.50213816281
 20
2588.5281308428
 30
0.0
 11
2533.367772670418
 21
3086.227436557145
 31
0.0
  0
LINE
  5
131
330
20
100
AcDbEntity
  8
_0-0_
  6
Continuous
 62
     4
100
AcDbLine
 10
2067.50213816281
 20
2588.5281308428
 30
0.0
 11
2084.462880723031
 21
2620.282393734669
 31
0.0
  0
LINE
  5
132
330
20
100
AcDbEntity
  8
_0-0_
  6
Continuous
 62
     4
100
AcDbLine
 10
2067.50213816281
 20
2588.5281308428
 30
0.0
 11
2098.067703532944
 21
2607.547757905497
 31
0.0
  0
LINE
  5
133
330
20
100
AcDbEntity
  8
_0-0_
  6
Continuous
 62
     4
100
AcDbLine
 10
2533.367772670418
 20
3086.227436557145
 30
0.0
 11
3120.103269312673
 21
3086.227436557145
 31
0.0
  0
LINE
  5
134
330
20
100
AcDbEntity
  8
_0-0_
  6
Continuous
 62
   136
100
AcDbLine
 10
1538.168408365153
 20
2323.727436557144
 30
0.0
 11
2183.168408365153
 21
2323.727436557144
 31
0.0
  0
LINE
  5
135
330
20
100
AcDbEntity
  8
_0-0_
  6
Continuous
 62
   136
100
AcDbLine
 10
2183.168408365153
 20
2323.727436557144
 30
0.0
 11
2183.168408365153
 21
2078.727436557144
 31
0.0
  0
LINE
  5
136
330
20
100
AcDbEntity
  8
_0-0_
  6
Continuous
 62
   136
100
AcDbLine
 10
1538.168408365153
 20
2078.727436557144
 30
0.0
 11
2183.168408365153
 21
2078.727436557144
 31
0.0
  0
LINE
  5
137
330
20
100
AcDbEntity
  8
_0-0_
  6
Continuous
 62
   136
100
AcDbLine
 10
1538.168408365153
 20
2323.727436557144
 30
0.0
 11
1538.168408365153
 21
2078.727436557144
 31
0.0
  0
LINE
  5
138
330
20
100
AcDbEntity
  8
_0-0_
  6
Continuous
 62
   136
100
AcDbLine
 10
1538.168408365153
 20
1833.727436557144
 30
0.0
 11
1538.168408365153
 21
1488.727436557144
 31
0.0
  0
LINE
  5
139
330
20
100
AcDbEntity
  8
_0-0_
  6
Continuous
 62
   136
100
AcDbLine
 10
1538.168408365153
 20
1488.727436557144
 30
0.0
 11
2183.168408365153
 21
1488.727436557144
 31
0.0
  0
LINE
  5
13A
330
20
100
AcDbEntity
  8
_0-0_
  6
Continuous
 62
   136
100
AcDbLine
 10
1538.168408365153
 20
1833.727436557144
 30
0.0
 11
2183.168408365153
 21
1833.727436557144
 31
0.0
  0
LINE
  5
13B
330
20
100
AcDbEntity
  8
_0-0_
  6
Continuous
 62
   136
100
AcDbLine
 10
2183.168408365153
 20
1833.727436557144
 30
0.0
 11
2183.168408365153
 21
1488.727436557144
 31
0.0
  0
LINE
  5
13C
330
20
100
AcDbEntity
  8
_0-0_
  6
Continuous
 62
   136
100
AcDbLine
 10
1538.168408365153
 20
2323.727436557144
 30
0.0
 11
1560.668408365153
 21
2301.227436557144
 31
0.0
  0
LINE
  5
13D
330
20
100
AcDbEntity
  8
_0-0_
  6
Continuous
 62
   136
100
AcDbLine
 10
1560.668408365153
 20
2101.227436557144
 30
0.0
 11
1538.168408365153
 21
2078.727436557144
 31
0.0
  0
LINE
  5
13E
330
20
100
AcDbEntity
  8
_0-0_
  6
Continuous
 62
   136
100
AcDbLine
 10
2160.668408365153
 20
2101.227436557144
 30
0.0
 11
2183.168408365153
 21
2078.727436557144
 31
0.0
  0
LINE
  5
13F
330
20
100
AcDbEntity
  8
_0-0_
  6
Continuous
 62
   136
100
AcDbLine
 10
2183.168408365153
 20
2323.727436557144
 30
0.0
 11
2160.668408365153
 21
2301.227436557144
 31
0.0
  0
LINE
  5
140
330
20
100
AcDbEntity
  8
_0-0_
  6
Continuous
 62
   136
100
AcDbLine
 10
2160.668408365153
 20
1811.227436557144
 30
0.0
 11
2183.168408365153
 21
1833.727436557144
 31
0.0
  0
LINE
  5
141
330
20
100
AcDbEntity
  8
_0-0_
  6
Continuous
 62
   136
100
AcDbLine
 10
1538.168408365153
 20
1833.727436557144
 30
0.0
 11
1560.668408365153
 21
1811.227436557144
 31
0.0
  0
LINE
  5
142
330
20
100
AcDbEntity
  8
_0-0_
  6
Continuous
 62
   136
100
AcDbLine
 10
1560.668408365153
 20
1511.227436557144
 30
0.0
 11
1538.168408365153
 21
1488.727436557144
 31
0.0
  0
LINE
  5
143
330
20
100
AcDbEntity
  8
_0-0_
  6
Continuous
 62
   136
100
AcDbLine
 10
2160.668408365153
 20
1511.227436557144
 30
0.0
 11
2183.168408365153
 21
1488.727436557144
 31
0.0
  0
LINE
  5
144
330
20
100
AcDbEntity
  8
_0-0_
  6
DASHED1
 62
   136
100
AcDbLine
 10
2310.668408365153
 20
1451.227436557144
 30
0.0
 11
1960.668408365153
 21
1441.227436557143
 31
0.0
  0
LINE
  5
145
330
20
100
AcDbEntity
  8
_0-0_
  6
DASHED1
 62
   136
100
AcDbLine
 10
1410.668408365153
 20
1451.227436557144
 30
0.0
 11
1760.668408365153
 21
1441.227436557143
 31
0.0
  0
LINE
  5
146
330
20
100
AcDbEntity
  8
_0-0_
  6
DASHED1
 62
   136
100
AcDbLine
 10
1760.668408365153
 20
1441.227436557143
 30
0.0
 11
1770.668408365153
 21
1421.227436557144
 31
0.0
  0
LINE
  5
147
330
20
100
AcDbEntity
  8
_0-0_
  6
DASHED1
 62
   136
100
AcDbLine
 10
1960.668408365153
 20
1441.227436557143
 30
0.0
 11
1950.668408365153
 21
1421.227436557144
 31
0.0
  0
LINE
  5
148
330
20
100
AcDbEntity
  8
_0-0_
  6
DASHED1
 62
   136
100
AcDbLine
 10
1770.668408365153
 20
1421.227436557144
 30
0.0
 11
1950.668408365153
 21
1421.227436557144
 31
0.0
  0
LINE
  5
149
330
20
100
AcDbEntity
  8
_0-0_
  6
Continuous
 62
     4
100
AcDbLine
 10
1960.668408365153
 20
1336.227436557144
 30
0.0
 11
1960.668408365153
 21
1201.227436557144
 31
0.0
  0
LINE
  5
14A
330
20
100
AcDbEntity
  8
_0-0_
  6
Continuous
 62
     4
100
AcDbLine
 10
1950.668408365153
 20
1336.227436557144
 30
0.0
 11
1950.668408365153
 21
1201.227436557144
 31
0.0
  0
LINE
  5
14B
330
20
100
AcDbEntity
  8
_0-0_
  6
Continuous
 62
     4
100
AcDbLine
 10
1770.668408365153
 20
1336.227436557144
 30
0.0
 11
1770.668408365153
 21
1201.227436557144
 31
0.0
  0
LINE
  5
14C
330
20
100
AcDbEntity
  8
_0-0_
  6
Continuous
 62
     4
100
AcDbLine
 10
1760.668408365153
 20
1336.227436557144
 30
0.0
 11
1760.668408365153
 21
1201.227436557144
 31
0.0
  0
LINE
  5
14D
330
20
100
AcDbEntity
  8
_0-0_
  6
Continuous
 62
     4
100
AcDbLine
 10
1700.668408365153
 20
1216.227436557144
 30
0.0
 11
1760.668408365153
 21
1216.227436557144
 31
0.0
  0
LINE
  5
14E
330
20
100
AcDbEntity
  8
_0-0_
  6
Continuous
 62
     4
100
AcDbLine
 10
1770.668408365153
 20
1216.227436557144
 30
0.0
 11
1950.668408365153
 21
1216.227436557144
 31
0.0
  0
LINE
  5
14F
330
20
100
AcDbEntity
  8
_0-0_
  6
Continuous
 62
     4
100
AcDbLine
 10
1960.668408365153
 20
1216.227436557144
 30
0.0
 11
2020.668408365153
 21
1216.227436557144
 31
0.0
  0
LINE
  5
150
330
20
100
AcDbEntity
  8
_0-0_
  6
Continuous
 62
     4
100
AcDbLine
 10
1770.668408365153
 20
1216.227436557144
 30
0.0
 11
1760.668408365153
 21
1216.227436557144
 31
0.0
  0
LINE
  5
151
330
20
100
AcDbEntity
  8
_0-0_
  6
Continuous
 62
     4
100
AcDbLine
 10
1960.668408365153
 20
1216.227436557144
 30
0.0
 11
1950.668408365153
 21
1216.227436557144
 31
0.0
  0
LINE
  5
152
330
20
100
AcDbEntity
  8
_0-0_
  6
Continuous
 62
     4
100
AcDbLine
 10
1770.668408365153
 20
1216.227436557144
 30
0.0
 11
1805.44173811156
 21
1225.544922180835
 31
0.0
  0
LINE
  5
153
330
20
100
AcDbEntity
  8
_0-0_
  6
Continuous
 62
     4
100
AcDbLine
 10
1770.668408365153
 20
1216.227436557144
 30
0.0
 11
1805.44173811156
 21
1206.909950933453
 31
0.0
  0
LINE
  5
154
330
20
100
AcDbEntity
  8
_0-0_
  6
Continuous
 62
     4
100
AcDbLine
 10
1950.668408365153
 20
1216.227436557144
 30
0.0
 11
1915.895078618746
 21
1206.909950933453
 31
0.0
  0
LINE
  5
155
330
20
100
AcDbEntity
  8
_0-0_
  6
Continuous
 62
     4
100
AcDbLine
 10
1950.668408365153
 20
1216.227436557144
 30
0.0
 11
1915.895078618746
 21
1225.544922180835
 31
0.0
  0
LINE
  5
156
330
20
100
AcDbEntity
  8
_0-0_
  6
Continuous
 62
     4
100
AcDbLine
 10
1960.668408365153
 20
1216.227436557144
 30
0.0
 11
1995.44173811156
 21
1225.544922180835
 31
0.0
  0
LINE
  5
157
330
20
100
AcDbEntity
  8
_0-0_
  6
Continuous
 62
     4
100
AcDbLine
 10
1960.668408365153
 20
1216.227436557144
 30
0.0
 11
1995.44173811156
 21
1206.909950933453
 31
0.0
  0
LINE
  5
158
330
20
100
AcDbEntity
  8
_0-0_
  6
Continuous
 62
     4
100
AcDbLine
 10
1760.668408365153
 20
1216.227436557144
 30
0.0
 11
1725.895078618746
 21
1206.909950933453
 31
0.0
  0
LINE
  5
159
330
20
100
AcDbEntity
  8
_0-0_
  6
Continuous
 62
     4
100
AcDbLine
 10
1760.668408365153
 20
1216.227436557144
 30
0.0
 11
1725.895078618746
 21
1225.544922180835
 31
0.0
  0
LINE
  5
15A
330
20
100
AcDbEntity
  8
_0-0_
  6
DASHED1
 62
   136
100
AcDbLine
 10
1305.668408365153
 20
2301.227436557144
 30
0.0
 11
1305.668408365153
 21
2101.227436557144
 31
0.0
  0
LINE
  5
15B
330
20
100
AcDbEntity
  8
_0-0_
  6
DASHED1
 62
   136
100
AcDbLine
 10
1280.668408365153
 20
2323.727436557144
 30
0.0
 11
1305.668408365153
 21
2301.227436557144
 31
0.0
  0
LINE
  5
15C
330
20
100
AcDbEntity
  8
_0-0_
  6
DASHED1
 62
   136
100
AcDbLine
 10
1305.668408365153
 20
2101.227436557144
 30
0.0
 11
1280.668408365153
 21
2078.727436557144
 31
0.0
  0
LINE
  5
15D
330
20
100
AcDbEntity
  8
_0-0_
  6
DASHED1
 62
   136
100
AcDbLine
 10
1305.668408365153
 20
1811.227436557144
 30
0.0
 11
1305.668408365153
 21
1511.227436557144
 31
0.0
  0
LINE
  5
15E
330
20
100
AcDbEntity
  8
_0-0_
  6
DASHED1
 62
   136
100
AcDbLine
 10
1305.668408365153
 20
1811.227436557144
 30
0.0
 11
1280.668408365153
 21
1833.727436557144
 31
0.0
  0
LINE
  5
15F
330
20
100
AcDbEntity
  8
_0-0_
  6
DASHED1
 62
   136
100
AcDbLine
 10
1305.668408365153
 20
1511.227436557144
 30
0.0
 11
1280.668408365153
 21
1488.727436557144
 31
0.0
  0
LINE
  5
160
330
20
100
AcDbEntity
  8
_0-0_
  6
DASHED1
 62
   136
100
AcDbLine
 10
2440.668408365153
 20
2323.727436557144
 30
0.0
 11
2415.668408365153
 21
2301.227436557144
 31
0.0
  0
LINE
  5
161
330
20
100
AcDbEntity
  8
_0-0_
  6
DASHED1
 62
   136
100
AcDbLine
 10
2415.668408365153
 20
2301.227436557144
 30
0.0
 11
2415.668408365153
 21
2101.227436557144
 31
0.0
  0
LINE
  5
162
330
20
100
AcDbEntity
  8
_0-0_
  6
DASHED1
 62
   136
100
AcDbLine
 10
2415.668408365153
 20
2101.227436557144
 30
0.0
 11
2440.668408365153
 21
2078.727436557144
 31
0.0
  0
LINE
  5
163
330
20
100
AcDbEntity
  8
_0-0_
  6
DASHED1
 62
   136
100
AcDbLine
 10
2440.668408365153
 20
1833.727436557144
 30
0.0
 11
2415.668408365153
 21
1811.227436557144
 31
0.0
  0
LINE
  5
164
330
20
100
AcDbEntity
  8
_0-0_
  6
DASHED1
 62
   136
100
AcDbLine
 10
2415.668408365153
 20
1811.227436557144
 30
0.0
 11
2415.668408365153
 21
1511.227436557144
 31
0.0
  0
LINE
  5
165
330
20
100
AcDbEntity
  8
_0-0_
  6
DASHED1
 62
   136
100
AcDbLine
 10
2415.668408365153
 20
1511.227436557144
 30
0.0
 11
2440.668408365153
 21
1488.727436557144
 31
0.0
  0
LINE
  5
166
330
20
100
AcDbEntity
  8
_0-0_
  6
DASHED1
 62
   136
100
AcDbLine
 10
1360.668408365153
 20
2701.227436557144
 30
0.0
 11
1360.668408365153
 21
1872.119302380743
 31
0.0
  0
LINE
  5
167
330
20
100
AcDbEntity
  8
_0-0_
  6
DASHED1
 62
   136
100
AcDbLine
 10
1360.668408365153
 20
1872.119302380743
 30
0.0
 11
1360.668408365153
 21
1501.227436557144
 31
0.0
  0
LINE
  5
168
330
20
100
AcDbEntity
  8
_0-0_
  6
DASHED1
 62
     6
100
AcDbLine
 10
1320.668408365153
 20
2571.227436557144
 30
0.0
 11
1360.668408365153
 21
2571.227436557144
 31
0.0
  0
LINE
  5
169
330
20
100
AcDbEntity
  8
_0-0_
  6
DASHED1
 62
     6
100
AcDbLine
 10
1320.668408365153
 20
2591.227436557144
 30
0.0
 11
1360.668408365153
 21
2591.227436557144
 31
0.0
  0
LINE
  5
16A
330
20
100
AcDbEntity
  8
_0-0_
  6
DASHED1
 62
     6
100
AcDbLine
 10
1320.668408365153
 20
2591.227436557144
 30
0.0
 11
1320.668408365153
 21
2571.227436557144
 31
0.0
  0
LINE
  5
16B
330
20
100
AcDbEntity
  8
_0-0_
  6
DASHED1
 62
     6
100
AcDbLine
 10
1320.668408365153
 20
2391.227436557144
 30
0.0
 11
1360.668408365153
 21
2391.227436557144
 31
0.0
  0
LINE
  5
16C
330
20
100
AcDbEntity
  8
_0-0_
  6
DASHED1
 62
     6
100
AcDbLine
 10
1320.668408365153
 20
2371.227436557144
 30
0.0
 11
1360.668408365153
 21
2371.227436557144
 31
0.0
  0
LINE
  5
16D
330
20
100
AcDbEntity
  8
_0-0_
  6
DASHED1
 62
     6
100
AcDbLine
 10
1320.668408365153
 20
2391.227436557144
 30
0.0
 11
1320.668408365153
 21
2371.227436557144
 31
0.0
  0
CIRCLE
  5
16E
330
20
100
AcDbEntity
  8
_0-0_
  6
DASHED1
 62
     6
100
AcDbCircle
 10
1660.668408365153
 20
2381.227436557144
 30
0.0
 40
10.0
  0
CIRCLE
  5
16F
330
20
100
AcDbEntity
  8
_0-0_
  6
DASHED1
 62
     6
100
AcDbCircle
 10
1860.668408365153
 20
2381.227436557144
 30
0.0
 40
10.0
  0
CIRCLE
  5
170
330
20
100
AcDbEntity
  8
_0-0_
  6
DASHED1
 62
     6
100
AcDbCircle
 10
2060.668408365153
 20
2381.227436557144
 30
0.0
 40
10.0
  0
CIRCLE
  5
171
330
20
100
AcDbEntity
  8
_0-0_
  6
DASHED1
 62
     6
100
AcDbCircle
 10
2060.668408365153
 20
2581.227436557144
 30
0.0
 40
10.0
  0
CIRCLE
  5
172
330
20
100
AcDbEntity
  8
_0-0_
  6
DASHED1
 62
     6
100
AcDbCircle
 10
1860.668408365153
 20
2581.227436557144
 30
0.0
 40
10.0
  0
CIRCLE
  5
173
330
20
100
AcDbEntity
  8
_0-0_
  6
DASHED1
 62
     6
100
AcDbCircle
 10
1660.668408365153
 20
2581.227436557144
 30
0.0
 40
10.0
  0
LINE
  5
174
330
20
100
AcDbEntity
  8
_0-0_
  6
DASHED1
 62
     6
100
AcDbLine
 10
2360.668408365153
 20
2591.227436557144
 30
0.0
 11
2400.668408365153
 21
2591.227436557144
 31
0.0
  0
LINE
  5
175
330
20
100
AcDbEntity
  8
_0-0_
  6
DASHED1
 62
     6
100
AcDbLine
 10
2360.668408365153
 20
2571.227436557144
 30
0.0
 11
2400.668408365153
 21
2571.227436557144
 31
0.0
  0
LINE
  5
176
330
20
100
AcDbEntity
  8
_0-0_
  6
DASHED1
 62
     6
100
AcDbLine
 10
2400.668408365153
 20
2591.227436557144
 30
0.0
 11
2400.668408365153
 21
2571.227436557144
 31
0.0
  0
LINE
  5
177
330
20
100
AcDbEntity
  8
_0-0_
  6
DASHED1
 62
     6
100
AcDbLine
 10
2360.668408365153
 20
2391.227436557144
 30
0.0
 11
2400.668408365153
 21
2391.227436557144
 31
0.0
  0
LINE
  5
178
330
20
100
AcDbEntity
  8
_0-0_
  6
DASHED1
 62
     6
100
AcDbLine
 10
2360.668408365153
 20
2371.227436557144
 30
0.0
 11
2400.668408365153
 21
2371.227436557144
 31
0.0
  0
LINE
  5
179
330
20
100
AcDbEntity
  8
_0-0_
  6
DASHED1
 62
     6
100
AcDbLine
 10
2400.668408365153
 20
2391.227436557144
 30
0.0
 11
2400.668408365153
 21
2371.227436557144
 31
0.0
  0
LINE
  5
17A
330
20
100
AcDbEntity
  8
_0-0_
  6
DASHED1
 62
     6
100
AcDbLine
 10
2360.668408365153
 20
1851.227436557144
 30
0.0
 11
2400.668408365153
 21
1851.227436557144
 31
0.0
  0
LINE
  5
17B
330
20
100
AcDbEntity
  8
_0-0_
  6
DASHED1
 62
     6
100
AcDbLine
 10
2360.668408365153
 20
1871.227436557144
 30
0.0
 11
2400.668408365153
 21
1871.227436557144
 31
0.0
  0
LINE
  5
17C
330
20
100
AcDbEntity
  8
_0-0_
  6
DASHED1
 62
     6
100
AcDbLine
 10
2400.668408365153
 20
1871.227436557144
 30
0.0
 11
2400.668408365153
 21
1851.227436557144
 31
0.0
  0
CIRCLE
  5
17D
330
20
100
AcDbEntity
  8
_0-0_
  6
DASHED1
 62
     6
100
AcDbCircle
 10
2060.668408365153
 20
1861.227436557143
 30
0.0
 40
10.0
  0
CIRCLE
  5
17E
330
20
100
AcDbEntity
  8
_0-0_
  6
DASHED1
 62
     6
100
AcDbCircle
 10
1860.668408365153
 20
1861.227436557143
 30
0.0
 40
10.0
  0
CIRCLE
  5
17F
330
20
100
AcDbEntity
  8
_0-0_
  6
DASHED1
 62
     6
100
AcDbCircle
 10
1660.668408365153
 20
1861.227436557143
 30
0.0
 40
10.0
  0
LINE
  5
180
330
20
100
AcDbEntity
  8
_0-0_
  6
DASHED1
 62
     6
100
AcDbLine
 10
1320.668408365153
 20
1851.227436557144
 30
0.0
 11
1360.668408365153
 21
1851.227436557144
 31
0.0
  0
LINE
  5
181
330
20
100
AcDbEntity
  8
_0-0_
  6
DASHED1
 62
     6
100
AcDbLine
 10
1320.668408365153
 20
1871.227436557144
 30
0.0
 11
1360.668408365153
 21
1871.227436557144
 31
0.0
  0
LINE
  5
182
330
20
100
AcDbEntity
  8
_0-0_
  6
DASHED1
 62
     6
100
AcDbLine
 10
1320.668408365153
 20
1871.227436557144
 30
0.0
 11
1320.668408365153
 21
1851.227436557144
 31
0.0
  0
LINE
  5
183
330
20
100
AcDbEntity
  8
_0-0_
  6
Continuous
 62
     4
100
AcDbLine
 10
2440.668408365153
 20
811.2274365571439
 30
0.0
 11
1280.668408365153
 21
811.2274365571439
 31
0.0
  0
LINE
  5
184
330
20
100
AcDbEntity
  8
_0-0_
  6
Continuous
 62
     4
100
AcDbLine
 10
1280.668408365153
 20
1336.227436557144
 30
0.0
 11
1280.668408365153
 21
796.2274365571439
 31
0.0
  0
LINE
  5
185
330
20
100
AcDbEntity
  8
_0-0_
  6
Continuous
 62
     4
100
AcDbLine
 10
2440.668408365153
 20
1336.227436557144
 30
0.0
 11
2440.668408365153
 21
796.2274365571439
 31
0.0
  0
LINE
  5
186
330
20
100
AcDbEntity
  8
_0-0_
  6
Continuous
 62
     4
100
AcDbLine
 10
2440.668408365153
 20
811.2274365571439
 30
0.0
 11
2405.895078618747
 21
801.909950933453
 31
0.0
  0
LINE
  5
187
330
20
100
AcDbEntity
  8
_0-0_
  6
Continuous
 62
     4
100
AcDbLine
 10
2440.668408365153
 20
811.2274365571439
 30
0.0
 11
2405.895078618747
 21
820.5449221808347
 31
0.0
  0
LINE
  5
188
330
20
100
AcDbEntity
  8
_0-0_
  6
Continuous
 62
     4
100
AcDbLine
 10
1280.668408365153
 20
811.2274365571439
 30
0.0
 11
1315.44173811156
 21
820.5449221808347
 31
0.0
  0
LINE
  5
189
330
20
100
AcDbEntity
  8
_0-0_
  6
Continuous
 62
     4
100
AcDbLine
 10
1280.668408365153
 20
811.2274365571439
 30
0.0
 11
1315.44173811156
 21
801.909950933453
 31
0.0
  0
LINE
  5
18A
330
20
100
AcDbEntity
  8
_0-0_
  6
Continuous
 62
     4
100
AcDbLine
 10
3978.166485440477
 20
3223.986653147005
 30
0.0
 11
5138.166485440478
 21
3223.986653147005
 31
0.0
  0
LINE
  5
18B
330
20
100
AcDbEntity
  8
_0-0_
  6
Continuous
 62
     4
100
AcDbLine
 10
3573.166485440477
 20
2818.986653147005
 30
0.0
 11
3573.166485440477
 21
1658.986653147005
 31
0.0
  0
LINE
  5
18C
330
20
100
AcDbEntity
  8
_0-0_
  6
Continuous
 62
     4
100
AcDbLine
 10
5138.166485440478
 20
3238.986653147005
 30
0.0
 11
5138.166485440478
 21
2833.986653147005
 31
0.0
  0
LINE
  5
18D
330
20
100
AcDbEntity
  8
_0-0_
  6
Continuous
 62
     4
100
AcDbLine
 10
3978.166485440477
 20
2833.986653147005
 30
0.0
 11
3978.166485440477
 21
3238.986653147005
 31
0.0
  0
LINE
  5
18E
330
20
100
AcDbEntity
  8
_0-0_
  6
Continuous
 62
     4
100
AcDbLine
 10
3963.166485440478
 20
2818.986653147005
 30
0.0
 11
3558.166485440477
 21
2818.986653147005
 31
0.0
  0
LINE
  5
18F
330
20
100
AcDbEntity
  8
_0-0_
  6
Continuous
 62
     4
100
AcDbLine
 10
3963.166485440478
 20
1658.986653147005
 30
0.0
 11
3558.166485440477
 21
1658.986653147005
 31
0.0
  0
LINE
  5
190
330
20
100
AcDbEntity
  8
_0-0_
  6
DASHED1
 62
   136
100
AcDbLine
 10
4108.166485440476
 20
2738.986653147005
 30
0.0
 11
4108.166485440476
 21
1738.986653147005
 31
0.0
  0
LINE
  5
191
330
20
100
AcDbEntity
  8
_0-0_
  6
DASHED1
 62
   136
100
AcDbLine
 10
4058.166485440477
 20
2688.986653147005
 30
0.0
 11
5058.166485440477
 21
2688.986653147005
 31
0.0
  0
LINE
  5
192
330
20
100
AcDbEntity
  8
_0-0_
  6
DASHED1
 62
   136
100
AcDbLine
 10
5008.166485440477
 20
2738.986653147005
 30
0.0
 11
5008.166485440477
 21
1738.986653147005
 31
0.0
  0
LINE
  5
193
330
20
100
AcDbEntity
  8
_0-0_
  6
DASHED1
 62
   136
100
AcDbLine
 10
4058.166485440477
 20
1788.986653147005
 30
0.0
 11
5058.166485440477
 21
1788.986653147005
 31
0.0
  0
LINE
  5
194
330
20
100
AcDbEntity
  8
_0-0_
  6
DASHED1
 62
   136
100
AcDbLine
 10
4108.166485440476
 20
2738.986653147005
 30
0.0
 11
4058.166485440477
 21
2688.986653147005
 31
0.0
  0
LINE
  5
195
330
20
100
AcDbEntity
  8
_0-0_
  6
DASHED1
 62
   136
100
AcDbLine
 10
4108.166485440476
 20
2738.986653147005
 30
0.0
 11
5008.166485440477
 21
2738.986653147005
 31
0.0
  0
LINE
  5
196
330
20
100
AcDbEntity
  8
_0-0_
  6
DASHED1
 62
   136
100
AcDbLine
 10
5008.166485440477
 20
2738.986653147005
 30
0.0
 11
5058.166485440477
 21
2688.986653147005
 31
0.0
  0
LINE
  5
197
330
20
100
AcDbEntity
  8
_0-0_
  6
DASHED1
 62
   136
100
AcDbLine
 10
4058.166485440477
 20
2688.986653147005
 30
0.0
 11
4058.166485440477
 21
1788.986653147005
 31
0.0
  0
LINE
  5
198
330
20
100
AcDbEntity
  8
_0-0_
  6
DASHED1
 62
   136
100
AcDbLine
 10
4058.166485440477
 20
1788.986653147005
 30
0.0
 11
4108.166485440476
 21
1738.986653147005
 31
0.0
  0
LINE
  5
199
330
20
100
AcDbEntity
  8
_0-0_
  6
DASHED1
 62
   136
100
AcDbLine
 10
4108.166485440476
 20
1738.986653147005
 30
0.0
 11
5008.166485440477
 21
1738.986653147005
 31
0.0
  0
LINE
  5
19A
330
20
100
AcDbEntity
  8
_0-0_
  6
DASHED1
 62
   136
100
AcDbLine
 10
5058.166485440477
 20
1788.986653147005
 30
0.0
 11
5008.166485440477
 21
1738.986653147005
 31
0.0
  0
LINE
  5
19B
330
20
100
AcDbEntity
  8
_0-0_
  6
DASHED1
 62
   136
100
AcDbLine
 10
5058.166485440477
 20
2688.986653147005
 30
0.0
 11
5058.166485440477
 21
1788.986653147005
 31
0.0
  0
LINE
  5
19C
330
20
100
AcDbEntity
  8
_0-0_
  6
Continuous
 62
     7
100
AcDbLine
 10
3978.166485440477
 20
1668.986653147005
 30
0.0
 11
3988.166485440478
 21
1658.986653147005
 31
0.0
  0
LINE
  5
19D
330
20
100
AcDbEntity
  8
_0-0_
  6
Continuous
 62
     7
100
AcDbLine
 10
3978.166485440477
 20
2808.986653147005
 30
0.0
 11
3978.166485440477
 21
1668.986653147005
 31
0.0
  0
LINE
  5
19E
330
20
100
AcDbEntity
  8
_0-0_
  6
Continuous
 62
     7
100
AcDbLine
 10
3988.166485440478
 20
2818.986653147005
 30
0.0
 11
3978.166485440477
 21
2808.986653147005
 31
0.0
  0
LINE
  5
19F
330
20
100
AcDbEntity
  8
_0-0_
  6
Continuous
 62
     7
100
AcDbLine
 10
3988.166485440478
 20
2818.986653147005
 30
0.0
 11
5128.166485440477
 21
2818.986653147005
 31
0.0
  0
LINE
  5
1A0
330
20
100
AcDbEntity
  8
_0-0_
  6
Continuous
 62
     7
100
AcDbLine
 10
5128.166485440477
 20
2818.986653147005
 30
0.0
 11
5138.166485440478
 21
2808.986653147005
 31
0.0
  0
LINE
  5
1A1
330
20
100
AcDbEntity
  8
_0-0_
  6
Continuous
 62
     7
100
AcDbLine
 10
5138.166485440478
 20
2808.986653147005
 30
0.0
 11
5138.166485440478
 21
1668.986653147005
 31
0.0
  0
LINE
  5
1A2
330
20
100
AcDbEntity
  8
_0-0_
  6
Continuous
 62
     7
100
AcDbLine
 10
5138.166485440478
 20
1668.986653147005
 30
0.0
 11
5128.166485440477
 21
1658.986653147005
 31
0.0
  0
LINE
  5
1A3
330
20
100
AcDbEntity
  8
_0-0_
  6
Continuous
 62
     7
100
AcDbLine
 10
3988.166485440478
 20
1658.986653147005
 30
0.0
 11
5128.166485440477
 21
1658.986653147005
 31
0.0
  0
LINE
  5
1A4
330
20
100
AcDbEntity
  8
_0-0_
  6
Continuous
 62
     4
100
AcDbLine
 10
4058.166485440477
 20
2833.986653147005
 30
0.0
 11
4058.166485440477
 21
3103.986653147006
 31
0.0
  0
LINE
  5
1A5
330
20
100
AcDbEntity
  8
_0-0_
  6
Continuous
 62
     4
100
AcDbLine
 10
5058.166485440477
 20
3103.986653147006
 30
0.0
 11
5058.166485440477
 21
2833.986653147005
 31
0.0
  0
LINE
  5
1A6
330
20
100
AcDbEntity
  8
_0-0_
  6
Continuous
 62
     4
100
AcDbLine
 10
3978.166485440477
 20
3088.986653147005
 30
0.0
 11
4058.166485440477
 21
3088.986653147005
 31
0.0
  0
LINE
  5
1A7
330
20
100
AcDbEntity
  8
_0-0_
  6
Continuous
 62
     4
100
AcDbLine
 10
5058.166485440477
 20
3088.986653147005
 30
0.0
 11
5138.166485440478
 21
3088.986653147005
 31
0.0
  0
LINE
  5
1A8
330
20
100
AcDbEntity
  8
_0-0_
  6
Continuous
 62
     4
100
AcDbLine
 10
5058.166485440477
 20
3088.986653147005
 30
0.0
 11
4058.166485440477
 21
3088.986653147005
 31
0.0
  0
LINE
  5
1A9
330
20
100
AcDbEntity
  8
_0-0_
  6
Continuous
 62
     4
100
AcDbLine
 10
4108.166485440476
 20
2833.986653147005
 30
0.0
 11
4108.166485440476
 21
2968.986653147005
 31
0.0
  0
LINE
  5
1AA
330
20
100
AcDbEntity
  8
_0-0_
  6
Continuous
 62
     4
100
AcDbLine
 10
5008.166485440477
 20
2968.986653147005
 30
0.0
 11
5008.166485440477
 21
2833.986653147005
 31
0.0
  0
LINE
  5
1AB
330
20
100
AcDbEntity
  8
_0-0_
  6
Continuous
 62
     4
100
AcDbLine
 10
3998.166485440477
 20
2953.986653147005
 30
0.0
 11
4058.166485440477
 21
2953.986653147005
 31
0.0
  0
LINE
  5
1AC
330
20
100
AcDbEntity
  8
_0-0_
  6
Continuous
 62
     4
100
AcDbLine
 10
4108.166485440476
 20
2953.986653147005
 30
0.0
 11
4168.166485440477
 21
2953.986653147005
 31
0.0
  0
LINE
  5
1AD
330
20
100
AcDbEntity
  8
_0-0_
  6
Continuous
 62
     4
100
AcDbLine
 10
4948.166485440477
 20
2953.986653147005
 30
0.0
 11
5008.166485440477
 21
2953.986653147005
 31
0.0
  0
LINE
  5
1AE
330
20
100
AcDbEntity
  8
_0-0_
  6
Continuous
 62
     4
100
AcDbLine
 10
5058.166485440477
 20
2953.986653147005
 30
0.0
 11
5118.166485440477
 21
2953.986653147005
 31
0.0
  0
LINE
  5
1AF
330
20
100
AcDbEntity
  8
_0-0_
  6
Continuous
 62
     4
100
AcDbLine
 10
4108.166485440476
 20
2953.986653147005
 30
0.0
 11
4058.166485440477
 21
2953.986653147005
 31
0.0
  0
LINE
  5
1B0
330
20
100
AcDbEntity
  8
_0-0_
  6
Continuous
 62
     4
100
AcDbLine
 10
5058.166485440477
 20
2953.986653147005
 30
0.0
 11
5008.166485440477
 21
2953.986653147005
 31
0.0
  0
LINE
  5
1B1
330
20
100
AcDbEntity
  8
_0-0_
  6
Continuous
 62
     4
100
AcDbLine
 10
5058.166485440477
 20
2953.986653147005
 30
0.0
 11
5092.939815186884
 21
2963.304138770696
 31
0.0
  0
LINE
  5
1B2
330
20
100
AcDbEntity
  8
_0-0_
  6
Continuous
 62
     4
100
AcDbLine
 10
5058.166485440477
 20
2953.986653147005
 30
0.0
 11
5092.939815186884
 21
2944.669167523315
 31
0.0
  0
LINE
  5
1B3
330
20
100
AcDbEntity
  8
_0-0_
  6
Continuous
 62
     4
100
AcDbLine
 10
5008.166485440477
 20
2953.986653147005
 30
0.0
 11
4973.393155694071
 21
2944.669167523315
 31
0.0
  0
LINE
  5
1B4
330
20
100
AcDbEntity
  8
_0-0_
  6
Continuous
 62
     4
100
AcDbLine
 10
5008.166485440477
 20
2953.986653147005
 30
0.0
 11
4973.393155694071
 21
2963.304138770696
 31
0.0
  0
LINE
  5
1B5
330
20
100
AcDbEntity
  8
_0-0_
  6
Continuous
 62
     4
100
AcDbLine
 10
4108.166485440476
 20
2953.986653147005
 30
0.0
 11
4142.939815186884
 21
2963.304138770696
 31
0.0
  0
LINE
  5
1B6
330
20
100
AcDbEntity
  8
_0-0_
  6
Continuous
 62
     4
100
AcDbLine
 10
4108.166485440476
 20
2953.986653147005
 30
0.0
 11
4142.939815186884
 21
2944.669167523315
 31
0.0
  0
LINE
  5
1B7
330
20
100
AcDbEntity
  8
_0-0_
  6
Continuous
 62
     4
100
AcDbLine
 10
4058.166485440477
 20
2953.986653147005
 30
0.0
 11
4023.393155694071
 21
2944.669167523315
 31
0.0
  0
LINE
  5
1B8
330
20
100
AcDbEntity
  8
_0-0_
  6
Continuous
 62
     4
100
AcDbLine
 10
4058.166485440477
 20
2953.986653147005
 30
0.0
 11
4023.393155694071
 21
2963.304138770696
 31
0.0
  0
LINE
  5
1B9
330
20
100
AcDbEntity
  8
_0-0_
  6
Continuous
 62
     4
100
AcDbLine
 10
4058.166485440477
 20
3088.986653147005
 30
0.0
 11
4092.939815186883
 21
3098.304138770696
 31
0.0
  0
LINE
  5
1BA
330
20
100
AcDbEntity
  8
_0-0_
  6
Continuous
 62
     4
100
AcDbLine
 10
4058.166485440477
 20
3088.986653147005
 30
0.0
 11
4092.939815186883
 21
3079.669167523314
 31
0.0
  0
LINE
  5
1BB
330
20
100
AcDbEntity
  8
_0-0_
  6
Continuous
 62
     4
100
AcDbLine
 10
5058.166485440477
 20
3088.986653147005
 30
0.0
 11
5023.393155694071
 21
3079.669167523314
 31
0.0
  0
LINE
  5
1BC
330
20
100
AcDbEntity
  8
_0-0_
  6
Continuous
 62
     4
100
AcDbLine
 10
5058.166485440477
 20
3088.986653147005
 30
0.0
 11
5023.393155694071
 21
3098.304138770696
 31
0.0
  0
LINE
  5
1BD
330
20
100
AcDbEntity
  8
_0-0_
  6
Continuous
 62
     4
100
AcDbLine
 10
5138.166485440478
 20
3223.986653147005
 30
0.0
 11
5103.393155694071
 21
3214.669167523314
 31
0.0
  0
LINE
  5
1BE
330
20
100
AcDbEntity
  8
_0-0_
  6
Continuous
 62
     4
100
AcDbLine
 10
5138.166485440478
 20
3223.986653147005
 30
0.0
 11
5103.393155694071
 21
3233.304138770696
 31
0.0
  0
LINE
  5
1BF
330
20
100
AcDbEntity
  8
_0-0_
  6
Continuous
 62
     4
100
AcDbLine
 10
3978.166485440477
 20
3223.986653147005
 30
0.0
 11
4012.939815186883
 21
3233.304138770696
 31
0.0
  0
LINE
  5
1C0
330
20
100
AcDbEntity
  8
_0-0_
  6
Continuous
 62
     4
100
AcDbLine
 10
3978.166485440477
 20
3223.986653147005
 30
0.0
 11
4012.939815186883
 21
3214.669167523314
 31
0.0
  0
LINE
  5
1C1
330
20
100
AcDbEntity
  8
_0-0_
  6
Continuous
 62
     4
100
AcDbLine
 10
3978.166485440477
 20
3088.986653147005
 30
0.0
 11
3918.166485440477
 21
3088.986653147005
 31
0.0
  0
LINE
  5
1C2
330
20
100
AcDbEntity
  8
_0-0_
  6
Continuous
 62
     4
100
AcDbLine
 10
5138.166485440478
 20
3088.986653147005
 30
0.0
 11
5198.166485440477
 21
3088.986653147005
 31
0.0
  0
LINE
  5
1C3
330
20
100
AcDbEntity
  8
_0-0_
  6
Continuous
 62
     4
100
AcDbLine
 10
5138.166485440478
 20
3088.986653147005
 30
0.0
 11
5172.939815186882
 21
3098.304138770696
 31
0.0
  0
LINE
  5
1C4
330
20
100
AcDbEntity
  8
_0-0_
  6
Continuous
 62
     4
100
AcDbLine
 10
5138.166485440478
 20
3088.986653147005
 30
0.0
 11
5172.939815186882
 21
3079.669167523314
 31
0.0
  0
LINE
  5
1C5
330
20
100
AcDbEntity
  8
_0-0_
  6
Continuous
 62
     4
100
AcDbLine
 10
3978.166485440477
 20
3088.986653147005
 30
0.0
 11
3943.393155694071
 21
3079.669167523314
 31
0.0
  0
LINE
  5
1C6
330
20
100
AcDbEntity
  8
_0-0_
  6
Continuous
 62
     4
100
AcDbLine
 10
3978.166485440477
 20
3088.986653147005
 30
0.0
 11
3943.393155694071
 21
3098.304138770696
 31
0.0
  0
LINE
  5
1C7
330
20
100
AcDbEntity
  8
_0-0_
  6
Continuous
 62
     4
100
AcDbLine
 10
3963.166485440478
 20
2738.986653147005
 30
0.0
 11
3693.166485440477
 21
2738.986653147005
 31
0.0
  0
LINE
  5
1C8
330
20
100
AcDbEntity
  8
_0-0_
  6
Continuous
 62
     4
100
AcDbLine
 10
3708.166485440477
 20
2818.986653147005
 30
0.0
 11
3708.166485440477
 21
2738.986653147005
 31
0.0
  0
LINE
  5
1C9
330
20
100
AcDbEntity
  8
_0-0_
  6
Continuous
 62
     4
100
AcDbLine
 10
3708.166485440477
 20
1738.986653147005
 30
0.0
 11
3708.166485440477
 21
1658.986653147005
 31
0.0
  0
LINE
  5
1CA
330
20
100
AcDbEntity
  8
_0-0_
  6
Continuous
 62
     4
100
AcDbLine
 10
3708.166485440477
 20
2738.986653147005
 30
0.0
 11
3708.166485440477
 21
1738.986653147005
 31
0.0
  0
LINE
  5
1CB
330
20
100
AcDbEntity
  8
_0-0_
  6
Continuous
 62
     4
100
AcDbLine
 10
3708.166485440477
 20
1658.986653147005
 30
0.0
 11
3708.166485440477
 21
1598.986653147005
 31
0.0
  0
LINE
  5
1CC
330
20
100
AcDbEntity
  8
_0-0_
  6
Continuous
 62
     4
100
AcDbLine
 10
3708.166485440477
 20
2818.986653147005
 30
0.0
 11
3708.166485440477
 21
2878.986653147006
 31
0.0
  0
LINE
  5
1CD
330
20
100
AcDbEntity
  8
_0-0_
  6
Continuous
 62
     4
100
AcDbLine
 10
3963.166485440478
 20
2688.986653147005
 30
0.0
 11
3828.166485440478
 21
2688.986653147005
 31
0.0
  0
LINE
  5
1CE
330
20
100
AcDbEntity
  8
_0-0_
  6
Continuous
 62
     4
100
AcDbLine
 10
3963.166485440478
 20
1788.986653147005
 30
0.0
 11
3828.166485440478
 21
1788.986653147005
 31
0.0
  0
LINE
  5
1CF
330
20
100
AcDbEntity
  8
_0-0_
  6
Continuous
 62
     4
100
AcDbLine
 10
3843.166485440477
 20
2798.986653147006
 30
0.0
 11
3843.166485440477
 21
2738.986653147005
 31
0.0
  0
LINE
  5
1D0
330
20
100
AcDbEntity
  8
_0-0_
  6
Continuous
 62
     4
100
AcDbLine
 10
3843.166485440477
 20
2688.986653147005
 30
0.0
 11
3843.166485440477
 21
2628.986653147006
 31
0.0
  0
LINE
  5
1D1
330
20
100
AcDbEntity
  8
_0-0_
  6
Continuous
 62
     4
100
AcDbLine
 10
3843.166485440477
 20
1848.986653147005
 30
0.0
 11
3843.166485440477
 21
1788.986653147005
 31
0.0
  0
LINE
  5
1D2
330
20
100
AcDbEntity
  8
_0-0_
  6
Continuous
 62
     4
100
AcDbLine
 10
3843.166485440477
 20
1738.986653147005
 30
0.0
 11
3843.166485440477
 21
1678.986653147005
 31
0.0
  0
LINE
  5
1D3
330
20
100
AcDbEntity
  8
_0-0_
  6
Continuous
 62
     4
100
AcDbLine
 10
3843.166485440477
 20
2738.986653147005
 30
0.0
 11
3843.166485440477
 21
2688.986653147005
 31
0.0
  0
LINE
  5
1D4
330
20
100
AcDbEntity
  8
_0-0_
  6
Continuous
 62
     4
100
AcDbLine
 10
3843.166485440477
 20
1788.986653147005
 30
0.0
 11
3843.166485440477
 21
1738.986653147005
 31
0.0
  0
LINE
  5
1D5
330
20
100
AcDbEntity
  8
_0-0_
  6
Continuous
 62
     4
100
AcDbLine
 10
3843.166485440477
 20
2738.986653147005
 30
0.0
 11
3833.848999816785
 21
2773.759982893412
 31
0.0
  0
LINE
  5
1D6
330
20
100
AcDbEntity
  8
_0-0_
  6
Continuous
 62
     4
100
AcDbLine
 10
3843.166485440477
 20
2738.986653147005
 30
0.0
 11
3852.483971064167
 21
2773.759982893412
 31
0.0
  0
LINE
  5
1D7
330
20
100
AcDbEntity
  8
_0-0_
  6
Continuous
 62
     4
100
AcDbLine
 10
3708.166485440477
 20
2818.986653147005
 30
0.0
 11
3698.848999816785
 21
2853.759982893412
 31
0.0
  0
LINE
  5
1D8
330
20
100
AcDbEntity
  8
_0-0_
  6
Continuous
 62
     4
100
AcDbLine
 10
3708.166485440477
 20
2818.986653147005
 30
0.0
 11
3717.483971064167
 21
2853.759982893412
 31
0.0
  0
LINE
  5
1D9
330
20
100
AcDbEntity
  8
_0-0_
  6
Continuous
 62
     4
100
AcDbLine
 10
3708.166485440477
 20
2738.986653147005
 30
0.0
 11
3717.483971064167
 21
2704.213323400599
 31
0.0
  0
LINE
  5
1DA
330
20
100
AcDbEntity
  8
_0-0_
  6
Continuous
 62
     4
100
AcDbLine
 10
3708.166485440477
 20
2738.986653147005
 30
0.0
 11
3698.848999816785
 21
2704.213323400599
 31
0.0
  0
LINE
  5
1DB
330
20
100
AcDbEntity
  8
_0-0_
  6
Continuous
 62
     4
100
AcDbLine
 10
3843.166485440477
 20
1788.986653147005
 30
0.0
 11
3833.848999816785
 21
1823.759982893412
 31
0.0
  0
LINE
  5
1DC
330
20
100
AcDbEntity
  8
_0-0_
  6
Continuous
 62
     4
100
AcDbLine
 10
3843.166485440477
 20
1788.986653147005
 30
0.0
 11
3852.483971064167
 21
1823.759982893412
 31
0.0
  0
LINE
  5
1DD
330
20
100
AcDbEntity
  8
_0-0_
  6
Continuous
 62
     4
100
AcDbLine
 10
3843.166485440477
 20
1738.986653147005
 30
0.0
 11
3852.483971064167
 21
1704.213323400598
 31
0.0
  0
LINE
  5
1DE
330
20
100
AcDbEntity
  8
_0-0_
  6
Continuous
 62
     4
100
AcDbLine
 10
3843.166485440477
 20
1738.986653147005
 30
0.0
 11
3833.848999816785
 21
1704.213323400598
 31
0.0
  0
LINE
  5
1DF
330
20
100
AcDbEntity
  8
_0-0_
  6
Continuous
 62
     4
100
AcDbLine
 10
3708.166485440477
 20
1738.986653147005
 30
0.0
 11
3698.848999816785
 21
1773.759982893411
 31
0.0
  0
LINE
  5
1E0
330
20
100
AcDbEntity
  8
_0-0_
  6
Continuous
 62
     4
100
AcDbLine
 10
3708.166485440477
 20
1738.986653147005
 30
0.0
 11
3717.483971064167
 21
1773.759982893411
 31
0.0
  0
LINE
  5
1E1
330
20
100
AcDbEntity
  8
_0-0_
  6
Continuous
 62
     4
100
AcDbLine
 10
3708.166485440477
 20
1658.986653147005
 30
0.0
 11
3717.483971064167
 21
1624.213323400598
 31
0.0
  0
LINE
  5
1E2
330
20
100
AcDbEntity
  8
_0-0_
  6
Continuous
 62
     4
100
AcDbLine
 10
3708.166485440477
 20
1658.986653147005
 30
0.0
 11
3698.848999816785
 21
1624.213323400598
 31
0.0
  0
LINE
  5
1E3
330
20
100
AcDbEntity
  8
_0-0_
  6
Continuous
 62
     4
100
AcDbLine
 10
3573.166485440477
 20
1658.986653147005
 30
0.0
 11
3563.848999816786
 21
1693.759982893411
 31
0.0
  0
LINE
  5
1E4
330
20
100
AcDbEntity
  8
_0-0_
  6
Continuous
 62
     4
100
AcDbLine
 10
3573.166485440477
 20
1658.986653147005
 30
0.0
 11
3582.483971064167
 21
1693.759982893411
 31
0.0
  0
LINE
  5
1E5
330
20
100
AcDbEntity
  8
_0-0_
  6
Continuous
 62
     4
100
AcDbLine
 10
3573.166485440477
 20
2818.986653147005
 30
0.0
 11
3582.483971064167
 21
2784.213323400599
 31
0.0
  0
LINE
  5
1E6
330
20
100
AcDbEntity
  8
_0-0_
  6
Continuous
 62
     4
100
AcDbLine
 10
3573.166485440477
 20
2818.986653147005
 30
0.0
 11
3563.848999816786
 21
2784.213323400599
 31
0.0
  0
LINE
  5
1E7
330
20
100
AcDbEntity
  8
_0-0_
  6
Continuous
 62
     4
100
AcDbLine
 10
4640.298519796442
 20
2451.118687502969
 30
0.0
 11
4216.034451084513
 21
2026.854618791041
 31
0.0
  0
LINE
  5
1E8
330
20
100
AcDbEntity
  8
_0-0_
  6
Continuous
 62
     4
100
AcDbLine
 10
4735.757935256626
 20
2546.578102963153
 30
0.0
 11
4640.298519796442
 21
2451.118687502969
 31
0.0
  0
LINE
  5
1E9
330
20
100
AcDbEntity
  8
_0-0_
  6
Continuous
 62
     4
100
AcDbLine
 10
4216.034451084513
 20
2026.854618791041
 30
0.0
 11
4120.575035624329
 21
1931.395203330857
 31
0.0
  0
LINE
  5
1EA
330
20
100
AcDbEntity
  8
_0-0_
  6
Continuous
 62
     4
100
AcDbLine
 10
4735.757935256626
 20
2546.578102963153
 30
0.0
 11
4717.757935256624
 21
2515.401188426913
 31
0.0
  0
LINE
  5
1EB
330
20
100
AcDbEntity
  8
_0-0_
  6
Continuous
 62
     4
100
AcDbLine
 10
4735.757935256626
 20
2546.578102963153
 30
0.0
 11
4704.581020720385
 21
2528.578102963153
 31
0.0
  0
LINE
  5
1EC
330
20
100
AcDbEntity
  8
_0-0_
  6
Continuous
 62
     4
100
AcDbLine
 10
4640.298519796442
 20
2451.118687502969
 30
0.0
 11
4658.298519796442
 21
2482.295602039209
 31
0.0
  0
LINE
  5
1ED
330
20
100
AcDbEntity
  8
_0-0_
  6
Continuous
 62
     4
100
AcDbLine
 10
4640.298519796442
 20
2451.118687502969
 30
0.0
 11
4671.475434332681
 21
2469.118687502969
 31
0.0
  0
LINE
  5
1EE
330
20
100
AcDbEntity
  8
_0-0_
  6
Continuous
 62
     4
100
AcDbLine
 10
4640.298519796442
 20
2451.118687502969
 30
0.0
 11
4622.298519796443
 21
2419.941772966729
 31
0.0
  0
LINE
  5
1EF
330
20
100
AcDbEntity
  8
_0-0_
  6
Continuous
 62
     4
100
AcDbLine
 10
4640.298519796442
 20
2451.118687502969
 30
0.0
 11
4609.121605260201
 21
2433.118687502969
 31
0.0
  0
LINE
  5
1F0
330
20
100
AcDbEntity
  8
_0-0_
  6
Continuous
 62
     4
100
AcDbLine
 10
4216.034451084513
 20
2026.854618791041
 30
0.0
 11
4234.034451084514
 21
2058.031533327281
 31
0.0
  0
LINE
  5
1F1
330
20
100
AcDbEntity
  8
_0-0_
  6
Continuous
 62
     4
100
AcDbLine
 10
4216.034451084513
 20
2026.854618791041
 30
0.0
 11
4247.211365620753
 21
2044.854618791041
 31
0.0
  0
LINE
  5
1F2
330
20
100
AcDbEntity
  8
_0-0_
  6
Continuous
 62
     4
100
AcDbLine
 10
4216.034451084513
 20
2026.854618791041
 30
0.0
 11
4198.034451084513
 21
1995.677704254801
 31
0.0
  0
LINE
  5
1F3
330
20
100
AcDbEntity
  8
_0-0_
  6
Continuous
 62
     4
100
AcDbLine
 10
4216.034451084513
 20
2026.854618791041
 30
0.0
 11
4184.857536548273
 21
2008.854618791041
 31
0.0
  0
LINE
  5
1F4
330
20
100
AcDbEntity
  8
_0-0_
  6
Continuous
 62
     4
100
AcDbLine
 10
4120.575035624329
 20
1931.395203330857
 30
0.0
 11
4138.575035624329
 21
1962.572117867097
 31
0.0
  0
LINE
  5
1F5
330
20
100
AcDbEntity
  8
_0-0_
  6
Continuous
 62
     4
100
AcDbLine
 10
4120.575035624329
 20
1931.395203330857
 30
0.0
 11
4151.751950160568
 21
1949.395203330857
 31
0.0
  0
LINE
  5
1F6
330
20
100
AcDbEntity
  8
_0-0_
  6
DASHED1
 62
   136
100
AcDbLine
 10
4258.166485440477
 20
2793.986653147005
 30
0.0
 11
4858.166485440477
 21
2793.986653147005
 31
0.0
  0
LINE
  5
1F7
330
20
100
AcDbEntity
  8
_0-0_
  6
DASHED1
 62
   136
100
AcDbLine
 10
4235.666485440477
 20
2818.986653147005
 30
0.0
 11
4258.166485440477
 21
2793.986653147005
 31
0.0
  0
LINE
  5
1F8
330
20
100
AcDbEntity
  8
_0-0_
  6
DASHED1
 62
   136
100
AcDbLine
 10
4880.666485440477
 20
2818.986653147005
 30
0.0
 11
4858.166485440477
 21
2793.986653147005
 31
0.0
  0
LINE
  5
1F9
330
20
100
AcDbEntity
  8
_0-0_
  6
DASHED1
 62
   136
100
AcDbLine
 10
4258.166485440477
 20
1683.986653147005
 30
0.0
 11
4858.166485440477
 21
1683.986653147005
 31
0.0
  0
LINE
  5
1FA
330
20
100
AcDbEntity
  8
_0-0_
  6
DASHED1
 62
   136
100
AcDbLine
 10
4258.166485440477
 20
1683.986653147005
 30
0.0
 11
4235.666485440477
 21
1658.986653147005
 31
0.0
  0
LINE
  5
1FB
330
20
100
AcDbEntity
  8
_0-0_
  6
DASHED1
 62
   136
100
AcDbLine
 10
4858.166485440477
 20
1683.986653147005
 30
0.0
 11
4880.666485440477
 21
1658.986653147005
 31
0.0
  0
LINE
  5
1FC
330
20
100
AcDbEntity
  8
_0-0_
  6
DASHED1
 62
   136
100
AcDbLine
 10
4003.166485440477
 20
2538.986653147005
 30
0.0
 11
4003.166485440477
 21
1938.986653147004
 31
0.0
  0
LINE
  5
1FD
330
20
100
AcDbEntity
  8
_0-0_
  6
DASHED1
 62
   136
100
AcDbLine
 10
4003.166485440477
 20
2538.986653147005
 30
0.0
 11
3978.166485440477
 21
2561.486653147005
 31
0.0
  0
LINE
  5
1FE
330
20
100
AcDbEntity
  8
_0-0_
  6
DASHED1
 62
   136
100
AcDbLine
 10
4003.166485440477
 20
1938.986653147004
 30
0.0
 11
3978.166485440477
 21
1916.486653147005
 31
0.0
  0
LINE
  5
1FF
330
20
100
AcDbEntity
  8
_0-0_
  6
DASHED1
 62
   136
100
AcDbLine
 10
5113.166485440477
 20
2538.986653147005
 30
0.0
 11
5113.166485440477
 21
1938.986653147004
 31
0.0
  0
LINE
  5
200
330
20
100
AcDbEntity
  8
_0-0_
  6
DASHED1
 62
   136
100
AcDbLine
 10
5138.166485440478
 20
2561.486653147005
 30
0.0
 11
5113.166485440477
 21
2538.986653147005
 31
0.0
  0
LINE
  5
201
330
20
100
AcDbEntity
  8
_0-0_
  6
DASHED1
 62
   136
100
AcDbLine
 10
5113.166485440477
 20
1938.986653147004
 30
0.0
 11
5138.166485440478
 21
1916.486653147005
 31
0.0
  0
LINE
  5
202
330
20
100
AcDbEntity
  8
_0-0_
  6
Continuous
 62
     4
100
AcDbLine
 10
4858.166485440477
 20
1643.986653147005
 30
0.0
 11
4858.166485440477
 21
1508.986653147005
 31
0.0
  0
LINE
  5
203
330
20
100
AcDbEntity
  8
_0-0_
  6
Continuous
 62
     4
100
AcDbLine
 10
4258.166485440477
 20
1643.986653147005
 30
0.0
 11
4258.166485440477
 21
1508.986653147005
 31
0.0
  0
LINE
  5
204
330
20
100
AcDbEntity
  8
_0-0_
  6
Continuous
 62
     4
100
AcDbLine
 10
4258.166485440477
 20
1523.986653147005
 30
0.0
 11
4858.166485440477
 21
1523.986653147005
 31
0.0
  0
LINE
  5
205
330
20
100
AcDbEntity
  8
_0-0_
  6
Continuous
 62
     4
100
AcDbLine
 10
4858.166485440477
 20
1523.986653147005
 30
0.0
 11
4823.393155694071
 21
1514.669167523314
 31
0.0
  0
LINE
  5
206
330
20
100
AcDbEntity
  8
_0-0_
  6
Continuous
 62
     4
100
AcDbLine
 10
4858.166485440477
 20
1523.986653147005
 30
0.0
 11
4823.393155694071
 21
1533.304138770696
 31
0.0
  0
LINE
  5
207
330
20
100
AcDbEntity
  8
_0-0_
  6
Continuous
 62
     4
100
AcDbLine
 10
4258.166485440477
 20
1523.986653147005
 30
0.0
 11
4292.939815186884
 21
1533.304138770696
 31
0.0
  0
LINE
  5
208
330
20
100
AcDbEntity
  8
_0-0_
  6
Continuous
 62
     4
100
AcDbLine
 10
4258.166485440477
 20
1523.986653147005
 30
0.0
 11
4292.939815186884
 21
1514.669167523314
 31
0.0
  0
CIRCLE
  5
209
330
20
100
AcDbEntity
  8
_0-0_
  6
Continuous
 62
   136
100
AcDbCircle
 10
4558.166485440477
 20
2238.986653147005
 30
0.0
 40
90.0
  0
CIRCLE
  5
20A
330
20
100
AcDbEntity
  8
_0-0_
  6
Continuous
 62
   136
100
AcDbCircle
 10
4558.166485440477
 20
2238.986653147005
 30
0.0
 40
100.0
  0
LINE
  5
20B
330
20
100
AcDbEntity
  8
_0-0_
  6
Continuous
 62
     4
100
AcDbLine
 10
4348.166485440477
 20
1698.986653147005
 30
0.0
 11
4046.639488069975
 21
1423.986653147005
 31
0.0
  0
LINE
  5
20C
330
20
100
AcDbEntity
  8
_0-0_
  6
Continuous
 62
     4
100
AcDbLine
 10
4348.166485440477
 20
1698.986653147005
 30
0.0
 11
4328.752521628449
 21
1668.67002389662
 31
0.0
  0
LINE
  5
20D
330
20
100
AcDbEntity
  8
_0-0_
  6
Continuous
 62
     4
100
AcDbLine
 10
4348.166485440477
 20
1698.986653147005
 30
0.0
 11
4316.195184965917
 21
1682.43866396507
 31
0.0
  0
LINE
  5
20E
330
20
100
AcDbEntity
  8
_0-0_
  6
Continuous
 62
     4
100
AcDbLine
 10
4046.639488069975
 20
1423.986653147005
 30
0.0
 11
3474.176085835178
 21
1423.986653147005
 31
0.0
  0
LINE
  5
20F
330
20
100
AcDbEntity
  8
_0-0_
  6
Continuous
 62
   136
100
AcDbLine
 10
4628.87716355913
 20
2309.69733126566
 30
0.0
 11
4695.094690503563
 21
2375.914858210092
 31
0.0
  0
LINE
  5
210
330
20
100
AcDbEntity
  8
_0-0_
  6
Continuous
 62
   136
100
AcDbLine
 10
4628.87716355913
 20
2168.275975028351
 30
0.0
 11
4695.094690503563
 21
2102.058448083918
 31
0.0
  0
LINE
  5
211
330
20
100
AcDbEntity
  8
_0-0_
  6
Continuous
 62
   136
100
AcDbLine
 10
4291.238280377391
 20
1972.058448083918
 30
0.0
 11
4487.455807321822
 21
2168.27597502835
 31
0.0
  0
LINE
  5
212
330
20
100
AcDbEntity
  8
_0-0_
  6
Continuous
 62
   136
100
AcDbLine
 10
4291.238280377391
 20
2505.914858210092
 30
0.0
 11
4487.455807321822
 21
2309.69733126566
 31
0.0
  0
LINE
  5
213
330
20
100
AcDbEntity
  8
_0-0_
  6
DASHED1
 62
   136
100
AcDbLine
 10
4291.238280377391
 20
2505.914858210092
 30
0.0
 11
4108.166485440476
 21
2688.986653147005
 31
0.0
  0
LINE
  5
214
330
20
100
AcDbEntity
  8
_0-0_
  6
DASHED1
 62
   136
100
AcDbLine
 10
4695.094690503563
 20
2375.914858210092
 30
0.0
 11
5008.166485440477
 21
2688.986653147005
 31
0.0
  0
LINE
  5
215
330
20
100
AcDbEntity
  8
_0-0_
  6
DASHED1
 62
   136
100
AcDbLine
 10
4695.094690503563
 20
2102.058448083918
 30
0.0
 11
5008.166485440477
 21
1788.986653147005
 31
0.0
  0
LINE
  5
216
330
20
100
AcDbEntity
  8
_0-0_
  6
DASHED1
 62
   136
100
AcDbLine
 10
4291.238280377391
 20
1972.058448083918
 30
0.0
 11
4108.166485440476
 21
1788.986653147005
 31
0.0
  0
LINE
  5
217
330
20
100
AcDbEntity
  8
_0-0_
  6
DASHED1
 62
     6
100
AcDbLine
 10
4348.166485440477
 20
2778.986653147005
 30
0.0
 11
4348.166485440477
 21
2738.986653147005
 31
0.0
  0
LINE
  5
218
330
20
100
AcDbEntity
  8
_0-0_
  6
DASHED1
 62
     6
100
AcDbLine
 10
4348.166485440477
 20
2778.986653147005
 30
0.0
 11
4368.166485440477
 21
2778.986653147005
 31
0.0
  0
LINE
  5
219
330
20
100
AcDbEntity
  8
_0-0_
  6
DASHED1
 62
     6
100
AcDbLine
 10
4368.166485440477
 20
2778.986653147005
 30
0.0
 11
4368.166485440477
 21
2738.986653147005
 31
0.0
  0
LINE
  5
21A
330
20
100
AcDbEntity
  8
_0-0_
  6
DASHED1
 62
     6
100
AcDbLine
 10
4548.166485440477
 20
2778.986653147005
 30
0.0
 11
4548.166485440477
 21
2738.986653147005
 31
0.0
  0
LINE
  5
21B
330
20
100
AcDbEntity
  8
_0-0_
  6
DASHED1
 62
     6
100
AcDbLine
 10
4548.166485440477
 20
2778.986653147005
 30
0.0
 11
4568.166485440477
 21
2778.986653147005
 31
0.0
  0
LINE
  5
21C
330
20
100
AcDbEntity
  8
_0-0_
  6
DASHED1
 62
     6
100
AcDbLine
 10
4568.166485440477
 20
2778.986653147005
 30
0.0
 11
4568.166485440477
 21
2738.986653147005
 31
0.0
  0
LINE
  5
21D
330
20
100
AcDbEntity
  8
_0-0_
  6
DASHED1
 62
     6
100
AcDbLine
 10
4748.166485440477
 20
2778.986653147005
 30
0.0
 11
4748.166485440477
 21
2738.986653147005
 31
0.0
  0
LINE
  5
21E
330
20
100
AcDbEntity
  8
_0-0_
  6
DASHED1
 62
     6
100
AcDbLine
 10
4748.166485440477
 20
2778.986653147005
 30
0.0
 11
4768.166485440477
 21
2778.986653147005
 31
0.0
  0
LINE
  5
21F
330
20
100
AcDbEntity
  8
_0-0_
  6
DASHED1
 62
     6
100
AcDbLine
 10
4768.166485440477
 20
2778.986653147005
 30
0.0
 11
4768.166485440477
 21
2738.986653147005
 31
0.0
  0
LINE
  5
220
330
20
100
AcDbEntity
  8
_0-0_
  6
DASHED1
 62
     6
100
AcDbLine
 10
5058.166485440477
 20
2448.986653147005
 30
0.0
 11
5098.166485440477
 21
2448.986653147005
 31
0.0
  0
LINE
  5
221
330
20
100
AcDbEntity
  8
_0-0_
  6
DASHED1
 62
     6
100
AcDbLine
 10
5058.166485440477
 20
2428.986653147005
 30
0.0
 11
5098.166485440477
 21
2428.986653147005
 31
0.0
  0
LINE
  5
222
330
20
100
AcDbEntity
  8
_0-0_
  6
DASHED1
 62
     6
100
AcDbLine
 10
5098.166485440477
 20
2448.986653147005
 30
0.0
 11
5098.166485440477
 21
2428.986653147005
 31
0.0
  0
LINE
  5
223
330
20
100
AcDbEntity
  8
_0-0_
  6
DASHED1
 62
     6
100
AcDbLine
 10
5058.166485440477
 20
2248.986653147005
 30
0.0
 11
5098.166485440477
 21
2248.986653147005
 31
0.0
  0
LINE
  5
224
330
20
100
AcDbEntity
  8
_0-0_
  6
DASHED1
 62
     6
100
AcDbLine
 10
5058.166485440477
 20
2228.986653147005
 30
0.0
 11
5098.166485440477
 21
2228.986653147005
 31
0.0
  0
LINE
  5
225
330
20
100
AcDbEntity
  8
_0-0_
  6
DASHED1
 62
     6
100
AcDbLine
 10
5098.166485440477
 20
2248.986653147005
 30
0.0
 11
5098.166485440477
 21
2228.986653147005
 31
0.0
  0
LINE
  5
226
330
20
100
AcDbEntity
  8
_0-0_
  6
DASHED1
 62
     6
100
AcDbLine
 10
5058.166485440477
 20
2048.986653147005
 30
0.0
 11
5098.166485440477
 21
2048.986653147005
 31
0.0
  0
LINE
  5
227
330
20
100
AcDbEntity
  8
_0-0_
  6
DASHED1
 62
     6
100
AcDbLine
 10
5058.166485440477
 20
2028.986653147005
 30
0.0
 11
5098.166485440477
 21
2028.986653147005
 31
0.0
  0
LINE
  5
228
330
20
100
AcDbEntity
  8
_0-0_
  6
DASHED1
 62
     6
100
AcDbLine
 10
5098.166485440477
 20
2048.986653147005
 30
0.0
 11
5098.166485440477
 21
2028.986653147005
 31
0.0
  0
LINE
  5
229
330
20
100
AcDbEntity
  8
_0-0_
  6
DASHED1
 62
     6
100
AcDbLine
 10
4348.166485440477
 20
1738.986653147005
 30
0.0
 11
4348.166485440477
 21
1698.986653147005
 31
0.0
  0
LINE
  5
22A
330
20
100
AcDbEntity
  8
_0-0_
  6
DASHED1
 62
     6
100
AcDbLine
 10
4348.166485440477
 20
1698.986653147005
 30
0.0
 11
4368.166485440477
 21
1698.986653147005
 31
0.0
  0
LINE
  5
22B
330
20
100
AcDbEntity
  8
_0-0_
  6
DASHED1
 62
     6
100
AcDbLine
 10
4368.166485440477
 20
1738.986653147005
 30
0.0
 11
4368.166485440477
 21
1698.986653147005
 31
0.0
  0
LINE
  5
22C
330
20
100
AcDbEntity
  8
_0-0_
  6
DASHED1
 62
     6
100
AcDbLine
 10
4548.166485440477
 20
1738.986653147005
 30
0.0
 11
4548.166485440477
 21
1698.986653147005
 31
0.0
  0
LINE
  5
22D
330
20
100
AcDbEntity
  8
_0-0_
  6
DASHED1
 62
     6
100
AcDbLine
 10
4548.166485440477
 20
1698.986653147005
 30
0.0
 11
4568.166485440477
 21
1698.986653147005
 31
0.0
  0
LINE
  5
22E
330
20
100
AcDbEntity
  8
_0-0_
  6
DASHED1
 62
     6
100
AcDbLine
 10
4568.166485440477
 20
1738.986653147005
 30
0.0
 11
4568.166485440477
 21
1698.986653147005
 31
0.0
  0
LINE
  5
22F
330
20
100
AcDbEntity
  8
_0-0_
  6
DASHED1
 62
     6
100
AcDbLine
 10
4748.166485440477
 20
1738.986653147005
 30
0.0
 11
4748.166485440477
 21
1698.986653147005
 31
0.0
  0
LINE
  5
230
330
20
100
AcDbEntity
  8
_0-0_
  6
DASHED1
 62
     6
100
AcDbLine
 10
4748.166485440477
 20
1698.986653147005
 30
0.0
 11
4768.166485440477
 21
1698.986653147005
 31
0.0
  0
LINE
  5
231
330
20
100
AcDbEntity
  8
_0-0_
  6
DASHED1
 62
     6
100
AcDbLine
 10
4768.166485440477
 20
1738.986653147005
 30
0.0
 11
4768.166485440477
 21
1698.986653147005
 31
0.0
  0
LINE
  5
232
330
20
100
AcDbEntity
  8
_0-0_
  6
DASHED1
 62
     6
100
AcDbLine
 10
4018.166485440477
 20
2428.986653147005
 30
0.0
 11
4058.166485440477
 21
2428.986653147005
 31
0.0
  0
LINE
  5
233
330
20
100
AcDbEntity
  8
_0-0_
  6
DASHED1
 62
     6
100
AcDbLine
 10
4018.166485440477
 20
2448.986653147005
 30
0.0
 11
4058.166485440477
 21
2448.986653147005
 31
0.0
  0
LINE
  5
234
330
20
100
AcDbEntity
  8
_0-0_
  6
DASHED1
 62
     6
100
AcDbLine
 10
4018.166485440477
 20
2448.986653147005
 30
0.0
 11
4018.166485440477
 21
2428.986653147005
 31
0.0
  0
LINE
  5
235
330
20
100
AcDbEntity
  8
_0-0_
  6
DASHED1
 62
     6
100
AcDbLine
 10
4018.166485440477
 20
2248.986653147005
 30
0.0
 11
4058.166485440477
 21
2248.986653147005
 31
0.0
  0
LINE
  5
236
330
20
100
AcDbEntity
  8
_0-0_
  6
DASHED1
 62
     6
100
AcDbLine
 10
4018.166485440477
 20
2248.986653147005
 30
0.0
 11
4018.166485440477
 21
2228.986653147005
 31
0.0
  0
LINE
  5
237
330
20
100
AcDbEntity
  8
_0-0_
  6
DASHED1
 62
     6
100
AcDbLine
 10
4018.166485440477
 20
2228.986653147005
 30
0.0
 11
4058.166485440477
 21
2228.986653147005
 31
0.0
  0
LINE
  5
238
330
20
100
AcDbEntity
  8
_0-0_
  6
DASHED1
 62
     6
100
AcDbLine
 10
4018.166485440477
 20
2048.986653147005
 30
0.0
 11
4058.166485440477
 21
2048.986653147005
 31
0.0
  0
LINE
  5
239
330
20
100
AcDbEntity
  8
_0-0_
  6
DASHED1
 62
     6
100
AcDbLine
 10
4018.166485440477
 20
2048.986653147005
 30
0.0
 11
4018.166485440477
 21
2028.986653147005
 31
0.0
  0
LINE
  5
23A
330
20
100
AcDbEntity
  8
_0-0_
  6
DASHED1
 62
     6
100
AcDbLine
 10
4018.166485440477
 20
2028.986653147005
 30
0.0
 11
4058.166485440477
 21
2028.986653147005
 31
0.0
  0
LINE
  5
23B
330
20
100
AcDbEntity
  8
_0-0_
  6
Continuous
 62
     4
100
AcDbLine
 10
3843.166485440477
 20
2688.986653147005
 30
0.0
 11
3852.483971064167
 21
2654.213323400599
 31
0.0
  0
LINE
  5
23C
330
20
100
AcDbEntity
  8
_0-0_
  6
Continuous
 62
     4
100
AcDbLine
 10
3843.166485440477
 20
2688.986653147005
 30
0.0
 11
3833.848999816785
 21
2654.213323400599
 31
0.0
  0
LINE
  5
23D
330
20
100
AcDbEntity
  8
_0-0_
  6
Continuous
 62
     4
100
AcDbLine
 10
3828.166485440478
 20
2238.986653147005
 30
0.0
 11
3963.166485440478
 21
2238.986653147005
 31
0.0
  0
LINE
  5
23E
330
20
100
AcDbEntity
  8
_0-0_
  6
Continuous
 62
     4
100
AcDbLine
 10
3828.166485440478
 20
2438.986653147005
 30
0.0
 11
3963.166485440478
 21
2438.986653147005
 31
0.0
  0
LINE
  5
23F
330
20
100
AcDbEntity
  8
_0-0_
  6
Continuous
 62
     4
100
AcDbLine
 10
3828.166485440478
 20
2038.986653147005
 30
0.0
 11
3963.166485440478
 21
2038.986653147005
 31
0.0
  0
LINE
  5
240
330
20
100
AcDbEntity
  8
_0-0_
  6
Continuous
 62
     4
100
AcDbLine
 10
3843.166485440477
 20
2238.986653147005
 30
0.0
 11
3843.166485440477
 21
2038.986653147005
 31
0.0
  0
LINE
  5
241
330
20
100
AcDbEntity
  8
_0-0_
  6
Continuous
 62
     4
100
AcDbLine
 10
3843.166485440477
 20
2438.986653147005
 30
0.0
 11
3843.166485440477
 21
2238.986653147005
 31
0.0
  0
LINE
  5
242
330
20
100
AcDbEntity
  8
_0-0_
  6
Continuous
 62
     4
100
AcDbLine
 10
3843.166485440477
 20
2438.986653147005
 30
0.0
 11
3852.483971064167
 21
2404.213323400599
 31
0.0
  0
LINE
  5
243
330
20
100
AcDbEntity
  8
_0-0_
  6
Continuous
 62
     4
100
AcDbLine
 10
3843.166485440477
 20
2438.986653147005
 30
0.0
 11
3833.848999816785
 21
2404.213323400599
 31
0.0
  0
LINE
  5
244
330
20
100
AcDbEntity
  8
_0-0_
  6
Continuous
 62
     4
100
AcDbLine
 10
3843.166485440477
 20
2238.986653147005
 30
0.0
 11
3833.848999816785
 21
2273.759982893411
 31
0.0
  0
LINE
  5
245
330
20
100
AcDbEntity
  8
_0-0_
  6
Continuous
 62
     4
100
AcDbLine
 10
3843.166485440477
 20
2238.986653147005
 30
0.0
 11
3852.483971064167
 21
2273.759982893411
 31
0.0
  0
LINE
  5
246
330
20
100
AcDbEntity
  8
_0-0_
  6
Continuous
 62
     4
100
AcDbLine
 10
3843.166485440477
 20
2238.986653147005
 30
0.0
 11
3852.483971064167
 21
2204.213323400599
 31
0.0
  0
LINE
  5
247
330
20
100
AcDbEntity
  8
_0-0_
  6
Continuous
 62
     4
100
AcDbLine
 10
3843.166485440477
 20
2238.986653147005
 30
0.0
 11
3833.848999816785
 21
2204.213323400599
 31
0.0
  0
LINE
  5
248
330
20
100
AcDbEntity
  8
_0-0_
  6
Continuous
 62
     4
100
AcDbLine
 10
3843.166485440477
 20
2038.986653147005
 30
0.0
 11
3833.848999816785
 21
2073.759982893411
 31
0.0
  0
LINE
  5
249
330
20
100
AcDbEntity
  8
_0-0_
  6
Continuous
 62
     4
100
AcDbLine
 10
3843.166485440477
 20
2038.986653147005
 30
0.0
 11
3852.483971064167
 21
2073.759982893411
 31
0.0
  0
LINE
  5
24A
330
20
100
AcDbEntity
  8
_0-0_
  6
Continuous
 62
     4
100
AcDbLine
 10
5273.166485440476
 20
2538.986653147005
 30
0.0
 11
5273.166485440476
 21
1938.986653147004
 31
0.0
  0
LINE
  5
24B
330
20
100
AcDbEntity
  8
_0-0_
  6
Continuous
 62
     4
100
AcDbLine
 10
5153.166485440477
 20
2538.986653147005
 30
0.0
 11
5288.166485440477
 21
2538.986653147005
 31
0.0
  0
LINE
  5
24C
330
20
100
AcDbEntity
  8
_0-0_
  6
Continuous
 62
     4
100
AcDbLine
 10
5153.166485440477
 20
1938.986653147004
 30
0.0
 11
5288.166485440477
 21
1938.986653147004
 31
0.0
  0
LINE
  5
24D
330
20
100
AcDbEntity
  8
_0-0_
  6
Continuous
 62
     4
100
AcDbLine
 10
5273.166485440476
 20
2538.986653147005
 30
0.0
 11
5282.483971064167
 21
2504.213323400599
 31
0.0
  0
LINE
  5
24E
330
20
100
AcDbEntity
  8
_0-0_
  6
Continuous
 62
     4
100
AcDbLine
 10
5273.166485440476
 20
2538.986653147005
 30
0.0
 11
5263.848999816786
 21
2504.213323400599
 31
0.0
  0
LINE
  5
24F
330
20
100
AcDbEntity
  8
_0-0_
  6
Continuous
 62
     4
100
AcDbLine
 10
5273.166485440476
 20
1938.986653147004
 30
0.0
 11
5263.848999816786
 21
1973.759982893411
 31
0.0
  0
LINE
  5
250
330
20
100
AcDbEntity
  8
_0-0_
  6
Continuous
 62
     4
100
AcDbLine
 10
5273.166485440476
 20
1938.986653147004
 30
0.0
 11
5282.483971064167
 21
1973.759982893411
 31
0.0
  0
LINE
  5
251
330
20
100
AcDbEntity
  8
_0-0_
  6
Continuous
 62
     4
100
AcDbLine
 10
4558.166485440477
 20
2968.986653147005
 30
0.0
 11
4558.166485440477
 21
2833.986653147005
 31
0.0
  0
LINE
  5
252
330
20
100
AcDbEntity
  8
_0-0_
  6
Continuous
 62
     4
100
AcDbLine
 10
4758.166485440477
 20
2968.986653147005
 30
0.0
 11
4758.166485440477
 21
2833.986653147005
 31
0.0
  0
LINE
  5
253
330
20
100
AcDbEntity
  8
_0-0_
  6
Continuous
 62
     4
100
AcDbLine
 10
4358.166485440476
 20
2968.986653147005
 30
0.0
 11
4358.166485440476
 21
2833.986653147005
 31
0.0
  0
LINE
  5
254
330
20
100
AcDbEntity
  8
_0-0_
  6
Continuous
 62
     4
100
AcDbLine
 10
4558.166485440477
 20
2953.986653147005
 30
0.0
 11
4358.166485440476
 21
2953.986653147005
 31
0.0
  0
LINE
  5
255
330
20
100
AcDbEntity
  8
_0-0_
  6
Continuous
 62
     4
100
AcDbLine
 10
4758.166485440477
 20
2953.986653147005
 30
0.0
 11
4558.166485440477
 21
2953.986653147005
 31
0.0
  0
LINE
  5
256
330
20
100
AcDbEntity
  8
_0-0_
  6
Continuous
 62
     4
100
AcDbLine
 10
4758.166485440477
 20
2953.986653147005
 30
0.0
 11
4723.393155694071
 21
2944.669167523315
 31
0.0
  0
LINE
  5
257
330
20
100
AcDbEntity
  8
_0-0_
  6
Continuous
 62
     4
100
AcDbLine
 10
4758.166485440477
 20
2953.986653147005
 30
0.0
 11
4723.393155694071
 21
2963.304138770696
 31
0.0
  0
LINE
  5
258
330
20
100
AcDbEntity
  8
_0-0_
  6
Continuous
 62
     4
100
AcDbLine
 10
4558.166485440477
 20
2953.986653147005
 30
0.0
 11
4592.939815186884
 21
2963.304138770696
 31
0.0
  0
LINE
  5
259
330
20
100
AcDbEntity
  8
_0-0_
  6
Continuous
 62
     4
100
AcDbLine
 10
4558.166485440477
 20
2953.986653147005
 30
0.0
 11
4592.939815186884
 21
2944.669167523315
 31
0.0
  0
LINE
  5
25A
330
20
100
AcDbEntity
  8
_0-0_
  6
Continuous
 62
     4
100
AcDbLine
 10
4558.166485440477
 20
2953.986653147005
 30
0.0
 11
4523.393155694071
 21
2944.669167523315
 31
0.0
  0
LINE
  5
25B
330
20
100
AcDbEntity
  8
_0-0_
  6
Continuous
 62
     4
100
AcDbLine
 10
4558.166485440477
 20
2953.986653147005
 30
0.0
 11
4523.393155694071
 21
2963.304138770696
 31
0.0
  0
LINE
  5
25C
330
20
100
AcDbEntity
  8
_0-0_
  6
Continuous
 62
     4
100
AcDbLine
 10
4358.166485440476
 20
2953.986653147005
 30
0.0
 11
4392.939815186884
 21
2963.304138770696
 31
0.0
  0
LINE
  5
25D
330
20
100
AcDbEntity
  8
_0-0_
  6
Continuous
 62
     4
100
AcDbLine
 10
4358.166485440476
 20
2953.986653147005
 30
0.0
 11
4392.939815186884
 21
2944.669167523315
 31
0.0
  0
CIRCLE
  5
25E
330
20
100
AcDbEntity
  8
_0-0_
  6
Continuous
 62
     7
100
AcDbCircle
 10
4428.166485440477
 20
2238.986653147005
 30
0.0
 40
435.0
  0
CIRCLE
  5
25F
330
20
100
AcDbEntity
  8
_0-0_
  6
Continuous
 62
     7
100
AcDbCircle
 10
4428.166485440477
 20
2238.986653147005
 30
0.0
 40
300.0
  0
LINE
  5
260
330
20
100
AcDbEntity
  8
_0-0_
  6
Continuous
 62
     7
100
AcDbLine
 10
5775.046288549485
 20
173.4404976794721
 30
0.0
 11
156.6822332499458
 21
173.4404976794721
 31
0.0
  0
LINE
  5
261
330
20
100
AcDbEntity
  8
_0-0_
  6
Continuous
 62
     7
100
AcDbLine
 10
156.6822332499458
 20
4067.149095543319
 30
0.0
 11
156.6822332499458
 21
173.4404976794721
 31
0.0
  0
LINE
  5
262
330
20
100
AcDbEntity
  8
_0-0_
  6
Continuous
 62
     7
100
AcDbLine
 10
5775.046288549485
 20
4067.149095543319
 30
0.0
 11
5775.046288549485
 21
173.4404976794721
 31
0.0
  0
LINE
  5
263
330
20
100
AcDbEntity
  8
_0-0_
  6
Continuous
 62
     7
100
AcDbLine
 10
5775.046288549485
 20
4067.149095543319
 30
0.0
 11
156.6822332499458
 21
4067.149095543319
 31
0.0
  0
LINE
  5
264
330
20
100
AcDbEntity
  8
_0-0_
  6
Continuous
 62
     7
100
AcDbLine
 10
756.6822332499456
 20
3947.149095543319
 30
0.0
 11
156.6822332499453
 21
3947.149095543319
 31
0.0
  0
LINE
  5
265
330
20
100
AcDbEntity
  8
_0-0_
  6
Continuous
 62
     7
100
AcDbLine
 10
756.6822332499456
 20
4067.149095543319
 30
0.0
 11
756.6822332499456
 21
3947.149095543319
 31
0.0
  0
TEXT
  5
266
330
20
100
AcDbEntity
  8
_0-0_
 62
     3
100
AcDbText
 10
171.4640061459664
 20
3956.837045132325
 30
0.0
 40
100.0
  1
組立構造図
100
AcDbText
  0
LINE
  5
267
330
20
100
AcDbEntity
  8
_0-0_
  6
DASHED1
 62
   136
100
AcDbLine
 10
1838.168408365153
 20
1421.227436557144
 30
0.0
 11
1840.668408365153
 21
1412.227436557144
 31
0.0
  0
LINE
  5
268
330
20
100
AcDbEntity
  8
_0-0_
  6
DASHED1
 62
   136
100
AcDbLine
 10
1840.668408365153
 20
1412.227436557144
 30
0.0
 11
1880.668408365153
 21
1412.227436557144
 31
0.0
  0
LINE
  5
269
330
20
100
AcDbEntity
  8
_0-0_
  6
DASHED1
 62
   136
100
AcDbLine
 10
1883.168408365153
 20
1421.227436557144
 30
0.0
 11
1880.668408365153
 21
1412.227436557144
 31
0.0
  0
LINE
  5
26A
330
20
100
AcDbEntity
  8
_0-0_
  6
DASHED1
 62
   136
100
AcDbLine
 10
1850.21007503182
 20
1351.227436557144
 30
0.0
 11
1847.668408365153
 21
1412.227436557144
 31
0.0
  0
LINE
  5
26B
330
20
100
AcDbEntity
  8
_0-0_
  6
DASHED1
 62
   136
100
AcDbLine
 10
1871.126741698487
 20
1351.227436557144
 30
0.0
 11
1873.668408365153
 21
1412.227436557144
 31
0.0
  0
LINE
  5
26C
330
20
100
AcDbEntity
  8
_0-0_
  6
Continuous
 62
   136
100
AcDbLine
 10
4580.666485440477
 20
2261.486653147005
 30
0.0
 11
4535.666485440477
 21
2261.486653147005
 31
0.0
  0
LINE
  5
26D
330
20
100
AcDbEntity
  8
_0-0_
  6
Continuous
 62
   136
100
AcDbLine
 10
4580.666485440477
 20
2261.486653147005
 30
0.0
 11
4580.666485440477
 21
2216.486653147005
 31
0.0
  0
LINE
  5
26E
330
20
100
AcDbEntity
  8
_0-0_
  6
Continuous
 62
   136
100
AcDbLine
 10
4580.666485440477
 20
2216.486653147005
 30
0.0
 11
4535.666485440477
 21
2216.486653147005
 31
0.0
  0
LINE
  5
26F
330
20
100
AcDbEntity
  8
_0-0_
  6
Continuous
 62
   136
100
AcDbLine
 10
4535.666485440477
 20
2261.486653147005
 30
0.0
 11
4535.666485440477
 21
2216.486653147005
 31
0.0
  0
LINE
  5
270
330
20
100
AcDbEntity
  8
_0-0_
  6
Continuous
 62
   136
100
AcDbLine
 10
4578.166485440477
 20
2258.986653147005
 30
0.0
 11
4538.166485440477
 21
2258.986653147005
 31
0.0
  0
LINE
  5
271
330
20
100
AcDbEntity
  8
_0-0_
  6
Continuous
 62
   136
100
AcDbLine
 10
4578.166485440477
 20
2258.986653147005
 30
0.0
 11
4578.166485440477
 21
2218.986653147005
 31
0.0
  0
LINE
  5
272
330
20
100
AcDbEntity
  8
_0-0_
  6
Continuous
 62
   136
100
AcDbLine
 10
4578.166485440477
 20
2218.986653147005
 30
0.0
 11
4538.166485440477
 21
2218.986653147005
 31
0.0
  0
LINE
  5
273
330
20
100
AcDbEntity
  8
_0-0_
  6
Continuous
 62
   136
100
AcDbLine
 10
4538.166485440477
 20
2258.986653147005
 30
0.0
 11
4538.166485440477
 21
2218.986653147005
 31
0.0
  0
LINE
  5
274
330
20
100
AcDbEntity
  8
_0-0_
  6
Continuous
 62
   136
100
AcDbLine
 10
4538.166485440477
 20
2218.986653147005
 30
0.0
 11
4535.666485440477
 21
2216.486653147005
 31
0.0
  0
LINE
  5
275
330
20
100
AcDbEntity
  8
_0-0_
  6
Continuous
 62
   136
100
AcDbLine
 10
4535.666485440477
 20
2261.486653147005
 30
0.0
 11
4538.166485440477
 21
2258.986653147005
 31
0.0
  0
LINE
  5
276
330
20
100
AcDbEntity
  8
_0-0_
  6
Continuous
 62
   136
100
AcDbLine
 10
4580.666485440477
 20
2261.486653147005
 30
0.0
 11
4578.166485440477
 21
2258.986653147005
 31
0.0
  0
LINE
  5
277
330
20
100
AcDbEntity
  8
_0-0_
  6
Continuous
 62
   136
100
AcDbLine
 10
4578.166485440477
 20
2218.986653147005
 30
0.0
 11
4580.666485440477
 21
2216.486653147005
 31
0.0
  0
CIRCLE
  5
278
330
20
100
AcDbEntity
  8
_0-0_
  6
Continuous
 62
   136
100
AcDbCircle
 10
4558.166485440477
 20
2238.986653147005
 30
0.0
 40
13.0
  0
CIRCLE
  5
279
330
20
100
AcDbEntity
  8
_0-0_
  6
Continuous
 62
   136
100
AcDbCircle
 10
4558.166485440477
 20
2238.986653147005
 30
0.0
 40
9.0
  0
LINE
  5
27A
330
20
100
AcDbEntity
  8
_0-0_
  6
Continuous
 62
     4
100
AcDbLine
 10
1280.668408365153
 20
3356.227436557145
 30
0.0
 11
2440.668408365153
 21
3356.227436557145
 31
0.0
  0
TEXT
  5
27B
330
20
100
AcDbEntity
  8
_0-0_
 62
     7
100
AcDbText
 10
1800.668408365153
 20
3374.227436557145
 30
0.0
 40
60.0
  1
1160
100
AcDbText
  0
LINE
  5
27C
330
20
100
AcDbEntity
  8
_0-0_
  6
Continuous
 62
     4
100
AcDbLine
 10
1295.668408365153
 20
3086.227436557145
 30
0.0
 11
1430.668408365153
 21
3086.227436557145
 31
0.0
  0
TEXT
  5
27D
330
20
100
AcDbEntity
  8
_0-0_
 62
     7
100
AcDbText
 10
1318.168408365153
 20
3104.227436557144
 30
0.0
 40
60.0
  1
135
100
AcDbText
  0
LINE
  5
27E
330
20
100
AcDbEntity
  8
_0-0_
  6
Continuous
 62
     4
100
AcDbLine
 10
2030.668408365153
 20
3086.227436557145
 30
0.0
 11
2165.668408365153
 21
3086.227436557145
 31
0.0
  0
TEXT
  5
27F
330
20
100
AcDbEntity
  8
_0-0_
 62
     7
100
AcDbText
 10
2003.123513540801
 20
3104.227436557144
 30
0.0
 40
60.0
  1
135
100
AcDbText
  0
TEXT
  5
280
330
20
100
AcDbEntity
  8
_0-0_
 62
     7
100
AcDbText
 10
1655.353101180885
 20
3236.220269278162
 30
0.0
 40
60.0
  1
φ870
100
AcDbText
  0
TEXT
  5
281
330
20
100
AcDbEntity
  8
_0-0_
 62
     7
100
AcDbText
 10
1640.642465297783
 20
3104.163154028316
 30
0.0
 40
60.0
  1
φ600
100
AcDbText
  0
LINE
  5
282
330
20
100
AcDbEntity
  8
_0-0_
  6
Continuous
 62
     4
100
AcDbLine
 10
605.6684083651532
 20
1351.227436557144
 30
0.0
 11
605.6684083651532
 21
2951.227436557145
 31
0.0
  0
TEXT
  5
283
330
20
100
AcDbEntity
  8
_0-0_
 62
     7
100
AcDbText
 10
587.6684083651534
 20
2091.227436557144
 30
0.0
 40
60.0
  1
1600
 50
90.0
100
AcDbText
  0
LINE
  5
284
330
20
100
AcDbEntity
  8
_0-0_
  6
Continuous
 62
     4
100
AcDbLine
 10
740.6684083651533
 20
1351.227436557144
 30
0.0
 11
740.6684083651533
 21
2851.227436557145
 31
0.0
  0
TEXT
  5
285
330
20
100
AcDbEntity
  8
_0-0_
 62
     7
100
AcDbText
 10
722.6684083651536
 20
2041.227436557144
 30
0.0
 40
60.0
  1
1500
 50
90.0
100
AcDbText
  0
LINE
  5
286
330
20
100
AcDbEntity
  8
_0-0_
  6
Continuous
 62
     4
100
AcDbLine
 10
740.6684083651533
 20
2851.227436557145
 30
0.0
 11
740.6684083651533
 21
2951.227436557145
 31
0.0
  0
TEXT
  5
287
330
20
100
AcDbEntity
  8
_0-0_
 62
     7
100
AcDbText
 10
722.6684083651532
 20
2810.14760891792
 30
0.0
 40
60.0
  1
100
 50
90.0
100
AcDbText
  0
LINE
  5
288
330
20
100
AcDbEntity
  8
_0-0_
  6
Continuous
 62
     4
100
AcDbLine
 10
875.6684083651533
 20
1351.227436557144
 30
0.0
 11
875.6684083651533
 21
1451.227436557144
 31
0.0
  0
TEXT
  5
289
330
20
100
AcDbEntity
  8
_0-0_
 62
     7
100
AcDbText
 10
857.6684083651532
 20
1381.782395929319
 30
0.0
 40
60.0
  1
100
 50
90.0
100
AcDbText
  0
LINE
  5
28A
330
20
100
AcDbEntity
  8
_0-0_
  6
Continuous
 62
     4
100
AcDbLine
 10
875.6684083651533
 20
1451.227436557144
 30
0.0
 11
875.6684083651533
 21
2751.227436557145
 31
0.0
  0
TEXT
  5
28B
330
20
100
AcDbEntity
  8
_0-0_
 62
     7
100
AcDbText
 10
857.6684083651537
 20
2041.227436557144
 30
0.0
 40
60.0
  1
1300
 50
90.0
100
AcDbText
  0
LINE
  5
28C
330
20
100
AcDbEntity
  8
_0-0_
  6
Continuous
 62
     4
100
AcDbLine
 10
875.6684083651533
 20
2751.227436557145
 30
0.0
 11
875.6684083651533
 21
2851.227436557145
 31
0.0
  0
TEXT
  5
28D
330
20
100
AcDbEntity
  8
_0-0_
 62
     7
100
AcDbText
 10
857.6684083651532
 20
2710.14760891792
 30
0.0
 40
60.0
  1
100
 50
90.0
100
AcDbText
  0
LINE
  5
28E
330
20
100
AcDbEntity
  8
_0-0_
  6
Continuous
 62
     4
100
AcDbLine
 10
1010.668408365153
 20
1451.227436557144
 30
0.0
 11
1010.668408365153
 21
1951.227436557144
 31
0.0
  0
TEXT
  5
28F
330
20
100
AcDbEntity
  8
_0-0_
 62
     7
100
AcDbText
 10
992.6684083651533
 20
1630.43945860637
 30
0.0
 40
60.0
  1
500
 50
90.0
100
AcDbText
  0
LINE
  5
290
330
20
100
AcDbEntity
  8
_0-0_
  6
Continuous
 62
     4
100
AcDbLine
 10
1010.668408365153
 20
1951.227436557144
 30
0.0
 11
1010.668408365153
 21
2451.227436557144
 31
0.0
  0
TEXT
  5
291
330
20
100
AcDbEntity
  8
_0-0_
 62
     7
100
AcDbText
 10
992.6684083651533
 20
2131.934977331069
 30
0.0
 40
60.0
  1
500
 50
90.0
100
AcDbText
  0
LINE
  5
292
330
20
100
AcDbEntity
  8
_0-0_
  6
Continuous
 62
     4
100
AcDbLine
 10
1010.668408365153
 20
2451.227436557144
 30
0.0
 11
1010.668408365153
 21
2751.227436557145
 31
0.0
  0
TEXT
  5
293
330
20
100
AcDbEntity
  8
_0-0_
 62
     7
100
AcDbText
 10
992.6684083651533
 20
2531.934977331069
 30
0.0
 40
60.0
  1
300
 50
90.0
100
AcDbText
  0
LINE
  5
294
330
20
100
AcDbEntity
  8
_0-0_
  6
Continuous
 62
     4
100
AcDbLine
 10
1145.668408365153
 20
1511.227436557144
 30
0.0
 11
1145.668408365153
 21
1811.227436557144
 31
0.0
  0
TEXT
  5
295
330
20
100
AcDbEntity
  8
_0-0_
 62
     7
100
AcDbText
 10
1127.668408365153
 20
1597.454172203124
 30
0.0
 40
60.0
  1
300
 50
90.0
100
AcDbText
  0
LINE
  5
296
330
20
100
AcDbEntity
  8
_0-0_
  6
Continuous
 62
     4
100
AcDbLine
 10
1145.668408365153
 20
1811.227436557144
 30
0.0
 11
1145.668408365153
 21
1951.227436557144
 31
0.0
  0
TEXT
  5
297
330
20
100
AcDbEntity
  8
_0-0_
 62
     7
100
AcDbText
 10
1127.668408365153
 20
1803.800884972679
 30
0.0
 40
60.0
  1
140
 50
90.0
100
AcDbText
  0
LINE
  5
298
330
20
100
AcDbEntity
  8
_0-0_
  6
Continuous
 62
     4
100
AcDbLine
 10
1145.668408365153
 20
1951.227436557144
 30
0.0
 11
1145.668408365153
 21
2101.227436557144
 31
0.0
  0
TEXT
  5
299
330
20
100
AcDbEntity
  8
_0-0_
 62
     7
100
AcDbText
 10
1127.668408365153
 20
1965.867494010735
 30
0.0
 40
60.0
  1
150
 50
90.0
100
AcDbText
  0
LINE
  5
29A
330
20
100
AcDbEntity
  8
_0-0_
  6
Continuous
 62
     4
100
AcDbLine
 10
1145.668408365153
 20
2101.227436557144
 30
0.0
 11
1145.668408365153
 21
2301.227436557144
 31
0.0
  0
TEXT
  5
29B
330
20
100
AcDbEntity
  8
_0-0_
 62
     7
100
AcDbText
 10
1127.668408365153
 20
2134.040850395514
 30
0.0
 40
60.0
  1
200
 50
90.0
100
AcDbText
  0
LINE
  5
29C
330
20
100
AcDbEntity
  8
_0-0_
  6
Continuous
 62
     4
100
AcDbLine
 10
1145.668408365153
 20
2301.227436557144
 30
0.0
 11
1145.668408365153
 21
2451.227436557144
 31
0.0
  0
TEXT
  5
29D
330
20
100
AcDbEntity
  8
_0-0_
 62
     7
100
AcDbText
 10
1127.668408365153
 20
2309.040850395513
 30
0.0
 40
60.0
  1
150
 50
90.0
100
AcDbText
  0
TEXT
  5
29E
330
20
100
AcDbEntity
  8
_0-0_
 62
     7
100
AcDbText
 10
1767.735214915613
 20
1235.314511033136
 30
0.0
 40
60.0
  1
φ200
 41
0.8199999999999999
100
AcDbText
  0
TEXT
  5
29F
330
20
100
AcDbEntity
  8
_0-0_
 62
     7
100
AcDbText
 10
1675.226619510096
 20
1231.46427431657
 30
0.0
 40
60.0
  1
10
100
AcDbText
  0
TEXT
  5
2A0
330
20
100
AcDbEntity
  8
_0-0_
 62
     7
100
AcDbText
 10
1975.6882095061
 20
1231.766707936872
 30
0.0
 40
60.0
  1
10
100
AcDbText
  0
LINE
  5
2A1
330
20
100
AcDbEntity
  8
_0-0_
  6
Continuous
 62
     4
100
AcDbLine
 10
1560.668408365153
 20
1081.227436557144
 30
0.0
 11
2160.668408365153
 21
1081.227436557144
 31
0.0
  0
TEXT
  5
2A2
330
20
100
AcDbEntity
  8
_0-0_
 62
     7
100
AcDbText
 10
1815.668408365153
 20
1099.227436557144
 30
0.0
 40
60.0
  1
600
100
AcDbText
  0
LINE
  5
2A3
330
20
100
AcDbEntity
  8
_0-0_
  6
Continuous
 62
     4
100
AcDbLine
 10
1280.668408365153
 20
946.227436557144
 30
0.0
 11
1360.668408365153
 21
946.227436557144
 31
0.0
  0
TEXT
  5
2A4
330
20
100
AcDbEntity
  8
_0-0_
 62
     7
100
AcDbText
 10
1290.668408365153
 20
964.227436557144
 30
0.0
 40
60.0
  1
80
100
AcDbText
  0
LINE
  5
2A5
330
20
100
AcDbEntity
  8
_0-0_
  6
Continuous
 62
     4
100
AcDbLine
 10
1360.668408365153
 20
946.227436557144
 30
0.0
 11
2360.668408365153
 21
946.227436557144
 31
0.0
  0
TEXT
  5
2A6
330
20
100
AcDbEntity
  8
_0-0_
 62
     7
100
AcDbText
 10
1800.668408365153
 20
964.227436557144
 30
0.0
 40
60.0
  1
1000
100
AcDbText
  0
LINE
  5
2A7
330
20
100
AcDbEntity
  8
_0-0_
  6
Continuous
 62
     4
100
AcDbLine
 10
2360.668408365153
 20
946.227436557144
 30
0.0
 11
2440.668408365153
 21
946.227436557144
 31
0.0
  0
TEXT
  5
2A8
330
20
100
AcDbEntity
  8
_0-0_
 62
     7
100
AcDbText
 10
2370.668408365153
 20
964.227436557144
 30
0.0
 40
60.0
  1
80
100
AcDbText
  0
LINE
  5
2A9
330
20
100
AcDbEntity
  8
_0-0_
  6
Continuous
 62
     4
100
AcDbLine
 10
1280.668408365153
 20
811.2274365571439
 30
0.0
 11
2440.668408365153
 21
811.2274365571439
 31
0.0
  0
TEXT
  5
2AA
330
20
100
AcDbEntity
  8
_0-0_
 62
     7
100
AcDbText
 10
1800.668408365153
 20
829.2274365571438
 30
0.0
 40
60.0
  1
1160
100
AcDbText
  0
LINE
  5
2AB
330
20
100
AcDbEntity
  8
_0-0_
  6
Continuous
 62
     4
100
AcDbLine
 10
2575.668408365153
 20
1861.227436557143
 30
0.0
 11
2575.668408365153
 21
1951.227436557144
 31
0.0
  0
TEXT
  5
2AC
330
20
100
AcDbEntity
  8
_0-0_
 62
     7
100
AcDbText
 10
2557.668408365153
 20
1876.227436557144
 30
0.0
 40
60.0
  1
90
 50
90.0
100
AcDbText
  0
LINE
  5
2AD
330
20
100
AcDbEntity
  8
_0-0_
  6
Continuous
 62
     4
100
AcDbLine
 10
2575.668408365153
 20
1951.227436557144
 30
0.0
 11
2575.668408365153
 21
2381.227436557144
 31
0.0
  0
TEXT
  5
2AE
330
20
100
AcDbEntity
  8
_0-0_
 62
     7
100
AcDbText
 10
2557.668408365153
 20
2121.227436557144
 30
0.0
 40
60.0
  1
430
 50
90.0
100
AcDbText
  0
LINE
  5
2AF
330
20
100
AcDbEntity
  8
_0-0_
  6
Continuous
 62
     4
100
AcDbLine
 10
2575.668408365153
 20
2381.227436557144
 30
0.0
 11
2575.668408365153
 21
2451.227436557144
 31
0.0
  0
TEXT
  5
2B0
330
20
100
AcDbEntity
  8
_0-0_
 62
     7
100
AcDbText
 10
2564.553563036068
 20
2351.543404403598
 30
0.0
 40
60.0
  1
70
 50
90.0
100
AcDbText
  0
LINE
  5
2B1
330
20
100
AcDbEntity
  8
_0-0_
  6
Continuous
 62
     4
100
AcDbLine
 10
2575.668408365153
 20
2451.227436557144
 30
0.0
 11
2575.668408365153
 21
2581.227436557144
 31
0.0
  0
TEXT
  5
2B2
330
20
100
AcDbEntity
  8
_0-0_
 62
     7
100
AcDbText
 10
2557.668408365153
 20
2471.227436557144
 30
0.0
 40
60.0
  1
130
 50
90.0
100
AcDbText
  0
TEXT
  5
2B3
330
20
100
AcDbEntity
  8
_0-0_
 62
     7
100
AcDbText
 10
2762.60981034145
 20
2619.653650253425
 30
0.0
 40
60.0
  1
B2-300
 41
0.6200000000000001
100
AcDbText
  0
TEXT
  5
2B4
330
20
100
AcDbEntity
  8
_0-0_
 62
     7
100
AcDbText
 10
2762.60981034145
 20
2172.079435271108
 30
0.0
 40
60.0
  1
BH-500
 41
0.6200000000000001
100
AcDbText
  0
TEXT
  5
2B5
330
20
100
AcDbEntity
  8
_0-0_
 62
     7
100
AcDbText
 10
2538.208243728565
 20
3101.889989957467
 30
0.0
 40
60.0
  1
インサート　M12
100
AcDbText
  0
TEXT
  5
2B6
330
20
100
AcDbEntity
  8
_0-0_
 62
     7
100
AcDbText
 10
2756.242140184708
 20
2871.509053473002
 30
0.0
 40
60.0
  1
CR-600
 41
0.6200000000000001
100
AcDbText
  0
TEXT
  5
2B7
330
20
100
AcDbEntity
  8
_0-0_
 62
     7
100
AcDbText
 10
2773.482147514226
 20
1621.218862985179
 30
0.0
 40
60.0
  1
B1-500
 41
0.6200000000000001
100
AcDbText
  0
TEXT
  5
2B8
330
20
100
AcDbEntity
  8
_0-0_
 62
     7
100
AcDbText
 10
3470.242399913699
 20
1439.376261123391
 30
0.0
 40
60.0
  1
インサート　M12
100
AcDbText
  0
LINE
  5
2B9
330
20
100
AcDbEntity
  8
_0-0_
  6
Continuous
 62
     4
100
AcDbLine
 10
3978.166485440477
 20
3223.986653147005
 30
0.0
 11
5138.166485440478
 21
3223.986653147005
 31
0.0
  0
TEXT
  5
2BA
330
20
100
AcDbEntity
  8
_0-0_
 62
     7
100
AcDbText
 10
4498.166485440477
 20
3241.986653147005
 30
0.0
 40
60.0
  1
1160
100
AcDbText
  0
LINE
  5
2BB
330
20
100
AcDbEntity
  8
_0-0_
  6
Continuous
 62
     4
100
AcDbLine
 10
3978.166485440477
 20
3088.986653147005
 30
0.0
 11
4058.166485440477
 21
3088.986653147005
 31
0.0
  0
TEXT
  5
2BC
330
20
100
AcDbEntity
  8
_0-0_
 62
     7
100
AcDbText
 10
4006.524407211784
 20
3106.986653147005
 30
0.0
 40
60.0
  1
80
100
AcDbText
  0
LINE
  5
2BD
330
20
100
AcDbEntity
  8
_0-0_
  6
Continuous
 62
     4
100
AcDbLine
 10
4058.166485440477
 20
3088.986653147005
 30
0.0
 11
5058.166485440477
 21
3088.986653147005
 31
0.0
  0
TEXT
  5
2BE
330
20
100
AcDbEntity
  8
_0-0_
 62
     7
100
AcDbText
 10
4498.166485440477
 20
3106.986653147005
 30
0.0
 40
60.0
  1
1000
100
AcDbText
  0
LINE
  5
2BF
330
20
100
AcDbEntity
  8
_0-0_
  6
Continuous
 62
     4
100
AcDbLine
 10
5058.166485440477
 20
3088.986653147005
 30
0.0
 11
5138.166485440478
 21
3088.986653147005
 31
0.0
  0
TEXT
  5
2C0
330
20
100
AcDbEntity
  8
_0-0_
 62
     7
100
AcDbText
 10
5027.371121711856
 20
3106.986653147005
 30
0.0
 40
60.0
  1
80
100
AcDbText
  0
LINE
  5
2C1
330
20
100
AcDbEntity
  8
_0-0_
  6
Continuous
 62
     4
100
AcDbLine
 10
4058.166485440477
 20
2953.986653147005
 30
0.0
 11
4108.166485440476
 21
2953.986653147005
 31
0.0
  0
TEXT
  5
2C2
330
20
100
AcDbEntity
  8
_0-0_
 62
     7
100
AcDbText
 10
4071.524407211784
 20
2971.986653147006
 30
0.0
 40
60.0
  1
50
100
AcDbText
  0
LINE
  5
2C3
330
20
100
AcDbEntity
  8
_0-0_
  6
Continuous
 62
     4
100
AcDbLine
 10
4358.166485440476
 20
2953.986653147005
 30
0.0
 11
4558.166485440477
 21
2953.986653147005
 31
0.0
  0
TEXT
  5
2C4
330
20
100
AcDbEntity
  8
_0-0_
 62
     7
100
AcDbText
 10
4390.277564999983
 20
2971.986653147006
 30
0.0
 40
60.0
  1
200
100
AcDbText
  0
LINE
  5
2C5
330
20
100
AcDbEntity
  8
_0-0_
  6
Continuous
 62
     4
100
AcDbLine
 10
4558.166485440477
 20
2953.986653147005
 30
0.0
 11
4758.166485440477
 21
2953.986653147005
 31
0.0
  0
TEXT
  5
2C6
330
20
100
AcDbEntity
  8
_0-0_
 62
     7
100
AcDbText
 10
4590.277564999982
 20
2971.986653147006
 30
0.0
 40
60.0
  1
200
100
AcDbText
  0
LINE
  5
2C7
330
20
100
AcDbEntity
  8
_0-0_
  6
Continuous
 62
     4
100
AcDbLine
 10
5008.166485440477
 20
2953.986653147005
 30
0.0
 11
5058.166485440477
 21
2953.986653147005
 31
0.0
  0
TEXT
  5
2C8
330
20
100
AcDbEntity
  8
_0-0_
 62
     7
100
AcDbText
 10
4948.092747104647
 20
2971.986653147006
 30
0.0
 40
60.0
  1
50
100
AcDbText
  0
LINE
  5
2C9
330
20
100
AcDbEntity
  8
_0-0_
  6
Continuous
 62
     4
100
AcDbLine
 10
3573.166485440477
 20
1658.986653147005
 30
0.0
 11
3573.166485440477
 21
2818.986653147005
 31
0.0
  0
TEXT
  5
2CA
330
20
100
AcDbEntity
  8
_0-0_
 62
     7
100
AcDbText
 10
3555.166485440477
 20
2178.986653147005
 30
0.0
 40
60.0
  1
1160
 50
90.0
100
AcDbText
  0
LINE
  5
2CB
330
20
100
AcDbEntity
  8
_0-0_
  6
Continuous
 62
     4
100
AcDbLine
 10
3708.166485440477
 20
1658.986653147005
 30
0.0
 11
3708.166485440477
 21
1738.986653147005
 31
0.0
  0
TEXT
  5
2CC
330
20
100
AcDbEntity
  8
_0-0_
 62
     7
100
AcDbText
 10
3690.166485440477
 20
1686.586761352745
 30
0.0
 40
60.0
  1
80
 50
90.0
100
AcDbText
  0
LINE
  5
2CD
330
20
100
AcDbEntity
  8
_0-0_
  6
Continuous
 62
     4
100
AcDbLine
 10
3708.166485440477
 20
1738.986653147005
 30
0.0
 11
3708.166485440477
 21
2738.986653147005
 31
0.0
  0
TEXT
  5
2CE
330
20
100
AcDbEntity
  8
_0-0_
 62
     7
100
AcDbText
 10
3690.166485440477
 20
2178.986653147005
 30
0.0
 40
60.0
  1
1000
 50
90.0
100
AcDbText
  0
LINE
  5
2CF
330
20
100
AcDbEntity
  8
_0-0_
  6
Continuous
 62
     4
100
AcDbLine
 10
3708.166485440477
 20
2738.986653147005
 30
0.0
 11
3708.166485440477
 21
2818.986653147005
 31
0.0
  0
TEXT
  5
2D0
330
20
100
AcDbEntity
  8
_0-0_
 62
     7
100
AcDbText
 10
3690.166485440477
 20
2695.556444683982
 30
0.0
 40
60.0
  1
80
 50
90.0
100
AcDbText
  0
LINE
  5
2D1
330
20
100
AcDbEntity
  8
_0-0_
  6
Continuous
 62
     4
100
AcDbLine
 10
3843.166485440477
 20
1738.986653147005
 30
0.0
 11
3843.166485440477
 21
1788.986653147005
 31
0.0
  0
TEXT
  5
2D2
330
20
100
AcDbEntity
  8
_0-0_
 62
     7
100
AcDbText
 10
3825.166485440477
 20
1751.586761352745
 30
0.0
 40
60.0
  1
50
 50
90.0
100
AcDbText
  0
LINE
  5
2D3
330
20
100
AcDbEntity
  8
_0-0_
  6
Continuous
 62
     4
100
AcDbLine
 10
3843.166485440477
 20
2038.986653147005
 30
0.0
 11
3843.166485440477
 21
2238.986653147005
 31
0.0
  0
TEXT
  5
2D4
330
20
100
AcDbEntity
  8
_0-0_
 62
     7
100
AcDbText
 10
3825.166485440477
 20
2076.176587384558
 30
0.0
 40
60.0
  1
200
 50
90.0
100
AcDbText
  0
LINE
  5
2D5
330
20
100
AcDbEntity
  8
_0-0_
  6
Continuous
 62
     4
100
AcDbLine
 10
3843.166485440477
 20
2238.986653147005
 30
0.0
 11
3843.166485440477
 21
2438.986653147005
 31
0.0
  0
TEXT
  5
2D6
330
20
100
AcDbEntity
  8
_0-0_
 62
     7
100
AcDbText
 10
3825.166485440477
 20
2276.176587384558
 30
0.0
 40
60.0
  1
200
 50
90.0
100
AcDbText
  0
LINE
  5
2D7
330
20
100
AcDbEntity
  8
_0-0_
  6
Continuous
 62
     4
100
AcDbLine
 10
3843.166485440477
 20
2688.986653147005
 30
0.0
 11
3843.166485440477
 21
2738.986653147005
 31
0.0
  0
TEXT
  5
2D8
330
20
100
AcDbEntity
  8
_0-0_
 62
     7
100
AcDbText
 10
3825.166485440477
 20
2630.556444683982
 30
0.0
 40
60.0
  1
50
 50
90.0
100
AcDbText
  0
TEXT
  5
2D9
330
20
100
AcDbEntity
  8
_0-0_
 62
     7
100
AcDbText
 10
4342.046313799621
 20
2184.06264768431
 30
0.0
 40
60.0
  1
φ600
 50
45.0
100
AcDbText
  0
LINE
  5
2DA
330
20
100
AcDbEntity
  8
_0-0_
  6
Continuous
 62
     4
100
AcDbLine
 10
4120.575035624329
 20
1931.395203330857
 30
0.0
 11
4216.034451084513
 21
2026.854618791041
 31
0.0
  0
TEXT
  5
2DB
330
20
100
AcDbEntity
  8
_0-0_
 62
     7
100
AcDbText
 10
4123.757016139669
 20
1960.033027968912
 30
0.0
 40
60.0
  1
135
 50
44.99999999999992
100
AcDbText
  0
LINE
  5
2DC
330
20
100
AcDbEntity
  8
_0-0_
  6
Continuous
 62
     4
100
AcDbLine
 10
4640.298519796442
 20
2451.118687502969
 30
0.0
 11
4735.757935256626
 21
2546.578102963153
 31
0.0
  0
TEXT
  5
2DD
330
20
100
AcDbEntity
  8
_0-0_
 62
     7
100
AcDbText
 10
4643.48050031178
 20
2479.756512141025
 30
0.0
 40
60.0
  1
135
 50
45.00000000000002
100
AcDbText
  0
LINE
  5
2DE
330
20
100
AcDbEntity
  8
_0-0_
  6
Continuous
 62
     4
100
AcDbLine
 10
4258.166485440477
 20
1523.986653147005
 30
0.0
 11
4858.166485440477
 21
1523.986653147005
 31
0.0
  0
TEXT
  5
2DF
330
20
100
AcDbEntity
  8
_0-0_
 62
     7
100
AcDbText
 10
4489.749144979064
 20
1541.986653147005
 30
0.0
 40
60.0
  1
600
100
AcDbText
  0
LINE
  5
2E0
330
20
100
AcDbEntity
  8
_0-0_
  6
Continuous
 62
     4
100
AcDbLine
 10
5273.166485440476
 20
1938.986653147004
 30
0.0
 11
5273.166485440476
 21
2538.986653147005
 31
0.0
  0
TEXT
  5
2E1
330
20
100
AcDbEntity
  8
_0-0_
 62
     7
100
AcDbText
 10
5255.166485440477
 20
2193.986653147005
 30
0.0
 40
60.0
  1
600
 50
90.0
100
AcDbText
  0
TEXT
  5
2E2
330
20
100
AcDbEntity
  8
_0-0_
 62
     7
100
AcDbText
 10
3493.353783661386
 20
691.8376020987635
 30
0.0
 40
60.0
  1
製 品 名
100
AcDbText
  0
TEXT
  5
2E3
330
20
100
AcDbEntity
  8
_0-0_
 62
     7
100
AcDbText
 10
3493.353783661386
 20
592.7119835891326
 30
0.0
 40
60.0
  1
型　　式
100
AcDbText
  0
TEXT
  5
2E4
330
20
100
AcDbEntity
  8
_0-0_
 62
     7
100
AcDbText
 10
3490.349977039881
 20
493.5863650795019
 30
0.0
 40
60.0
  1
呼 び 名
100
AcDbText
  0
TEXT
  5
2E5
330
20
100
AcDbEntity
  8
_0-0_
 62
     7
100
AcDbText
 10
3490.349977039881
 20
394.4607465698712
 30
0.0
 40
60.0
  1
寸　　法
100
AcDbText
  0
TEXT
  5
2E6
330
20
100
AcDbEntity
  8
_0-0_
 62
     7
100
AcDbText
 10
3493.353783661386
 20
292.3313214387366
 30
0.0
 40
60.0
  1
特記事項
100
AcDbText
  0
TEXT
  5
2E7
330
20
100
AcDbEntity
  8
_0-0_
 62
     7
100
AcDbText
 10
3493.353783661386
 20
190.201896307602
 30
0.0
 40
60.0
  1
検　　図
100
AcDbText
  0
TEXT
  5
2E8
330
20
100
AcDbEntity
  8
_0-0_
 62
     7
100
AcDbText
 10
4095.492773708566
 20
190.201896307602
 30
0.0
 40
60.0
  1
製　　図
100
AcDbText
  0
TEXT
  5
2E9
330
20
100
AcDbEntity
  8
_0-0_
 62
     7
100
AcDbText
 10
4476.668615419878
 20
190.201896307602
 30
0.0
 40
60.0
  1
H.O
100
AcDbText
  0
TEXT
  5
2EA
330
20
100
AcDbEntity
  8
_0-0_
 62
     7
100
AcDbText
 10
3882.043504494583
 20
394.0830928675351
 30
0.0
 40
60.0
  1
1000×1000×1300
100
AcDbText
  0
TEXT
  5
2EB
330
20
100
AcDbEntity
  8
_0-0_
 62
     7
100
AcDbText
 10
3914.821008777824
 20
492.2920048351951
 30
0.0
 40
60.0
  1
H-1013(CR-600)
100
AcDbText
  0
TEXT
  5
2EC
330
20
100
AcDbEntity
  8
_0-0_
 62
     7
100
AcDbText
 10
4136.623514653245
 20
593.6430750289741
 30
0.0
 40
60.0
  1
1000型
100
AcDbText
  0
TEXT
  5
2ED
330
20
100
AcDbEntity
  8
_0-0_
 62
     7
100
AcDbText
 10
3954.723707904323
 20
690.7740397978158
 30
0.0
 40
60.0
  1
ＦＫ式ハンドホール
100
AcDbText
  0
TEXT
  5
2EE
330
20
100
AcDbEntity
  8
_0-0_
 62
     7
100
AcDbText
 10
4702.31348271881
 20
690.5232045633233
 30
0.0
 40
60.0
  1
縮　　尺
100
AcDbText
  0
TEXT
  5
2EF
330
20
100
AcDbEntity
  8
_0-0_
 62
     7
100
AcDbText
 10
4696.305869475803
 20
588.3937794321887
 30
0.0
 40
60.0
  1
参考重量
100
AcDbText
  0
TEXT
  5
2F0
330
20
100
AcDbEntity
  8
_0-0_
 62
     7
100
AcDbText
 10
4692.431810708856
 20
193.2057029291059
 30
0.0
 40
60.0
  1
株式会社　丸治コンクリート工業所
 41
0.93
100
AcDbText
  0
TEXT
  5
2F1
330
20
100
AcDbEntity
  8
_0-0_
 62
     7
100
AcDbText
 10
5285.733285512681
 20
592.0032015978117
 30
0.0
 40
60.0
  1
1820kg
100
AcDbText
  0
TEXT
  5
2F2
330
20
100
AcDbEntity
  8
_0-0_
 62
     7
100
AcDbText
 10
5315.377151383692
 20
689.8279589721455
 30
0.0
 40
60.0
  1
1/20
100
AcDbText
  0
TEXT
  5
2F3
330
20
100
AcDbEntity
  8
_0-0_
 62
     7
100
AcDbText
 10
4697.370184183124
 20
290.2308733029451
 30
0.0
 40
60.0
  1
製 図 日
100
AcDbText
  0
TEXT
  5
2F4
330
20
100
AcDbEntity
  8
_0-0_
 62
     7
100
AcDbText
 10
4696.305869475803
 20
489.2681609225582
 30
0.0
 40
60.0
  1
図面番号
100
AcDbText
  0
TEXT
  5
2F5
330
20
100
AcDbEntity
  8
_0-0_
 62
     7
100
AcDbText
 10
4698.108263113802
 20
390.6096078750485
 30
0.0
 40
60.0
  1
製 図 日
100
AcDbText
  0
TEXT
  5
2F6
330
20
100
AcDbEntity
  8
_0-0_
 62
     7
100
AcDbText
 10
4997.276333928892
 20
492.210760278828
 30
0.0
 40
60.0
  1
FKHH-H1013-CR600
 41
0.8699999999999999
100
AcDbText
  0
TEXT
  5
2F7
330
20
100
AcDbEntity
  8
_0-0_
 62
     7
100
AcDbText
 10
4988.290025930826
 20
393.86630139414
 30
0.0
 40
60.0
  1
平成　　年　　月　　日
100
AcDbText
  0
ENDSEC
  0
SECTION
  2
OBJECTS
  0
DICTIONARY
  5
C
330
0
100
AcDbDictionary
281
     1
  3
ACAD_COLOR
350
1B
  3
ACAD_GROUP
350
D
  3
ACAD_LAYOUT
350
19
  3
ACAD_MATERIAL
350
1A
  3
ACAD_MLINESTYLE
350
16
  3
ACAD_PLOTSETTINGS
350
18
  3
ACAD_PLOTSTYLENAME
350
E
  3
ACDBHEADERROUNDTRIPXREC
350
2FF
  3
AcDbVariableDictionary
350
2FB
  0
DICTIONARY
  5
1B
102
{ACAD_REACTORS
330
C
102
}
330
C
100
AcDbDictionary
281
     1
  0
DICTIONARY
  5
D
102
{ACAD_REACTORS
330
C
102
}
330
C
100
AcDbDictionary
281
     1
  0
DICTIONARY
  5
19
102
{ACAD_REACTORS
330
C
102
}
330
C
100
AcDbDictionary
281
     1
  3
Model
350
23
  3
レイアウト1
350
1F
  0
DICTIONARY
  5
1A
102
{ACAD_REACTORS
330
C
102
}
330
C
100
AcDbDictionary
281
     1
  0
DICTIONARY
  5
16
102
{ACAD_REACTORS
330
C
102
}
330
C
100
AcDbDictionary
281
     1
  3
Standard
350
17
  0
DICTIONARY
  5
18
102
{ACAD_REACTORS
330
C
102
}
330
C
100
AcDbDictionary
281
     1
  0
ACDBDICTIONARYWDFLT
  5
E
102
{ACAD_REACTORS
330
C
102
}
330
C
100
AcDbDictionary
281
     1
  3
Normal
350
F
100
AcDbDictionaryWithDefault
340
F
  0
DICTIONARY
  5
2FF
102
{ACAD_REACTORS
330
C
102
}
330
C
100
AcDbDictionary
281
     1
  3
COLORDICT
350
301
  3
MATERIALDICT
350
300
  0
DICTIONARY
  5
2FB
102
{ACAD_REACTORS
330
C
102
}
330
C
100
AcDbDictionary
281
     1
  3
DIMASSOC
350
2FC
  3
PROJECTNAME
350
2FD
  0
LAYOUT
  5
23
102
{ACAD_XDICTIONARY
360
304
102
}
102
{ACAD_REACTORS
330
19
102
}
330
19
100
AcDbPlotSettings
  1

  2
RICOH imagio MP C3300 RPCS
  4

  6

 40
0.0
 41
0.0
 42
0.0
 43
0.0
 44
0.0
 45
0.0
 46
0.0
 47
0.0
 48
0.0
 49
0.0
140
0.0
141
0.0
142
1.0
143
1.0
 70
  1712
 72
     0
 73
     0
 74
     0
  7

 75
     0
147
1.0
148
0.0
149
0.0
100
AcDbLayout
  1
Model
 70
     1
 71
     0
 10
0.0
 20
0.0
 11
12.0
 21
9.0
 12
0.0
 22
0.0
 32
0.0
 14
0.0
 24
0.0
 34
0.0
 15
0.0
 25
0.0
 35
0.0
146
0.0
 13
0.0
 23
0.0
 33
0.0
 16
1.0
 26
0.0
 36
0.0
 17
0.0
 27
1.0
 37
0.0
 76
     0
330
20
  0
LAYOUT
  5
1F
102
{ACAD_XDICTIONARY
360
302
102
}
102
{ACAD_REACTORS
330
19
102
}
330
19
100
AcDbPlotSettings
  1

  2
RICOH imagio MP C3300 RPCS
  4

  6

 40
0.0
 41
0.0
 42
0.0
 43
0.0
 44
0.0
 45
0.0
 46
0.0
 47
0.0
 48
0.0
 49
0.0
140
0.0
141
0.0
142
1.0
143
1.0
 70
   688
 72
     0
 73
     0
 74
     5
  7

 75
    16
147
1.0
148
0.0
149
0.0
100
AcDbLayout
  1
レイアウト1
 70
     1
 71
     1
 10
0.0
 20
0.0
 11
12.0
 21
9.0
 12
0.0
 22
0.0
 32
0.0
 14
1.000000000000000E+20
 24
1.000000000000000E+20
 34
1.000000000000000E+20
 15
-1.000000000000000E+20
 25
-1.000000000000000E+20
 35
-1.000000000000000E+20
146
0.0
 13
0.0
 23
0.0
 33
0.0
 16
1.0
 26
0.0
 36
0.0
 17
0.0
 27
1.0
 37
0.0
 76
     0
330
1C
  0
MLINESTYLE
  5
17
102
{ACAD_REACTORS
330
16
102
}
330
16
100
AcDbMlineStyle
  2
STANDARD
 70
     0
  3

 62
   256
 51
90.0
 52
90.0
 71
     2
 49
0.5
 62
   256
  6
BYLAYER
 49
-0.5
 62
   256
  6
BYLAYER
  0
ACDBPLACEHOLDER
  5
F
102
{ACAD_REACTORS
330
E
102
}
330
E
  0
XRECORD
  5
301
102
{ACAD_REACTORS
330
2FF
102
}
330
2FF
100
AcDbXrecord
280
     1
340
1B
  0
XRECORD
  5
300
102
{ACAD_REACTORS
330
2FF
102
}
330
2FF
100
AcDbXrecord
280
     1
340
1A
  0
DICTIONARYVAR
  5
2FC
102
{ACAD_REACTORS
330
2FB
102
}
330
2FB
100
DictionaryVariables
280
     0
  1
1
  0
DICTIONARYVAR
  5
2FD
102
{ACAD_REACTORS
330
2FB
102
}
330
2FB
100
DictionaryVariables
280
     0
  1

  0
DICTIONARY
  5
304
330
23
100
AcDbDictionary
280
     1
281
     1
  3
ACAD_XREC_ROUNDTRIP
360
305
  0
DICTIONARY
  5
302
330
1F
100
AcDbDictionary
280
     1
281
     1
  3
ACAD_XREC_ROUNDTRIP
360
303
  0
XRECORD
  5
305
102
{ACAD_REACTORS
330
304
102
}
330
304
100
AcDbXrecord
280
     1
102
SHADEPLOT
 70
     0
102
SHADEPLOTRESLEVEL
 70
     2
102
SHADEPLOTCUSTOMDPI
 70
   300
  0
XRECORD
  5
303
102
{ACAD_REACTORS
330
302
102
}
330
302
100
AcDbXrecord
280
     1
102
SHADEPLOT
 70
     0
102
SHADEPLOTRESLEVEL
 70
     2
102
SHADEPLOTCUSTOMDPI
 70
   300
  0
ENDSEC
  0
EOF
