  0
SECTION
  2
HEADER
  9
$ACADVER
  1
AC1015
  9
$ACADMAINTVER
 70
    20
  9
$DWGCODEPAGE
  3
ANSI_932
  9
$INSBASE
 10
0.0
 20
0.0
 30
0.0
  9
$EXTMIN
 10
211.9098041158977
 20
242.1203713888772
 30
-0.0015258207003583
  9
$EXTMAX
 10
6539.822163883326
 20
4006.265268342411
 30
0.0000000349246037
  9
$LIMMIN
 10
0.0
 20
0.0
  9
$LIMMAX
 10
5940.0
 20
4200.0
  9
$ORTHOMODE
 70
     1
  9
$REGENMODE
 70
     1
  9
$FILLMODE
 70
     1
  9
$QTEXTMODE
 70
     0
  9
$MIRRTEXT
 70
     0
  9
$LTSCALE
 40
20.0
  9
$ATTMODE
 70
     1
  9
$TEXTSIZE
 40
0.2
  9
$TRACEWID
 40
0.05
  9
$TEXTSTYLE
  7
STANDARD
  9
$CLAYER
  8
0
  9
$CELTYPE
  6
CONTINUOUS
  9
$CECOLOR
 62
   256
  9
$CELTSCALE
 40
1.0
  9
$DISPSILH
 70
     0
  9
$DIMSCALE
 40
1.0
  9
$DIMASZ
 40
0.18
  9
$DIMEXO
 40
0.0625
  9
$DIMDLI
 40
0.38
  9
$DIMRND
 40
0.0
  9
$DIMDLE
 40
0.0
  9
$DIMEXE
 40
0.18
  9
$DIMTP
 40
0.0
  9
$DIMTM
 40
0.0
  9
$DIMTXT
 40
0.18
  9
$DIMCEN
 40
0.09
  9
$DIMTSZ
 40
0.0
  9
$DIMTOL
 70
     0
  9
$DIMLIM
 70
     0
  9
$DIMTIH
 70
     1
  9
$DIMTOH
 70
     1
  9
$DIMSE1
 70
     0
  9
$DIMSE2
 70
     0
  9
$DIMTAD
 70
     0
  9
$DIMZIN
 70
     0
  9
$DIMBLK
  1

  9
$DIMASO
 70
     1
  9
$DIMSHO
 70
     1
  9
$DIMPOST
  1

  9
$DIMAPOST
  1

  9
$DIMALT
 70
     0
  9
$DIMALTD
 70
     2
  9
$DIMALTF
 40
25.4
  9
$DIMLFAC
 40
1.0
  9
$DIMTOFL
 70
     0
  9
$DIMTVP
 40
0.0
  9
$DIMTIX
 70
     0
  9
$DIMSOXD
 70
     0
  9
$DIMSAH
 70
     0
  9
$DIMBLK1
  1

  9
$DIMBLK2
  1

  9
$DIMSTYLE
  2
Standard
  9
$DIMCLRD
 70
     0
  9
$DIMCLRE
 70
     0
  9
$DIMCLRT
 70
     0
  9
$DIMTFAC
 40
1.0
  9
$DIMGAP
 40
0.09
  9
$DIMJUST
 70
     0
  9
$DIMSD1
 70
     0
  9
$DIMSD2
 70
     0
  9
$DIMTOLJ
 70
     1
  9
$DIMTZIN
 70
     0
  9
$DIMALTZ
 70
     0
  9
$DIMALTTZ
 70
     0
  9
$DIMUPT
 70
     0
  9
$DIMDEC
 70
     4
  9
$DIMTDEC
 70
     4
  9
$DIMALTU
 70
     2
  9
$DIMALTTD
 70
     2
  9
$DIMTXSTY
  7
STANDARD
  9
$DIMAUNIT
 70
     0
  9
$DIMADEC
 70
     0
  9
$DIMALTRND
 40
0.0
  9
$DIMAZIN
 70
     0
  9
$DIMDSEP
 70
    46
  9
$DIMATFIT
 70
     3
  9
$DIMFRAC
 70
     0
  9
$DIMLDRBLK
  1

  9
$DIMLUNIT
 70
     2
  9
$DIMLWD
 70
    -2
  9
$DIMLWE
 70
    -2
  9
$DIMTMOVE
 70
     0
  9
$LUNITS
 70
     2
  9
$LUPREC
 70
     4
  9
$SKETCHINC
 40
0.1
  9
$FILLETRAD
 40
0.0
  9
$AUNITS
 70
     0
  9
$AUPREC
 70
     0
  9
$MENU
  1
.
  9
$ELEVATION
 40
0.0
  9
$PELEVATION
 40
0.0
  9
$THICKNESS
 40
0.0
  9
$LIMCHECK
 70
     0
  9
$CHAMFERA
 40
0.0
  9
$CHAMFERB
 40
0.0
  9
$CHAMFERC
 40
0.0
  9
$CHAMFERD
 40
0.0
  9
$SKPOLY
 70
     0
  9
$TDCREATE
 40
2457253.496455173
  9
$TDUCREATE
 40
2457253.121455174
  9
$TDUPDATE
 40
2457253.657258773
  9
$TDUUPDATE
 40
2457253.282258773
  9
$TDINDWG
 40
0.1608041435
  9
$TDUSRTIMER
 40
0.1608041435
  9
$USRTIMER
 70
     1
  9
$ANGBASE
 50
0.0
  9
$ANGDIR
 70
     0
  9
$PDMODE
 70
     0
  9
$PDSIZE
 40
0.0
  9
$PLINEWID
 40
0.0
  9
$SPLFRAME
 70
     0
  9
$SPLINETYPE
 70
     6
  9
$SPLINESEGS
 70
     8
  9
$HANDSEED
  5
2D4
  9
$SURFTAB1
 70
     6
  9
$SURFTAB2
 70
     6
  9
$SURFTYPE
 70
     6
  9
$SURFU
 70
     6
  9
$SURFV
 70
     6
  9
$UCSBASE
  2

  9
$UCSNAME
  2

  9
$UCSORG
 10
0.0
 20
0.0
 30
0.0
  9
$UCSXDIR
 10
1.0
 20
0.0
 30
0.0
  9
$UCSYDIR
 10
0.0
 20
1.0
 30
0.0
  9
$UCSORTHOREF
  2

  9
$UCSORTHOVIEW
 70
     0
  9
$UCSORGTOP
 10
0.0
 20
0.0
 30
0.0
  9
$UCSORGBOTTOM
 10
0.0
 20
0.0
 30
0.0
  9
$UCSORGLEFT
 10
0.0
 20
0.0
 30
0.0
  9
$UCSORGRIGHT
 10
0.0
 20
0.0
 30
0.0
  9
$UCSORGFRONT
 10
0.0
 20
0.0
 30
0.0
  9
$UCSORGBACK
 10
0.0
 20
0.0
 30
0.0
  9
$PUCSBASE
  2

  9
$PUCSNAME
  2

  9
$PUCSORG
 10
0.0
 20
0.0
 30
0.0
  9
$PUCSXDIR
 10
1.0
 20
0.0
 30
0.0
  9
$PUCSYDIR
 10
0.0
 20
1.0
 30
0.0
  9
$PUCSORTHOREF
  2

  9
$PUCSORTHOVIEW
 70
     0
  9
$PUCSORGTOP
 10
0.0
 20
0.0
 30
0.0
  9
$PUCSORGBOTTOM
 10
0.0
 20
0.0
 30
0.0
  9
$PUCSORGLEFT
 10
0.0
 20
0.0
 30
0.0
  9
$PUCSORGRIGHT
 10
0.0
 20
0.0
 30
0.0
  9
$PUCSORGFRONT
 10
0.0
 20
0.0
 30
0.0
  9
$PUCSORGBACK
 10
0.0
 20
0.0
 30
0.0
  9
$USERI1
 70
     0
  9
$USERI2
 70
     0
  9
$USERI3
 70
     0
  9
$USERI4
 70
     0
  9
$USERI5
 70
     0
  9
$USERR1
 40
0.0
  9
$USERR2
 40
0.0
  9
$USERR3
 40
0.0
  9
$USERR4
 40
0.0
  9
$USERR5
 40
0.0
  9
$WORLDVIEW
 70
     1
  9
$SHADEDGE
 70
     3
  9
$SHADEDIF
 70
    70
  9
$TILEMODE
 70
     1
  9
$MAXACTVP
 70
    64
  9
$PINSBASE
 10
0.0
 20
0.0
 30
0.0
  9
$PLIMCHECK
 70
     0
  9
$PEXTMIN
 10
1.000000000000000E+20
 20
1.000000000000000E+20
 30
1.000000000000000E+20
  9
$PEXTMAX
 10
-1.000000000000000E+20
 20
-1.000000000000000E+20
 30
-1.000000000000000E+20
  9
$PLIMMIN
 10
0.0
 20
0.0
  9
$PLIMMAX
 10
12.0
 20
9.0
  9
$UNITMODE
 70
     0
  9
$VISRETAIN
 70
     1
  9
$PLINEGEN
 70
     0
  9
$PSLTSCALE
 70
     1
  9
$TREEDEPTH
 70
  3020
  9
$CMLSTYLE
  2
Standard
  9
$CMLJUST
 70
     0
  9
$CMLSCALE
 40
1.0
  9
$PROXYGRAPHICS
 70
     1
  9
$MEASUREMENT
 70
     0
  9
$CELWEIGHT
370
    -1
  9
$ENDCAPS
280
     0
  9
$JOINSTYLE
280
     0
  9
$LWDISPLAY
290
     0
  9
$INSUNITS
 70
     0
  9
$HYPERLINKBASE
  1

  9
$STYLESHEET
  1

  9
$XEDIT
290
     1
  9
$CEPSNTYPE
380
     0
  9
$PSTYLEMODE
290
     1
  9
$FINGERPRINTGUID
  2
{792B0479-F593-413B-BD48-28DFCB1D06F8}
  9
$VERSIONGUID
  2
{183C18D2-B246-4803-9F0C-E638EC2E9881}
  9
$EXTNAMES
290
     1
  9
$PSVPSCALE
 40
0.0
  9
$OLESTARTUP
290
     0
  0
ENDSEC
  0
SECTION
  2
CLASSES
  0
CLASS
  1
ACDBDICTIONARYWDFLT
  2
AcDbDictionaryWithDefault
  3
ObjectDBX Classes
 90
        0
280
     0
281
     0
  0
CLASS
  1
DICTIONARYVAR
  2
AcDbDictionaryVar
  3
ObjectDBX Classes
 90
        0
280
     0
281
     0
  0
CLASS
  1
ACDBPLACEHOLDER
  2
AcDbPlaceHolder
  3
ObjectDBX Classes
 90
        0
280
     0
281
     0
  0
CLASS
  1
LAYOUT
  2
AcDbLayout
  3
ObjectDBX Classes
 90
        0
280
     0
281
     0
  0
ENDSEC
  0
SECTION
  2
TABLES
  0
TABLE
  2
VPORT
  5
8
330
0
100
AcDbSymbolTable
 70
     4
  0
VPORT
  5
2CC
330
8
100
AcDbSymbolTableRecord
100
AcDbViewportTableRecord
  2
*Active
 70
     0
 10
0.0
 20
0.0
 11
1.0
 21
1.0
 12
2805.568628122668
 22
2096.052060886002
 13
0.0
 23
0.0
 14
1.0
 24
1.0
 15
0.0
 25
0.0
 16
0.0
 26
0.0
 36
1.0
 17
0.0
 27
0.0
 37
0.0
 40
4655.359289297878
 41
1.609333333333333
 42
50.0
 43
0.0
 44
0.0
 50
0.0
 51
0.0
 71
     0
 72
   100
 73
     1
 74
     1
 75
     0
 76
     0
 77
     0
 78
     0
281
     0
 65
     1
110
0.0
120
0.0
130
0.0
111
1.0
121
0.0
131
0.0
112
0.0
122
1.0
132
0.0
 79
     0
146
0.0
  0
ENDTAB
  0
TABLE
  2
LTYPE
  5
5
330
0
100
AcDbSymbolTable
 70
    35
  0
LTYPE
  5
13
330
5
100
AcDbSymbolTableRecord
100
AcDbLinetypeTableRecord
  2
ByBlock
 70
     0
  3

 72
    65
 73
     0
 40
0.0
  0
LTYPE
  5
14
330
5
100
AcDbSymbolTableRecord
100
AcDbLinetypeTableRecord
  2
ByLayer
 70
     0
  3

 72
    65
 73
     0
 40
0.0
  0
LTYPE
  5
15
330
5
100
AcDbSymbolTableRecord
100
AcDbLinetypeTableRecord
  2
CONTINUOUS
 70
     0
  3
実線
 72
    65
 73
     0
 40
0.0
  0
LTYPE
  5
24
330
5
100
AcDbSymbolTableRecord
100
AcDbLinetypeTableRecord
  2
DASHED1
 70
     0
  3
--  --  --  --  --  --  --  --  
 72
    65
 73
     2
 40
2.5
 49
1.25
 74
     0
 49
-1.25
 74
     0
  0
LTYPE
  5
25
330
5
100
AcDbSymbolTableRecord
100
AcDbLinetypeTableRecord
  2
DASHED2
 70
     0
  3
----    ----    ----    ----    
 72
    65
 73
     2
 40
5.0
 49
2.5
 74
     0
 49
-2.5
 74
     0
  0
LTYPE
  5
26
330
5
100
AcDbSymbolTableRecord
100
AcDbLinetypeTableRecord
  2
DASHED3
 70
     0
  3
------  ------  ------  ------  
 72
    65
 73
     2
 40
5.0
 49
3.75
 74
     0
 49
-1.25
 74
     0
  0
LTYPE
  5
27
330
5
100
AcDbSymbolTableRecord
100
AcDbLinetypeTableRecord
  2
CENTER1
 70
     0
  3
----- - ----- - ----- - ----- - 
 72
    65
 73
     4
 40
10.0
 49
6.25
 74
     0
 49
-1.25
 74
     0
 49
1.25
 74
     0
 49
-1.25
 74
     0
  0
LTYPE
  5
28
330
5
100
AcDbSymbolTableRecord
100
AcDbLinetypeTableRecord
  2
CENTER2
 70
     0
  3
----------  --  ----------  --  
 72
    65
 73
     4
 40
20.0
 49
12.5
 74
     0
 49
-2.5
 74
     0
 49
2.5
 74
     0
 49
-2.5
 74
     0
  0
LTYPE
  5
29
330
5
100
AcDbSymbolTableRecord
100
AcDbLinetypeTableRecord
  2
PHANTOM1
 70
     0
  3
--- - - --- - - --- - - --- - - 
 72
    65
 73
     6
 40
10.0
 49
3.25
 74
     0
 49
-1.25
 74
     0
 49
1.25
 74
     0
 49
-1.25
 74
     0
 49
1.25
 74
     0
 49
-1.25
 74
     0
  0
LTYPE
  5
2A
330
5
100
AcDbSymbolTableRecord
100
AcDbLinetypeTableRecord
  2
PHANTOM2
 70
     0
  3
--------  -  -  --------  -  -  
 72
    65
 73
     6
 40
20.0
 49
10.0
 74
     0
 49
-2.5
 74
     0
 49
1.25
 74
     0
 49
-2.5
 74
     0
 49
1.25
 74
     0
 49
-2.5
 74
     0
  0
LTYPE
  5
2B
330
5
100
AcDbSymbolTableRecord
100
AcDbLinetypeTableRecord
  2
DOT
 70
     0
  3
-   -   -   -   -   -   -   -   
 72
    65
 73
     2
 40
2.5
 49
0.625
 74
     0
 49
-1.875
 74
     0
  0
LTYPE
  5
2C
330
5
100
AcDbSymbolTableRecord
100
AcDbLinetypeTableRecord
  2
DUMMY
 70
     0
  3
ダミー
 72
    65
 73
     0
 40
0.0
  0
LTYPE
  5
2D
330
5
100
AcDbSymbolTableRecord
100
AcDbLinetypeTableRecord
  2
RAND1
 70
     0
  3
ランダム線1
 72
    65
 73
     4
 40
10.0
 49
1.0
 74
     0
 49
-2.0
 74
     0
 49
3.0
 74
     0
 49
-4.0
 74
     0
  0
LTYPE
  5
2E
330
5
100
AcDbSymbolTableRecord
100
AcDbLinetypeTableRecord
  2
RAND2
 70
     0
  3
ランダム線2
 72
    65
 73
     4
 40
14.0
 49
2.0
 74
     0
 49
-3.0
 74
     0
 49
4.0
 74
     0
 49
-5.0
 74
     0
  0
LTYPE
  5
2F
330
5
100
AcDbSymbolTableRecord
100
AcDbLinetypeTableRecord
  2
RAND3
 70
     0
  3
ランダム線3
 72
    65
 73
     4
 40
18.0
 49
3.0
 74
     0
 49
-4.0
 74
     0
 49
5.0
 74
     0
 49
-6.0
 74
     0
  0
LTYPE
  5
30
330
5
100
AcDbSymbolTableRecord
100
AcDbLinetypeTableRecord
  2
RAND4
 70
     0
  3
ランダム線4
 72
    65
 73
     4
 40
22.0
 49
4.0
 74
     0
 49
-5.0
 74
     0
 49
6.0
 74
     0
 49
-7.0
 74
     0
  0
LTYPE
  5
31
330
5
100
AcDbSymbolTableRecord
100
AcDbLinetypeTableRecord
  2
RAND5
 70
     0
  3
ランダム線5
 72
    65
 73
     4
 40
26.0
 49
5.0
 74
     0
 49
-6.0
 74
     0
 49
7.0
 74
     0
 49
-8.0
 74
     0
  0
LTYPE
  5
32
330
5
100
AcDbSymbolTableRecord
100
AcDbLinetypeTableRecord
  2
LONG1
 70
     0
  3
----------  --  ----------  --  
 72
    65
 73
     4
 40
40.0
 49
32.5
 74
     0
 49
-2.5
 74
     0
 49
2.5
 74
     0
 49
-2.5
 74
     0
  0
LTYPE
  5
33
330
5
100
AcDbSymbolTableRecord
100
AcDbLinetypeTableRecord
  2
LONG2
 70
     0
  3
--------  -  -  --------  -  -  
 72
    65
 73
     6
 40
40.0
 49
30.0
 74
     0
 49
-2.5
 74
     0
 49
1.25
 74
     0
 49
-2.5
 74
     0
 49
1.25
 74
     0
 49
-2.5
 74
     0
  0
LTYPE
  5
34
330
5
100
AcDbSymbolTableRecord
100
AcDbLinetypeTableRecord
  2
LONG3
 70
     0
  3
+++++++++++++++..+++++++++++++++
 72
    65
 73
     2
 40
40.0
 49
37.5
 74
     0
 49
-2.5
 74
     0
  0
LTYPE
  5
35
330
5
100
AcDbSymbolTableRecord
100
AcDbLinetypeTableRecord
  2
LONG4
 70
     0
  3
+++++++++++++++..+++++++++++++++
 72
    65
 73
     2
 40
80.0
 49
75.0
 74
     0
 49
-5.0
 74
     0
  0
LTYPE
  5
36
330
5
100
AcDbSymbolTableRecord
100
AcDbLinetypeTableRecord
  2
LONG5
 70
     0
  3
----------  --  ----------  --  
 72
    65
 73
     4
 40
60.0
 49
37.5
 74
     0
 49
-7.5
 74
     0
 49
7.5
 74
     0
 49
-7.5
 74
     0
  0
LTYPE
  5
37
330
5
100
AcDbSymbolTableRecord
100
AcDbLinetypeTableRecord
  2
DASHED
 70
     0
  3
-------   -------------   ------
 72
    65
 73
     2
 40
7.5
 49
6.0
 74
     0
 49
-1.5
 74
     0
  0
LTYPE
  5
38
330
5
100
AcDbSymbolTableRecord
100
AcDbLinetypeTableRecord
  2
DASHED_SPACED
 70
     0
  3
----        --------        ----
 72
    65
 73
     2
 40
12.0
 49
6.0
 74
     0
 49
-6.0
 74
     0
  0
LTYPE
  5
39
330
5
100
AcDbSymbolTableRecord
100
AcDbLinetypeTableRecord
  2
LONG_DASHED_DOTTED
 70
     0
  3
------------- --- --------------
 72
    65
 73
     4
 40
15.25
 49
12.0
 74
     0
 49
-1.5
 74
     0
 49
0.25
 74
     0
 49
-1.5
 74
     0
  0
LTYPE
  5
3A
330
5
100
AcDbSymbolTableRecord
100
AcDbLinetypeTableRecord
  2
LONG_DASHED_DOUBLE-DOTTED
 70
     0
  3
----------- --- --- ------------
 72
    65
 73
     6
 40
17.0
 49
12.0
 74
     0
 49
-1.5
 74
     0
 49
0.25
 74
     0
 49
-1.5
 74
     0
 49
0.25
 74
     0
 49
-1.5
 74
     0
  0
LTYPE
  5
3B
330
5
100
AcDbSymbolTableRecord
100
AcDbLinetypeTableRecord
  2
LONG_DASHED_TRIPLICATE-DOTTED
 70
     0
  3
--------- --- --- --- ----------
 72
    65
 73
     8
 40
18.75
 49
12.0
 74
     0
 49
-1.5
 74
     0
 49
0.25
 74
     0
 49
-1.5
 74
     0
 49
0.25
 74
     0
 49
-1.5
 74
     0
 49
0.25
 74
     0
 49
-1.5
 74
     0
  0
LTYPE
  5
3C
330
5
100
AcDbSymbolTableRecord
100
AcDbLinetypeTableRecord
  2
DOTTED
 70
     0
  3
   -       -       -       -    
 72
    65
 73
     2
 40
1.75
 49
0.25
 74
     0
 49
-1.5
 74
     0
  0
LTYPE
  5
3D
330
5
100
AcDbSymbolTableRecord
100
AcDbLinetypeTableRecord
  2
CHAIN
 70
     0
  3
-------------- -- --------------
 72
    65
 73
     4
 40
18.5
 49
12.0
 74
     0
 49
-1.5
 74
     0
 49
3.5
 74
     0
 49
-1.5
 74
     0
  0
LTYPE
  5
3E
330
5
100
AcDbSymbolTableRecord
100
AcDbLinetypeTableRecord
  2
CHAIN_DOUBLE_DASH
 70
     0
  3
------------ -- -- -------------
 72
    65
 73
     6
 40
23.5
 49
12.0
 74
     0
 49
-1.5
 74
     0
 49
3.5
 74
     0
 49
-1.5
 74
     0
 49
3.5
 74
     0
 49
-1.5
 74
     0
  0
LTYPE
  5
3F
330
5
100
AcDbSymbolTableRecord
100
AcDbLinetypeTableRecord
  2
DASHED_DOTTED
 70
     0
  3
-----------     -     ----------
 72
    65
 73
     4
 40
9.25
 49
6.0
 74
     0
 49
-1.5
 74
     0
 49
0.25
 74
     0
 49
-1.5
 74
     0
  0
LTYPE
  5
40
330
5
100
AcDbSymbolTableRecord
100
AcDbLinetypeTableRecord
  2
DOUBLE-DASHED_DOTTED
 70
     0
  3
------   -----------   -   -----
 72
    65
 73
     6
 40
16.75
 49
6.0
 74
     0
 49
-1.5
 74
     0
 49
6.0
 74
     0
 49
-1.5
 74
     0
 49
0.25
 74
     0
 49
-1.5
 74
     0
  0
LTYPE
  5
41
330
5
100
AcDbSymbolTableRecord
100
AcDbLinetypeTableRecord
  2
DASHED_DOUBLE-DOTTED
 70
     0
  3
---------    -    -    ---------
 72
    65
 73
     6
 40
11.0
 49
6.0
 74
     0
 49
-1.5
 74
     0
 49
0.25
 74
     0
 49
-1.5
 74
     0
 49
0.25
 74
     0
 49
-1.5
 74
     0
  0
LTYPE
  5
42
330
5
100
AcDbSymbolTableRecord
100
AcDbLinetypeTableRecord
  2
DOUBLE-DASHED_DOUBLE-DOTTED
 70
     0
  3
-----   ---------   -   -   ----
 72
    65
 73
     8
 40
18.5
 49
6.0
 74
     0
 49
-1.5
 74
     0
 49
6.0
 74
     0
 49
-1.5
 74
     0
 49
0.25
 74
     0
 49
-1.5
 74
     0
 49
0.25
 74
     0
 49
-1.5
 74
     0
  0
LTYPE
  5
43
330
5
100
AcDbSymbolTableRecord
100
AcDbLinetypeTableRecord
  2
DASHED_TRIPLICATE-DOTTED
 70
     0
  3
-------    -    -    -    ------
 72
    65
 73
     8
 40
12.75
 49
6.0
 74
     0
 49
-1.5
 74
     0
 49
0.25
 74
     0
 49
-1.5
 74
     0
 49
0.25
 74
     0
 49
-1.5
 74
     0
 49
0.25
 74
     0
 49
-1.5
 74
     0
  0
LTYPE
  5
44
330
5
100
AcDbSymbolTableRecord
100
AcDbLinetypeTableRecord
  2
DOUBLE-DASHED_TRIPLICATE-DOTTED
 70
     0
  3
-----  ---------  -  -  -  -----
 72
    65
 73
    10
 40
20.25
 49
6.0
 74
     0
 49
-1.5
 74
     0
 49
6.0
 74
     0
 49
-1.5
 74
     0
 49
0.25
 74
     0
 49
-1.5
 74
     0
 49
0.25
 74
     0
 49
-1.5
 74
     0
 49
0.25
 74
     0
 49
-1.5
 74
     0
  0
LTYPE
  5
45
330
5
100
AcDbSymbolTableRecord
100
AcDbLinetypeTableRecord
  2
UNDEFINED
 70
     0
  3
--------------------------------
 72
    65
 73
     0
 40
0.0
  0
ENDTAB
  0
TABLE
  2
LAYER
  5
2
330
0
100
AcDbSymbolTable
 70
     3
  0
LAYER
  5
10
330
2
100
AcDbSymbolTableRecord
100
AcDbLayerTableRecord
  2
0
 70
     0
 62
     7
  6
CONTINUOUS
370
    -3
390
F
  0
LAYER
  5
47
330
2
100
AcDbSymbolTableRecord
100
AcDbLayerTableRecord
  2
_0-0_
 70
     0
 62
     7
  6
CONTINUOUS
370
    -3
390
F
  0
LAYER
  5
48
330
2
100
AcDbSymbolTableRecord
100
AcDbLayerTableRecord
  2
ADD_LINE
 70
     0
 62
     7
  6
CONTINUOUS
370
    -3
390
F
  0
ENDTAB
  0
TABLE
  2
STYLE
  5
3
330
0
100
AcDbSymbolTable
 70
     2
  0
STYLE
  5
11
330
3
100
AcDbSymbolTableRecord
100
AcDbTextStyleTableRecord
  2
STANDARD
 70
     0
 40
0.0
 41
1.0
 50
0.0
 71
     0
 42
0.2
  3
txt
  4
bigfont.shx
  0
STYLE
  5
46
330
3
100
AcDbSymbolTableRecord
100
AcDbTextStyleTableRecord
  2
TATEGAKI
 70
     4
 40
0.0
 41
1.0
 50
0.0
 71
     0
 42
1.0
  3
txt
  4
bigfont.shx
  0
ENDTAB
  0
TABLE
  2
VIEW
  5
6
330
0
100
AcDbSymbolTable
 70
     0
  0
ENDTAB
  0
TABLE
  2
UCS
  5
7
330
0
100
AcDbSymbolTable
 70
     0
  0
ENDTAB
  0
TABLE
  2
APPID
  5
9
330
0
100
AcDbSymbolTable
 70
     1
  0
APPID
  5
12
330
9
100
AcDbSymbolTableRecord
100
AcDbRegAppTableRecord
  2
ACAD
 70
     0
  0
ENDTAB
  0
TABLE
  2
DIMSTYLE
  5
A
330
0
100
AcDbSymbolTable
 70
     1
100
AcDbDimStyleTable
 71
     0
  0
DIMSTYLE
105
2C5
330
A
100
AcDbSymbolTableRecord
100
AcDbDimStyleTableRecord
  2
Standard
 70
     0
340
11
  0
ENDTAB
  0
TABLE
  2
BLOCK_RECORD
  5
1
330
0
100
AcDbSymbolTable
 70
     0
  0
BLOCK_RECORD
  5
20
330
1
100
AcDbSymbolTableRecord
100
AcDbBlockTableRecord
  2
*Model_Space
340
23
  0
BLOCK_RECORD
  5
1C
330
1
100
AcDbSymbolTableRecord
100
AcDbBlockTableRecord
  2
*Paper_Space
340
1F
  0
ENDTAB
  0
ENDSEC
  0
SECTION
  2
BLOCKS
  0
BLOCK
  5
21
330
20
100
AcDbEntity
  8
0
100
AcDbBlockBegin
  2
*Model_Space
 70
     0
 10
0.0
 20
0.0
 30
0.0
  3
*Model_Space
  1

  0
ENDBLK
  5
22
330
20
100
AcDbEntity
  8
0
100
AcDbBlockEnd
  0
BLOCK
  5
1D
330
1C
100
AcDbEntity
 67
     1
  8
0
100
AcDbBlockBegin
  2
*Paper_Space
 70
     0
 10
0.0
 20
0.0
 30
0.0
  3
*Paper_Space
  1

  0
ENDBLK
  5
1E
330
1C
100
AcDbEntity
 67
     1
  8
0
100
AcDbBlockEnd
  0
ENDSEC
  0
SECTION
  2
ENTITIES
  0
LINE
  5
4C
330
20
100
AcDbEntity
  8
_0-0_
  6
Continuous
 62
     7
100
AcDbLine
 10
5727.857142857143
 20
242.2591440716368
 30
0.0
 11
212.1428571428572
 21
242.2591440716368
 31
0.0
  0
LINE
  5
4D
330
20
100
AcDbEntity
  8
_0-0_
  6
Continuous
 62
     7
100
AcDbLine
 10
4627.857142857143
 20
842.2591440716368
 30
0.0
 11
4627.857142857143
 21
242.2591440716368
 31
0.0
  0
LINE
  5
4E
330
20
100
AcDbEntity
  8
_0-0_
  6
Continuous
 62
     7
100
AcDbLine
 10
3727.857142857143
 20
842.2591440716368
 30
0.0
 11
3727.857142857143
 21
242.2591440716368
 31
0.0
  0
LINE
  5
4F
330
20
100
AcDbEntity
  8
_0-0_
  6
Continuous
 62
     7
100
AcDbLine
 10
3427.857142857143
 20
842.2591440716368
 30
0.0
 11
3427.857142857143
 21
242.2591440716368
 31
0.0
  0
LINE
  5
50
330
20
100
AcDbEntity
  8
_0-0_
  6
Continuous
 62
     7
100
AcDbLine
 10
4927.857142857143
 20
842.2591440716368
 30
0.0
 11
4927.857142857143
 21
342.2591440716368
 31
0.0
  0
LINE
  5
51
330
20
100
AcDbEntity
  8
_0-0_
  6
Continuous
 62
     7
100
AcDbLine
 10
5727.857142857143
 20
342.2591440716368
 30
0.0
 11
3427.857142857143
 21
342.2591440716368
 31
0.0
  0
LINE
  5
52
330
20
100
AcDbEntity
  8
_0-0_
  6
Continuous
 62
     7
100
AcDbLine
 10
5727.857142857143
 20
442.2591440716368
 30
0.0
 11
3427.857142857143
 21
442.2591440716368
 31
0.0
  0
LINE
  5
53
330
20
100
AcDbEntity
  8
_0-0_
  6
Continuous
 62
     7
100
AcDbLine
 10
5727.857142857143
 20
542.2591440716368
 30
0.0
 11
3427.857142857143
 21
542.2591440716368
 31
0.0
  0
LINE
  5
54
330
20
100
AcDbEntity
  8
_0-0_
  6
Continuous
 62
     7
100
AcDbLine
 10
5727.857142857143
 20
642.2591440716368
 30
0.0
 11
3427.857142857143
 21
642.2591440716368
 31
0.0
  0
LINE
  5
55
330
20
100
AcDbEntity
  8
_0-0_
  6
Continuous
 62
     7
100
AcDbLine
 10
5727.857142857143
 20
742.2591440716368
 30
0.0
 11
3427.857142857143
 21
742.2591440716368
 31
0.0
  0
LINE
  5
56
330
20
100
AcDbEntity
  8
_0-0_
  6
Continuous
 62
     7
100
AcDbLine
 10
5727.857142857143
 20
842.2591440716368
 30
0.0
 11
3427.857142857143
 21
842.2591440716368
 31
0.0
  0
LINE
  5
57
330
20
100
AcDbEntity
  8
_0-0_
  6
Continuous
 62
     7
100
AcDbLine
 10
4027.857142857143
 20
342.2591440716368
 30
0.0
 11
4027.857142857143
 21
242.2591440716368
 31
0.0
  0
LINE
  5
58
330
20
100
AcDbEntity
  8
_0-0_
  6
Continuous
 62
     7
100
AcDbLine
 10
4327.857142857143
 20
342.2591440716368
 30
0.0
 11
4327.857142857143
 21
242.2591440716368
 31
0.0
  0
LINE
  5
59
330
20
100
AcDbEntity
  8
_0-0_
  6
Continuous
 62
     7
100
AcDbLine
 10
212.1428571428572
 20
242.2591440716368
 30
0.0
 11
212.1428571428572
 21
4006.084028864264
 31
0.0
  0
LINE
  5
5A
330
20
100
AcDbEntity
  8
_0-0_
  6
Continuous
 62
     7
100
AcDbLine
 10
212.1428571428572
 20
4006.084028864264
 30
0.0
 11
5727.857142857143
 21
4006.084028864264
 31
0.0
  0
LINE
  5
5B
330
20
100
AcDbEntity
  8
_0-0_
  6
Continuous
 62
     7
100
AcDbLine
 10
5727.857142857143
 20
4006.084028864264
 30
0.0
 11
5727.857142857143
 21
242.2591440716368
 31
0.0
  0
TEXT
  5
5C
330
20
100
AcDbEntity
  8
_0-0_
 62
     7
100
AcDbText
 10
3444.575259249874
 20
760.6562484909282
 30
0.0
 40
60.0
  1
製 品 名
100
AcDbText
  0
TEXT
  5
5D
330
20
100
AcDbEntity
  8
_0-0_
 62
     7
100
AcDbText
 10
3441.57145262837
 20
562.4050114716667
 30
0.0
 40
60.0
  1
呼 び 名
100
AcDbText
  0
TEXT
  5
5E
330
20
100
AcDbEntity
  8
_0-0_
 62
     7
100
AcDbText
 10
3444.575259249874
 20
259.0205426997667
 30
0.0
 40
60.0
  1
検　　図
100
AcDbText
  0
TEXT
  5
5F
330
20
100
AcDbEntity
  8
_0-0_
 62
     7
100
AcDbText
 10
4044.402262201902
 20
259.0205426997667
 30
0.0
 40
60.0
  1
製　　図
100
AcDbText
  0
TEXT
  5
60
330
20
100
AcDbEntity
  8
_0-0_
 62
     7
100
AcDbText
 10
4429.479469727538
 20
259.0205426997667
 30
0.0
 40
60.0
  1
H.O
100
AcDbText
  0
TEXT
  5
61
330
20
100
AcDbEntity
  8
_0-0_
 62
     7
100
AcDbText
 10
4648.952838177374
 20
763.6600551124319
 30
0.0
 40
60.0
  1
縮　　尺
100
AcDbText
  0
TEXT
  5
62
330
20
100
AcDbEntity
  8
_0-0_
 62
     7
100
AcDbText
 10
4642.945224934364
 20
661.5306299812973
 30
0.0
 40
60.0
  1
参考重量
100
AcDbText
  0
TEXT
  5
63
330
20
100
AcDbEntity
  8
_0-0_
 62
     7
100
AcDbText
 10
4642.945224934364
 20
562.4050114716667
 30
0.0
 40
60.0
  1
設計Ｎｏ
100
AcDbText
  0
TEXT
  5
64
330
20
100
AcDbEntity
  8
_0-0_
 62
     7
100
AcDbText
 10
4648.952838177374
 20
463.2793929620359
 30
0.0
 40
60.0
  1
図面Ｎｏ
100
AcDbText
  0
TEXT
  5
65
330
20
100
AcDbEntity
  8
_0-0_
 62
     7
100
AcDbText
 10
4645.949031555869
 20
364.1537744524054
 30
0.0
 40
60.0
  1
製 図 日
100
AcDbText
  0
TEXT
  5
66
330
20
100
AcDbEntity
  8
_0-0_
 62
     7
100
AcDbText
 10
4943.187622748097
 20
360.5357939221474
 30
0.0
 40
60.0
  1
平成　　年　　月　　日
100
AcDbText
  0
TEXT
  5
67
330
20
100
AcDbEntity
  8
_0-0_
 62
     7
100
AcDbText
 10
4648.39423752398
 20
262.0243493212706
 30
0.0
 40
60.0
  1
株式会社　丸治コンクリート工業所
 41
0.93
100
AcDbText
  0
TEXT
  5
68
330
20
100
AcDbEntity
  8
_0-0_
 62
     7
100
AcDbText
 10
3444.575259249874
 20
661.5306299812973
 30
0.0
 40
60.0
  1
型　　式
100
AcDbText
  0
TEXT
  5
69
330
20
100
AcDbEntity
  8
_0-0_
 62
     7
100
AcDbText
 10
3441.57145262837
 20
463.2793929620359
 30
0.0
 40
60.0
  1
寸　　法
100
AcDbText
  0
TEXT
  5
6A
330
20
100
AcDbEntity
  8
_0-0_
 62
     7
100
AcDbText
 10
3444.575259249874
 20
361.1499678309014
 30
0.0
 40
60.0
  1
特記事項
100
AcDbText
  0
TEXT
  5
6B
330
20
100
AcDbEntity
  8
_0-0_
 62
     7
100
AcDbText
 10
3907.534562211981
 20
759.5926861899807
 30
0.0
 40
60.0
  1
ＦＫ式ハンドホール
100
AcDbText
  0
TEXT
  5
6C
330
20
100
AcDbEntity
  8
_0-0_
 62
     7
100
AcDbText
 10
4089.434368960904
 20
662.4617214211387
 30
0.0
 40
60.0
  1
1000型
100
AcDbText
  0
TEXT
  5
6D
330
20
100
AcDbEntity
  8
_0-0_
 62
     7
100
AcDbText
 10
5243.993102466731
 20
758.6466053643102
 30
0.0
 40
60.0
  1
1/20
100
AcDbText
  0
LINE
  5
6E
330
20
100
AcDbEntity
  8
_0-0_
  6
Continuous
 62
     7
100
AcDbLine
 10
212.1428571428572
 20
3886.084028864264
 30
0.0
 11
812.1428571428571
 21
3886.084028864264
 31
0.0
  0
LINE
  5
6F
330
20
100
AcDbEntity
  8
_0-0_
  6
Continuous
 62
     7
100
AcDbLine
 10
812.1428571428571
 20
3886.084028864264
 30
0.0
 11
812.1428571428571
 21
4006.084028864264
 31
0.0
  0
TEXT
  5
70
330
20
100
AcDbEntity
  8
_0-0_
 62
     3
100
AcDbText
 10
227.9403471566186
 20
3893.61156533373
 30
0.0
 40
100.0
  1
組立構造図
100
AcDbText
  0
TEXT
  5
71
330
20
100
AcDbEntity
  8
_0-0_
 62
     7
100
AcDbText
 10
3835.439127078825
 20
462.9017392596998
 30
0.0
 40
60.0
  1
1000×1000×1500
100
AcDbText
  0
TEXT
  5
72
330
20
100
AcDbEntity
  8
_0-0_
 62
     7
100
AcDbText
 10
5214.349236595721
 20
660.8218479899765
 30
0.0
 40
60.0
  1
1990kg
100
AcDbText
  0
LINE
  5
73
330
20
100
AcDbEntity
  8
_0-0_
  6
Continuous
 62
     4
100
AcDbLine
 10
4031.434331797234
 20
3292.80529953917
 30
0.0
 11
5191.434331797235
 21
3292.80529953917
 31
0.0
  0
LINE
  5
74
330
20
100
AcDbEntity
  8
_0-0_
  6
Continuous
 62
     4
100
AcDbLine
 10
3626.434331797233
 20
2887.80529953917
 30
0.0
 11
3626.434331797233
 21
1727.80529953917
 31
0.0
  0
LINE
  5
75
330
20
100
AcDbEntity
  8
_0-0_
  6
Continuous
 62
     4
100
AcDbLine
 10
5191.434331797235
 20
3307.80529953917
 30
0.0
 11
5191.434331797235
 21
2902.80529953917
 31
0.0
  0
LINE
  5
76
330
20
100
AcDbEntity
  8
_0-0_
  6
Continuous
 62
     4
100
AcDbLine
 10
4031.434331797234
 20
2902.80529953917
 30
0.0
 11
4031.434331797234
 21
3307.80529953917
 31
0.0
  0
LINE
  5
77
330
20
100
AcDbEntity
  8
_0-0_
  6
Continuous
 62
     4
100
AcDbLine
 10
4016.434331797233
 20
2887.80529953917
 30
0.0
 11
3611.434331797234
 21
2887.80529953917
 31
0.0
  0
LINE
  5
78
330
20
100
AcDbEntity
  8
_0-0_
  6
Continuous
 62
     4
100
AcDbLine
 10
4016.434331797233
 20
1727.80529953917
 30
0.0
 11
3611.434331797234
 21
1727.80529953917
 31
0.0
  0
LINE
  5
79
330
20
100
AcDbEntity
  8
_0-0_
  6
DASHED1
 62
   136
100
AcDbLine
 10
4161.434331797233
 20
2807.80529953917
 30
0.0
 11
4161.434331797233
 21
1807.80529953917
 31
0.0
  0
LINE
  5
7A
330
20
100
AcDbEntity
  8
_0-0_
  6
DASHED1
 62
   136
100
AcDbLine
 10
4111.434331797233
 20
2757.80529953917
 30
0.0
 11
5111.434331797234
 21
2757.80529953917
 31
0.0
  0
LINE
  5
7B
330
20
100
AcDbEntity
  8
_0-0_
  6
DASHED1
 62
   136
100
AcDbLine
 10
5061.434331797234
 20
2807.80529953917
 30
0.0
 11
5061.434331797234
 21
1807.80529953917
 31
0.0
  0
LINE
  5
7C
330
20
100
AcDbEntity
  8
_0-0_
  6
DASHED1
 62
   136
100
AcDbLine
 10
4111.434331797233
 20
1857.80529953917
 30
0.0
 11
5111.434331797234
 21
1857.80529953917
 31
0.0
  0
LINE
  5
7D
330
20
100
AcDbEntity
  8
_0-0_
  6
DASHED1
 62
   136
100
AcDbLine
 10
4161.434331797233
 20
2807.80529953917
 30
0.0
 11
4111.434331797233
 21
2757.80529953917
 31
0.0
  0
LINE
  5
7E
330
20
100
AcDbEntity
  8
_0-0_
  6
DASHED1
 62
   136
100
AcDbLine
 10
4161.434331797233
 20
2807.80529953917
 30
0.0
 11
5061.434331797234
 21
2807.80529953917
 31
0.0
  0
LINE
  5
7F
330
20
100
AcDbEntity
  8
_0-0_
  6
DASHED1
 62
   136
100
AcDbLine
 10
5061.434331797234
 20
2807.80529953917
 30
0.0
 11
5111.434331797234
 21
2757.80529953917
 31
0.0
  0
LINE
  5
80
330
20
100
AcDbEntity
  8
_0-0_
  6
DASHED1
 62
   136
100
AcDbLine
 10
4111.434331797233
 20
2757.80529953917
 30
0.0
 11
4111.434331797233
 21
1857.80529953917
 31
0.0
  0
LINE
  5
81
330
20
100
AcDbEntity
  8
_0-0_
  6
DASHED1
 62
   136
100
AcDbLine
 10
4111.434331797233
 20
1857.80529953917
 30
0.0
 11
4161.434331797233
 21
1807.80529953917
 31
0.0
  0
LINE
  5
82
330
20
100
AcDbEntity
  8
_0-0_
  6
DASHED1
 62
   136
100
AcDbLine
 10
4161.434331797233
 20
1807.80529953917
 30
0.0
 11
5061.434331797234
 21
1807.80529953917
 31
0.0
  0
LINE
  5
83
330
20
100
AcDbEntity
  8
_0-0_
  6
DASHED1
 62
   136
100
AcDbLine
 10
5111.434331797234
 20
1857.80529953917
 30
0.0
 11
5061.434331797234
 21
1807.80529953917
 31
0.0
  0
LINE
  5
84
330
20
100
AcDbEntity
  8
_0-0_
  6
DASHED1
 62
   136
100
AcDbLine
 10
5111.434331797234
 20
2757.80529953917
 30
0.0
 11
5111.434331797234
 21
1857.80529953917
 31
0.0
  0
LINE
  5
85
330
20
100
AcDbEntity
  8
_0-0_
  6
Continuous
 62
     7
100
AcDbLine
 10
4031.434331797234
 20
1737.80529953917
 30
0.0
 11
4041.434331797232
 21
1727.80529953917
 31
0.0
  0
LINE
  5
86
330
20
100
AcDbEntity
  8
_0-0_
  6
Continuous
 62
     7
100
AcDbLine
 10
4031.434331797234
 20
2877.80529953917
 30
0.0
 11
4031.434331797234
 21
1737.80529953917
 31
0.0
  0
LINE
  5
87
330
20
100
AcDbEntity
  8
_0-0_
  6
Continuous
 62
     7
100
AcDbLine
 10
4041.434331797232
 20
2887.80529953917
 30
0.0
 11
4031.434331797234
 21
2877.80529953917
 31
0.0
  0
LINE
  5
88
330
20
100
AcDbEntity
  8
_0-0_
  6
Continuous
 62
     7
100
AcDbLine
 10
4041.434331797232
 20
2887.80529953917
 30
0.0
 11
5181.434331797234
 21
2887.80529953917
 31
0.0
  0
LINE
  5
89
330
20
100
AcDbEntity
  8
_0-0_
  6
Continuous
 62
     7
100
AcDbLine
 10
5181.434331797234
 20
2887.80529953917
 30
0.0
 11
5191.434331797235
 21
2877.80529953917
 31
0.0
  0
LINE
  5
8A
330
20
100
AcDbEntity
  8
_0-0_
  6
Continuous
 62
     7
100
AcDbLine
 10
5191.434331797235
 20
2877.80529953917
 30
0.0
 11
5191.434331797235
 21
1737.80529953917
 31
0.0
  0
LINE
  5
8B
330
20
100
AcDbEntity
  8
_0-0_
  6
Continuous
 62
     7
100
AcDbLine
 10
5191.434331797235
 20
1737.80529953917
 30
0.0
 11
5181.434331797234
 21
1727.80529953917
 31
0.0
  0
LINE
  5
8C
330
20
100
AcDbEntity
  8
_0-0_
  6
Continuous
 62
     7
100
AcDbLine
 10
4041.434331797232
 20
1727.80529953917
 30
0.0
 11
5181.434331797234
 21
1727.80529953917
 31
0.0
  0
LINE
  5
8D
330
20
100
AcDbEntity
  8
_0-0_
  6
Continuous
 62
     4
100
AcDbLine
 10
4111.434331797233
 20
2902.80529953917
 30
0.0
 11
4111.434331797233
 21
3172.80529953917
 31
0.0
  0
LINE
  5
8E
330
20
100
AcDbEntity
  8
_0-0_
  6
Continuous
 62
     4
100
AcDbLine
 10
5111.434331797234
 20
3172.80529953917
 30
0.0
 11
5111.434331797234
 21
2902.80529953917
 31
0.0
  0
LINE
  5
8F
330
20
100
AcDbEntity
  8
_0-0_
  6
Continuous
 62
     4
100
AcDbLine
 10
4031.434331797234
 20
3157.80529953917
 30
0.0
 11
4111.434331797233
 21
3157.80529953917
 31
0.0
  0
LINE
  5
90
330
20
100
AcDbEntity
  8
_0-0_
  6
Continuous
 62
     4
100
AcDbLine
 10
5111.434331797234
 20
3157.80529953917
 30
0.0
 11
5191.434331797235
 21
3157.80529953917
 31
0.0
  0
LINE
  5
91
330
20
100
AcDbEntity
  8
_0-0_
  6
Continuous
 62
     4
100
AcDbLine
 10
5111.434331797234
 20
3157.80529953917
 30
0.0
 11
4111.434331797233
 21
3157.80529953917
 31
0.0
  0
LINE
  5
92
330
20
100
AcDbEntity
  8
_0-0_
  6
Continuous
 62
     4
100
AcDbLine
 10
4161.434331797233
 20
2902.80529953917
 30
0.0
 11
4161.434331797233
 21
3037.80529953917
 31
0.0
  0
LINE
  5
93
330
20
100
AcDbEntity
  8
_0-0_
  6
Continuous
 62
     4
100
AcDbLine
 10
5061.434331797234
 20
3037.80529953917
 30
0.0
 11
5061.434331797234
 21
2902.80529953917
 31
0.0
  0
LINE
  5
94
330
20
100
AcDbEntity
  8
_0-0_
  6
Continuous
 62
     4
100
AcDbLine
 10
4051.434331797233
 20
3022.80529953917
 30
0.0
 11
4111.434331797233
 21
3022.80529953917
 31
0.0
  0
LINE
  5
95
330
20
100
AcDbEntity
  8
_0-0_
  6
Continuous
 62
     4
100
AcDbLine
 10
4161.434331797233
 20
3022.80529953917
 30
0.0
 11
4221.434331797233
 21
3022.80529953917
 31
0.0
  0
LINE
  5
96
330
20
100
AcDbEntity
  8
_0-0_
  6
Continuous
 62
     4
100
AcDbLine
 10
5001.434331797234
 20
3022.80529953917
 30
0.0
 11
5061.434331797234
 21
3022.80529953917
 31
0.0
  0
LINE
  5
97
330
20
100
AcDbEntity
  8
_0-0_
  6
Continuous
 62
     4
100
AcDbLine
 10
5111.434331797234
 20
3022.80529953917
 30
0.0
 11
5171.434331797234
 21
3022.80529953917
 31
0.0
  0
LINE
  5
98
330
20
100
AcDbEntity
  8
_0-0_
  6
Continuous
 62
     4
100
AcDbLine
 10
4161.434331797233
 20
3022.80529953917
 30
0.0
 11
4111.434331797233
 21
3022.80529953917
 31
0.0
  0
LINE
  5
99
330
20
100
AcDbEntity
  8
_0-0_
  6
Continuous
 62
     4
100
AcDbLine
 10
5111.434331797234
 20
3022.80529953917
 30
0.0
 11
5061.434331797234
 21
3022.80529953917
 31
0.0
  0
LINE
  5
9A
330
20
100
AcDbEntity
  8
_0-0_
  6
Continuous
 62
     4
100
AcDbLine
 10
5111.434331797234
 20
3022.80529953917
 30
0.0
 11
5146.20766154364
 21
3032.122785162861
 31
0.0
  0
LINE
  5
9B
330
20
100
AcDbEntity
  8
_0-0_
  6
Continuous
 62
     4
100
AcDbLine
 10
5111.434331797234
 20
3022.80529953917
 30
0.0
 11
5146.20766154364
 21
3013.487813915479
 31
0.0
  0
LINE
  5
9C
330
20
100
AcDbEntity
  8
_0-0_
  6
Continuous
 62
     4
100
AcDbLine
 10
5061.434331797234
 20
3022.80529953917
 30
0.0
 11
5026.661002050828
 21
3013.487813915479
 31
0.0
  0
LINE
  5
9D
330
20
100
AcDbEntity
  8
_0-0_
  6
Continuous
 62
     4
100
AcDbLine
 10
5061.434331797234
 20
3022.80529953917
 30
0.0
 11
5026.661002050828
 21
3032.122785162861
 31
0.0
  0
LINE
  5
9E
330
20
100
AcDbEntity
  8
_0-0_
  6
Continuous
 62
     4
100
AcDbLine
 10
4161.434331797233
 20
3022.80529953917
 30
0.0
 11
4196.207661543641
 21
3032.122785162861
 31
0.0
  0
LINE
  5
9F
330
20
100
AcDbEntity
  8
_0-0_
  6
Continuous
 62
     4
100
AcDbLine
 10
4161.434331797233
 20
3022.80529953917
 30
0.0
 11
4196.207661543641
 21
3013.487813915479
 31
0.0
  0
LINE
  5
A0
330
20
100
AcDbEntity
  8
_0-0_
  6
Continuous
 62
     4
100
AcDbLine
 10
4111.434331797233
 20
3022.80529953917
 30
0.0
 11
4076.661002050828
 21
3013.487813915479
 31
0.0
  0
LINE
  5
A1
330
20
100
AcDbEntity
  8
_0-0_
  6
Continuous
 62
     4
100
AcDbLine
 10
4111.434331797233
 20
3022.80529953917
 30
0.0
 11
4076.661002050828
 21
3032.122785162861
 31
0.0
  0
LINE
  5
A2
330
20
100
AcDbEntity
  8
_0-0_
  6
Continuous
 62
     4
100
AcDbLine
 10
4111.434331797233
 20
3157.80529953917
 30
0.0
 11
4146.20766154364
 21
3167.12278516286
 31
0.0
  0
LINE
  5
A3
330
20
100
AcDbEntity
  8
_0-0_
  6
Continuous
 62
     4
100
AcDbLine
 10
4111.434331797233
 20
3157.80529953917
 30
0.0
 11
4146.20766154364
 21
3148.487813915479
 31
0.0
  0
LINE
  5
A4
330
20
100
AcDbEntity
  8
_0-0_
  6
Continuous
 62
     4
100
AcDbLine
 10
5111.434331797234
 20
3157.80529953917
 30
0.0
 11
5076.661002050828
 21
3148.487813915479
 31
0.0
  0
LINE
  5
A5
330
20
100
AcDbEntity
  8
_0-0_
  6
Continuous
 62
     4
100
AcDbLine
 10
5111.434331797234
 20
3157.80529953917
 30
0.0
 11
5076.661002050828
 21
3167.12278516286
 31
0.0
  0
LINE
  5
A6
330
20
100
AcDbEntity
  8
_0-0_
  6
Continuous
 62
     4
100
AcDbLine
 10
5191.434331797235
 20
3292.80529953917
 30
0.0
 11
5156.661002050828
 21
3283.487813915479
 31
0.0
  0
LINE
  5
A7
330
20
100
AcDbEntity
  8
_0-0_
  6
Continuous
 62
     4
100
AcDbLine
 10
5191.434331797235
 20
3292.80529953917
 30
0.0
 11
5156.661002050828
 21
3302.122785162861
 31
0.0
  0
LINE
  5
A8
330
20
100
AcDbEntity
  8
_0-0_
  6
Continuous
 62
     4
100
AcDbLine
 10
4031.434331797234
 20
3292.80529953917
 30
0.0
 11
4066.207661543639
 21
3302.122785162861
 31
0.0
  0
LINE
  5
A9
330
20
100
AcDbEntity
  8
_0-0_
  6
Continuous
 62
     4
100
AcDbLine
 10
4031.434331797234
 20
3292.80529953917
 30
0.0
 11
4066.207661543639
 21
3283.487813915479
 31
0.0
  0
LINE
  5
AA
330
20
100
AcDbEntity
  8
_0-0_
  6
Continuous
 62
     4
100
AcDbLine
 10
4031.434331797234
 20
3157.80529953917
 30
0.0
 11
3971.434331797233
 21
3157.80529953917
 31
0.0
  0
LINE
  5
AB
330
20
100
AcDbEntity
  8
_0-0_
  6
Continuous
 62
     4
100
AcDbLine
 10
5191.434331797235
 20
3157.80529953917
 30
0.0
 11
5251.434331797234
 21
3157.80529953917
 31
0.0
  0
LINE
  5
AC
330
20
100
AcDbEntity
  8
_0-0_
  6
Continuous
 62
     4
100
AcDbLine
 10
5191.434331797235
 20
3157.80529953917
 30
0.0
 11
5226.207661543639
 21
3167.12278516286
 31
0.0
  0
LINE
  5
AD
330
20
100
AcDbEntity
  8
_0-0_
  6
Continuous
 62
     4
100
AcDbLine
 10
5191.434331797235
 20
3157.80529953917
 30
0.0
 11
5226.207661543639
 21
3148.487813915479
 31
0.0
  0
LINE
  5
AE
330
20
100
AcDbEntity
  8
_0-0_
  6
Continuous
 62
     4
100
AcDbLine
 10
4031.434331797234
 20
3157.80529953917
 30
0.0
 11
3996.661002050828
 21
3148.487813915479
 31
0.0
  0
LINE
  5
AF
330
20
100
AcDbEntity
  8
_0-0_
  6
Continuous
 62
     4
100
AcDbLine
 10
4031.434331797234
 20
3157.80529953917
 30
0.0
 11
3996.661002050828
 21
3167.12278516286
 31
0.0
  0
TEXT
  5
B0
330
20
100
AcDbEntity
  8
_0-0_
 62
     7
100
AcDbText
 10
4553.824539701416
 20
3172.619136103973
 30
0.0
 40
60.0
  1
1000
100
AcDbText
  0
TEXT
  5
B1
330
20
100
AcDbEntity
  8
_0-0_
 62
     7
100
AcDbText
 10
4055.495465915801
 20
3174.613789844761
 30
0.0
 40
60.0
  1
80
100
AcDbText
  0
TEXT
  5
B2
330
20
100
AcDbEntity
  8
_0-0_
 62
     7
100
AcDbText
 10
5088.861194571424
 20
3174.613789844761
 30
0.0
 40
60.0
  1
80
100
AcDbText
  0
TEXT
  5
B3
330
20
100
AcDbEntity
  8
_0-0_
 62
     7
100
AcDbText
 10
4131.292308065773
 20
3042.966642952706
 30
0.0
 40
60.0
  1
50
100
AcDbText
  0
TEXT
  5
B4
330
20
100
AcDbEntity
  8
_0-0_
 62
     7
100
AcDbText
 10
5011.069698680664
 20
3040.971989211917
 30
0.0
 40
60.0
  1
50
100
AcDbText
  0
LINE
  5
B5
330
20
100
AcDbEntity
  8
_0-0_
  6
Continuous
 62
     4
100
AcDbLine
 10
4016.434331797233
 20
1807.80529953917
 30
0.0
 11
3746.434331797234
 21
1807.80529953917
 31
0.0
  0
LINE
  5
B6
330
20
100
AcDbEntity
  8
_0-0_
  6
Continuous
 62
     4
100
AcDbLine
 10
4016.434331797233
 20
2807.80529953917
 30
0.0
 11
3746.434331797234
 21
2807.80529953917
 31
0.0
  0
LINE
  5
B7
330
20
100
AcDbEntity
  8
_0-0_
  6
Continuous
 62
     4
100
AcDbLine
 10
3761.434331797234
 20
2887.80529953917
 30
0.0
 11
3761.434331797234
 21
2807.80529953917
 31
0.0
  0
LINE
  5
B8
330
20
100
AcDbEntity
  8
_0-0_
  6
Continuous
 62
     4
100
AcDbLine
 10
3761.434331797234
 20
1807.80529953917
 30
0.0
 11
3761.434331797234
 21
1727.80529953917
 31
0.0
  0
LINE
  5
B9
330
20
100
AcDbEntity
  8
_0-0_
  6
Continuous
 62
     4
100
AcDbLine
 10
3761.434331797234
 20
2807.80529953917
 30
0.0
 11
3761.434331797234
 21
1807.80529953917
 31
0.0
  0
LINE
  5
BA
330
20
100
AcDbEntity
  8
_0-0_
  6
Continuous
 62
     4
100
AcDbLine
 10
3761.434331797234
 20
1727.80529953917
 30
0.0
 11
3761.434331797234
 21
1667.80529953917
 31
0.0
  0
LINE
  5
BB
330
20
100
AcDbEntity
  8
_0-0_
  6
Continuous
 62
     4
100
AcDbLine
 10
3761.434331797234
 20
2887.80529953917
 30
0.0
 11
3761.434331797234
 21
2947.80529953917
 31
0.0
  0
LINE
  5
BC
330
20
100
AcDbEntity
  8
_0-0_
  6
Continuous
 62
     4
100
AcDbLine
 10
4016.434331797233
 20
2757.80529953917
 30
0.0
 11
3881.434331797234
 21
2757.80529953917
 31
0.0
  0
LINE
  5
BD
330
20
100
AcDbEntity
  8
_0-0_
  6
Continuous
 62
     4
100
AcDbLine
 10
4016.434331797233
 20
1857.80529953917
 30
0.0
 11
3881.434331797234
 21
1857.80529953917
 31
0.0
  0
LINE
  5
BE
330
20
100
AcDbEntity
  8
_0-0_
  6
Continuous
 62
     4
100
AcDbLine
 10
3896.434331797234
 20
2867.80529953917
 30
0.0
 11
3896.434331797234
 21
2807.80529953917
 31
0.0
  0
LINE
  5
BF
330
20
100
AcDbEntity
  8
_0-0_
  6
Continuous
 62
     4
100
AcDbLine
 10
3896.434331797234
 20
2757.80529953917
 30
0.0
 11
3896.434331797234
 21
2697.80529953917
 31
0.0
  0
LINE
  5
C0
330
20
100
AcDbEntity
  8
_0-0_
  6
Continuous
 62
     4
100
AcDbLine
 10
3896.434331797234
 20
1917.80529953917
 30
0.0
 11
3896.434331797234
 21
1857.80529953917
 31
0.0
  0
LINE
  5
C1
330
20
100
AcDbEntity
  8
_0-0_
  6
Continuous
 62
     4
100
AcDbLine
 10
3896.434331797234
 20
1807.80529953917
 30
0.0
 11
3896.434331797234
 21
1747.80529953917
 31
0.0
  0
LINE
  5
C2
330
20
100
AcDbEntity
  8
_0-0_
  6
Continuous
 62
     4
100
AcDbLine
 10
3896.434331797234
 20
2807.80529953917
 30
0.0
 11
3896.434331797234
 21
2757.80529953917
 31
0.0
  0
LINE
  5
C3
330
20
100
AcDbEntity
  8
_0-0_
  6
Continuous
 62
     4
100
AcDbLine
 10
3896.434331797234
 20
1857.80529953917
 30
0.0
 11
3896.434331797234
 21
1807.80529953917
 31
0.0
  0
LINE
  5
C4
330
20
100
AcDbEntity
  8
_0-0_
  6
Continuous
 62
     4
100
AcDbLine
 10
3896.434331797234
 20
2807.80529953917
 30
0.0
 11
3887.116846173544
 21
2842.578629285577
 31
0.0
  0
LINE
  5
C5
330
20
100
AcDbEntity
  8
_0-0_
  6
Continuous
 62
     4
100
AcDbLine
 10
3896.434331797234
 20
2807.80529953917
 30
0.0
 11
3905.751817420926
 21
2842.578629285577
 31
0.0
  0
LINE
  5
C6
330
20
100
AcDbEntity
  8
_0-0_
  6
Continuous
 62
     4
100
AcDbLine
 10
3761.434331797234
 20
2887.80529953917
 30
0.0
 11
3752.116846173544
 21
2922.578629285577
 31
0.0
  0
LINE
  5
C7
330
20
100
AcDbEntity
  8
_0-0_
  6
Continuous
 62
     4
100
AcDbLine
 10
3761.434331797234
 20
2887.80529953917
 30
0.0
 11
3770.751817420926
 21
2922.578629285577
 31
0.0
  0
LINE
  5
C8
330
20
100
AcDbEntity
  8
_0-0_
  6
Continuous
 62
     4
100
AcDbLine
 10
3761.434331797234
 20
2807.80529953917
 30
0.0
 11
3770.751817420926
 21
2773.031969792763
 31
0.0
  0
LINE
  5
C9
330
20
100
AcDbEntity
  8
_0-0_
  6
Continuous
 62
     4
100
AcDbLine
 10
3761.434331797234
 20
2807.80529953917
 30
0.0
 11
3752.116846173544
 21
2773.031969792763
 31
0.0
  0
LINE
  5
CA
330
20
100
AcDbEntity
  8
_0-0_
  6
Continuous
 62
     4
100
AcDbLine
 10
3896.434331797234
 20
1857.80529953917
 30
0.0
 11
3887.116846173544
 21
1892.578629285576
 31
0.0
  0
LINE
  5
CB
330
20
100
AcDbEntity
  8
_0-0_
  6
Continuous
 62
     4
100
AcDbLine
 10
3896.434331797234
 20
1857.80529953917
 30
0.0
 11
3905.751817420926
 21
1892.578629285576
 31
0.0
  0
LINE
  5
CC
330
20
100
AcDbEntity
  8
_0-0_
  6
Continuous
 62
     4
100
AcDbLine
 10
3896.434331797234
 20
1807.80529953917
 30
0.0
 11
3905.751817420926
 21
1773.031969792763
 31
0.0
  0
LINE
  5
CD
330
20
100
AcDbEntity
  8
_0-0_
  6
Continuous
 62
     4
100
AcDbLine
 10
3896.434331797234
 20
1807.80529953917
 30
0.0
 11
3887.116846173544
 21
1773.031969792763
 31
0.0
  0
LINE
  5
CE
330
20
100
AcDbEntity
  8
_0-0_
  6
Continuous
 62
     4
100
AcDbLine
 10
3761.434331797234
 20
1807.80529953917
 30
0.0
 11
3752.116846173544
 21
1842.578629285576
 31
0.0
  0
LINE
  5
CF
330
20
100
AcDbEntity
  8
_0-0_
  6
Continuous
 62
     4
100
AcDbLine
 10
3761.434331797234
 20
1807.80529953917
 30
0.0
 11
3770.751817420926
 21
1842.578629285576
 31
0.0
  0
LINE
  5
D0
330
20
100
AcDbEntity
  8
_0-0_
  6
Continuous
 62
     4
100
AcDbLine
 10
3761.434331797234
 20
1727.80529953917
 30
0.0
 11
3770.751817420926
 21
1693.031969792764
 31
0.0
  0
LINE
  5
D1
330
20
100
AcDbEntity
  8
_0-0_
  6
Continuous
 62
     4
100
AcDbLine
 10
3761.434331797234
 20
1727.80529953917
 30
0.0
 11
3752.116846173544
 21
1693.031969792764
 31
0.0
  0
LINE
  5
D2
330
20
100
AcDbEntity
  8
_0-0_
  6
Continuous
 62
     4
100
AcDbLine
 10
3626.434331797233
 20
1727.80529953917
 30
0.0
 11
3617.116846173543
 21
1762.578629285576
 31
0.0
  0
LINE
  5
D3
330
20
100
AcDbEntity
  8
_0-0_
  6
Continuous
 62
     4
100
AcDbLine
 10
3626.434331797233
 20
1727.80529953917
 30
0.0
 11
3635.751817420926
 21
1762.578629285576
 31
0.0
  0
LINE
  5
D4
330
20
100
AcDbEntity
  8
_0-0_
  6
Continuous
 62
     4
100
AcDbLine
 10
3626.434331797233
 20
2887.80529953917
 30
0.0
 11
3635.751817420926
 21
2853.031969792763
 31
0.0
  0
LINE
  5
D5
330
20
100
AcDbEntity
  8
_0-0_
  6
Continuous
 62
     4
100
AcDbLine
 10
3626.434331797233
 20
2887.80529953917
 30
0.0
 11
3617.116846173543
 21
2853.031969792763
 31
0.0
  0
TEXT
  5
D6
330
20
100
AcDbEntity
  8
_0-0_
 62
     7
100
AcDbText
 10
3606.858321723289
 20
2244.823705926481
 30
0.0
 40
60.0
  1
1160
 50
90.0
100
AcDbText
  0
TEXT
  5
D7
330
20
100
AcDbEntity
  8
_0-0_
 62
     7
100
AcDbText
 10
3746.907619762083
 20
2244.823705926481
 30
0.0
 40
60.0
  1
1000
 50
90.0
100
AcDbText
  0
TEXT
  5
D8
330
20
100
AcDbEntity
  8
_0-0_
 62
     7
100
AcDbText
 10
3741.814918015217
 20
1757.970050930509
 30
0.0
 40
60.0
  1
80
 50
90.0
100
AcDbText
  0
TEXT
  5
D9
330
20
100
AcDbEntity
  8
_0-0_
 62
     7
100
AcDbText
 10
3744.361268888651
 20
2777.652362828356
 30
0.0
 40
60.0
  1
80
 50
90.0
100
AcDbText
  0
TEXT
  5
DA
330
20
100
AcDbEntity
  8
_0-0_
 62
     7
100
AcDbText
 10
3871.678812560283
 20
2701.261836625377
 30
0.0
 40
60.0
  1
50
 50
90.0
100
AcDbText
  0
TEXT
  5
DB
330
20
100
AcDbEntity
  8
_0-0_
 62
     7
100
AcDbText
 10
3871.678812560283
 20
1834.360577133488
 30
0.0
 40
60.0
  1
50
 50
90.0
100
AcDbText
  0
LINE
  5
DC
330
20
100
AcDbEntity
  8
_0-0_
  6
Continuous
 62
     4
100
AcDbLine
 10
4693.566366153198
 20
2519.937333895134
 30
0.0
 11
4269.30229744127
 21
2095.673265183206
 31
0.0
  0
LINE
  5
DD
330
20
100
AcDbEntity
  8
_0-0_
  6
Continuous
 62
     4
100
AcDbLine
 10
4789.025781613384
 20
2615.396749355318
 30
0.0
 11
4693.566366153198
 21
2519.937333895134
 31
0.0
  0
LINE
  5
DE
330
20
100
AcDbEntity
  8
_0-0_
  6
Continuous
 62
     4
100
AcDbLine
 10
4269.30229744127
 20
2095.673265183206
 30
0.0
 11
4173.842881981086
 21
2000.213849723022
 31
0.0
  0
LINE
  5
DF
330
20
100
AcDbEntity
  8
_0-0_
  6
Continuous
 62
     4
100
AcDbLine
 10
4789.025781613384
 20
2615.396749355318
 30
0.0
 11
4771.025781613381
 21
2584.219834819077
 31
0.0
  0
LINE
  5
E0
330
20
100
AcDbEntity
  8
_0-0_
  6
Continuous
 62
     4
100
AcDbLine
 10
4789.025781613384
 20
2615.396749355318
 30
0.0
 11
4757.848867077142
 21
2597.396749355318
 31
0.0
  0
LINE
  5
E1
330
20
100
AcDbEntity
  8
_0-0_
  6
Continuous
 62
     4
100
AcDbLine
 10
4693.566366153198
 20
2519.937333895134
 30
0.0
 11
4711.566366153198
 21
2551.114248431374
 31
0.0
  0
LINE
  5
E2
330
20
100
AcDbEntity
  8
_0-0_
  6
Continuous
 62
     4
100
AcDbLine
 10
4693.566366153198
 20
2519.937333895134
 30
0.0
 11
4724.743280689439
 21
2537.937333895134
 31
0.0
  0
LINE
  5
E3
330
20
100
AcDbEntity
  8
_0-0_
  6
Continuous
 62
     4
100
AcDbLine
 10
4693.566366153198
 20
2519.937333895134
 30
0.0
 11
4675.566366153199
 21
2488.760419358894
 31
0.0
  0
LINE
  5
E4
330
20
100
AcDbEntity
  8
_0-0_
  6
Continuous
 62
     4
100
AcDbLine
 10
4693.566366153198
 20
2519.937333895134
 30
0.0
 11
4662.389451616959
 21
2501.937333895134
 31
0.0
  0
LINE
  5
E5
330
20
100
AcDbEntity
  8
_0-0_
  6
Continuous
 62
     4
100
AcDbLine
 10
4269.30229744127
 20
2095.673265183206
 30
0.0
 11
4287.302297441271
 21
2126.850179719445
 31
0.0
  0
LINE
  5
E6
330
20
100
AcDbEntity
  8
_0-0_
  6
Continuous
 62
     4
100
AcDbLine
 10
4269.30229744127
 20
2095.673265183206
 30
0.0
 11
4300.47921197751
 21
2113.673265183206
 31
0.0
  0
LINE
  5
E7
330
20
100
AcDbEntity
  8
_0-0_
  6
Continuous
 62
     4
100
AcDbLine
 10
4269.30229744127
 20
2095.673265183206
 30
0.0
 11
4251.30229744127
 21
2064.496350646966
 31
0.0
  0
LINE
  5
E8
330
20
100
AcDbEntity
  8
_0-0_
  6
Continuous
 62
     4
100
AcDbLine
 10
4269.30229744127
 20
2095.673265183206
 30
0.0
 11
4238.125382905031
 21
2077.673265183206
 31
0.0
  0
LINE
  5
E9
330
20
100
AcDbEntity
  8
_0-0_
  6
Continuous
 62
     4
100
AcDbLine
 10
4173.842881981086
 20
2000.213849723022
 30
0.0
 11
4191.842881981087
 21
2031.390764259262
 31
0.0
  0
LINE
  5
EA
330
20
100
AcDbEntity
  8
_0-0_
  6
Continuous
 62
     4
100
AcDbLine
 10
4173.842881981086
 20
2000.213849723022
 30
0.0
 11
4205.019796517327
 21
2018.213849723021
 31
0.0
  0
TEXT
  5
EB
330
20
100
AcDbEntity
  8
_0-0_
 62
     7
100
AcDbText
 10
4408.29054489536
 20
2258.209089481673
 30
0.0
 40
60.0
  1
φ600
 50
45.0
100
AcDbText
  0
TEXT
  5
EC
330
20
100
AcDbEntity
  8
_0-0_
 62
     7
100
AcDbText
 10
4175.54828491176
 20
2029.737329681257
 30
0.0
 40
60.0
  1
135
 50
45.00000000000002
100
AcDbText
  0
TEXT
  5
ED
330
20
100
AcDbEntity
  8
_0-0_
 62
     7
100
AcDbText
 10
4688.008306894
 20
2544.33260175509
 30
0.0
 40
60.0
  1
135
 50
45.00000000000002
100
AcDbText
  0
LINE
  5
EE
330
20
100
AcDbEntity
  8
_0-0_
  6
DASHED1
 62
   136
100
AcDbLine
 10
4311.434331797233
 20
2862.80529953917
 30
0.0
 11
4911.434331797234
 21
2862.80529953917
 31
0.0
  0
LINE
  5
EF
330
20
100
AcDbEntity
  8
_0-0_
  6
DASHED1
 62
   136
100
AcDbLine
 10
4288.934331797233
 20
2887.80529953917
 30
0.0
 11
4311.434331797233
 21
2862.80529953917
 31
0.0
  0
LINE
  5
F0
330
20
100
AcDbEntity
  8
_0-0_
  6
DASHED1
 62
   136
100
AcDbLine
 10
4933.934331797234
 20
2887.80529953917
 30
0.0
 11
4911.434331797234
 21
2862.80529953917
 31
0.0
  0
LINE
  5
F1
330
20
100
AcDbEntity
  8
_0-0_
  6
DASHED1
 62
   136
100
AcDbLine
 10
4311.434331797233
 20
1752.80529953917
 30
0.0
 11
4911.434331797234
 21
1752.80529953917
 31
0.0
  0
LINE
  5
F2
330
20
100
AcDbEntity
  8
_0-0_
  6
DASHED1
 62
   136
100
AcDbLine
 10
4311.434331797233
 20
1752.80529953917
 30
0.0
 11
4288.934331797233
 21
1727.80529953917
 31
0.0
  0
LINE
  5
F3
330
20
100
AcDbEntity
  8
_0-0_
  6
DASHED1
 62
   136
100
AcDbLine
 10
4911.434331797234
 20
1752.80529953917
 30
0.0
 11
4933.934331797234
 21
1727.80529953917
 31
0.0
  0
LINE
  5
F4
330
20
100
AcDbEntity
  8
_0-0_
  6
DASHED1
 62
   136
100
AcDbLine
 10
4056.434331797233
 20
2607.805299539169
 30
0.0
 11
4056.434331797233
 21
2007.80529953917
 31
0.0
  0
LINE
  5
F5
330
20
100
AcDbEntity
  8
_0-0_
  6
DASHED1
 62
   136
100
AcDbLine
 10
4056.434331797233
 20
2607.805299539169
 30
0.0
 11
4031.434331797234
 21
2630.30529953917
 31
0.0
  0
LINE
  5
F6
330
20
100
AcDbEntity
  8
_0-0_
  6
DASHED1
 62
   136
100
AcDbLine
 10
4056.434331797233
 20
2007.80529953917
 30
0.0
 11
4031.434331797234
 21
1985.305299539169
 31
0.0
  0
LINE
  5
F7
330
20
100
AcDbEntity
  8
_0-0_
  6
DASHED1
 62
   136
100
AcDbLine
 10
5166.434331797234
 20
2607.805299539169
 30
0.0
 11
5166.434331797234
 21
2007.80529953917
 31
0.0
  0
LINE
  5
F8
330
20
100
AcDbEntity
  8
_0-0_
  6
DASHED1
 62
   136
100
AcDbLine
 10
5191.434331797235
 20
2630.30529953917
 30
0.0
 11
5166.434331797234
 21
2607.805299539169
 31
0.0
  0
LINE
  5
F9
330
20
100
AcDbEntity
  8
_0-0_
  6
DASHED1
 62
   136
100
AcDbLine
 10
5166.434331797234
 20
2007.80529953917
 30
0.0
 11
5191.434331797235
 21
1985.305299539169
 31
0.0
  0
LINE
  5
FA
330
20
100
AcDbEntity
  8
_0-0_
  6
Continuous
 62
     4
100
AcDbLine
 10
4911.434331797234
 20
1712.80529953917
 30
0.0
 11
4911.434331797234
 21
1577.80529953917
 31
0.0
  0
LINE
  5
FB
330
20
100
AcDbEntity
  8
_0-0_
  6
Continuous
 62
     4
100
AcDbLine
 10
4311.434331797233
 20
1712.80529953917
 30
0.0
 11
4311.434331797233
 21
1577.80529953917
 31
0.0
  0
LINE
  5
FC
330
20
100
AcDbEntity
  8
_0-0_
  6
Continuous
 62
     4
100
AcDbLine
 10
4311.434331797233
 20
1592.80529953917
 30
0.0
 11
4911.434331797234
 21
1592.80529953917
 31
0.0
  0
LINE
  5
FD
330
20
100
AcDbEntity
  8
_0-0_
  6
Continuous
 62
     4
100
AcDbLine
 10
4911.434331797234
 20
1592.80529953917
 30
0.0
 11
4876.661002050828
 21
1583.487813915479
 31
0.0
  0
LINE
  5
FE
330
20
100
AcDbEntity
  8
_0-0_
  6
Continuous
 62
     4
100
AcDbLine
 10
4911.434331797234
 20
1592.80529953917
 30
0.0
 11
4876.661002050828
 21
1602.12278516286
 31
0.0
  0
LINE
  5
FF
330
20
100
AcDbEntity
  8
_0-0_
  6
Continuous
 62
     4
100
AcDbLine
 10
4311.434331797233
 20
1592.80529953917
 30
0.0
 11
4346.20766154364
 21
1602.12278516286
 31
0.0
  0
LINE
  5
100
330
20
100
AcDbEntity
  8
_0-0_
  6
Continuous
 62
     4
100
AcDbLine
 10
4311.434331797233
 20
1592.80529953917
 30
0.0
 11
4346.20766154364
 21
1583.487813915479
 31
0.0
  0
TEXT
  5
101
330
20
100
AcDbEntity
  8
_0-0_
 62
     7
100
AcDbText
 10
4529.369978679048
 20
1603.725418887638
 30
0.0
 40
60.0
  1
600
100
AcDbText
  0
CIRCLE
  5
102
330
20
100
AcDbEntity
  8
_0-0_
  6
Continuous
 62
   136
100
AcDbCircle
 10
4611.434331797234
 20
2307.80529953917
 30
0.0
 40
90.0
  0
CIRCLE
  5
103
330
20
100
AcDbEntity
  8
_0-0_
  6
Continuous
 62
   136
100
AcDbCircle
 10
4611.434331797234
 20
2307.80529953917
 30
0.0
 40
100.0
  0
LINE
  5
104
330
20
100
AcDbEntity
  8
_0-0_
  6
Continuous
 62
     4
100
AcDbLine
 10
4401.434331797233
 20
1767.80529953917
 30
0.0
 11
4099.907334426733
 21
1492.80529953917
 31
0.0
  0
LINE
  5
105
330
20
100
AcDbEntity
  8
_0-0_
  6
Continuous
 62
     4
100
AcDbLine
 10
4401.434331797233
 20
1767.80529953917
 30
0.0
 11
4382.020367985206
 21
1737.488670288785
 31
0.0
  0
LINE
  5
106
330
20
100
AcDbEntity
  8
_0-0_
  6
Continuous
 62
     4
100
AcDbLine
 10
4401.434331797233
 20
1767.80529953917
 30
0.0
 11
4369.463031322673
 21
1751.257310357235
 31
0.0
  0
TEXT
  5
107
330
20
100
AcDbEntity
  8
_0-0_
 62
     7
100
AcDbText
 10
3527.3532854352
 20
1508.194907515556
 30
0.0
 40
60.0
  1
インサート　M12
100
AcDbText
  0
LINE
  5
108
330
20
100
AcDbEntity
  8
_0-0_
  6
Continuous
 62
     4
100
AcDbLine
 10
4099.907334426733
 20
1492.80529953917
 30
0.0
 11
3524.877996284661
 21
1492.80529953917
 31
0.0
  0
TEXT
  5
109
330
20
100
AcDbEntity
  8
_0-0_
 62
     7
100
AcDbText
 10
4551.829885960628
 20
3308.255590477607
 30
0.0
 40
60.0
  1
1160
100
AcDbText
  0
TEXT
  5
10A
330
20
100
AcDbEntity
  8
_0-0_
 62
     7
100
AcDbText
 10
3871.60310297191
 20
559.9719572105493
 30
0.0
 40
60.0
  1
H-1015(CR-600)
100
AcDbText
  0
TEXT
  5
10B
330
20
100
AcDbEntity
  8
_0-0_
 62
     7
100
AcDbText
 10
4946.258988024474
 20
461.7129204312433
 30
0.0
 40
60.0
  1
FKHH-H1015-CR600
 41
0.88
100
AcDbText
  0
LINE
  5
10C
330
20
100
AcDbEntity
  8
_0-0_
  6
DASHED1
 62
     6
100
AcDbLine
 10
4401.434331797233
 20
2847.805299539169
 30
0.0
 11
4401.434331797233
 21
2807.80529953917
 31
0.0
  0
LINE
  5
10D
330
20
100
AcDbEntity
  8
_0-0_
  6
DASHED1
 62
     6
100
AcDbLine
 10
4401.434331797233
 20
2847.805299539169
 30
0.0
 11
4421.434331797233
 21
2847.805299539169
 31
0.0
  0
LINE
  5
10E
330
20
100
AcDbEntity
  8
_0-0_
  6
DASHED1
 62
     6
100
AcDbLine
 10
4421.434331797233
 20
2847.805299539169
 30
0.0
 11
4421.434331797233
 21
2807.80529953917
 31
0.0
  0
LINE
  5
10F
330
20
100
AcDbEntity
  8
_0-0_
  6
DASHED1
 62
     6
100
AcDbLine
 10
4601.434331797235
 20
2847.805299539169
 30
0.0
 11
4621.434331797234
 21
2847.805299539169
 31
0.0
  0
LINE
  5
110
330
20
100
AcDbEntity
  8
_0-0_
  6
DASHED1
 62
     6
100
AcDbLine
 10
4601.434331797235
 20
2847.805299539169
 30
0.0
 11
4601.434331797235
 21
2807.80529953917
 31
0.0
  0
LINE
  5
111
330
20
100
AcDbEntity
  8
_0-0_
  6
DASHED1
 62
     6
100
AcDbLine
 10
4621.434331797234
 20
2847.805299539169
 30
0.0
 11
4621.434331797234
 21
2807.80529953917
 31
0.0
  0
LINE
  5
112
330
20
100
AcDbEntity
  8
_0-0_
  6
DASHED1
 62
     6
100
AcDbLine
 10
4801.434331797235
 20
2847.805299539169
 30
0.0
 11
4801.434331797235
 21
2807.80529953917
 31
0.0
  0
LINE
  5
113
330
20
100
AcDbEntity
  8
_0-0_
  6
DASHED1
 62
     6
100
AcDbLine
 10
4801.434331797235
 20
2847.805299539169
 30
0.0
 11
4821.434331797235
 21
2847.805299539169
 31
0.0
  0
LINE
  5
114
330
20
100
AcDbEntity
  8
_0-0_
  6
DASHED1
 62
     6
100
AcDbLine
 10
4821.434331797235
 20
2847.805299539169
 30
0.0
 11
4821.434331797235
 21
2807.80529953917
 31
0.0
  0
LINE
  5
115
330
20
100
AcDbEntity
  8
_0-0_
  6
DASHED1
 62
     6
100
AcDbLine
 10
5111.434331797234
 20
2517.805299539169
 30
0.0
 11
5151.434331797235
 21
2517.805299539169
 31
0.0
  0
LINE
  5
116
330
20
100
AcDbEntity
  8
_0-0_
  6
DASHED1
 62
     6
100
AcDbLine
 10
5111.434331797234
 20
2497.80529953917
 30
0.0
 11
5151.434331797235
 21
2497.80529953917
 31
0.0
  0
LINE
  5
117
330
20
100
AcDbEntity
  8
_0-0_
  6
DASHED1
 62
     6
100
AcDbLine
 10
5151.434331797235
 20
2517.805299539169
 30
0.0
 11
5151.434331797235
 21
2497.80529953917
 31
0.0
  0
LINE
  5
118
330
20
100
AcDbEntity
  8
_0-0_
  6
DASHED1
 62
     6
100
AcDbLine
 10
5111.434331797234
 20
2317.80529953917
 30
0.0
 11
5151.434331797235
 21
2317.80529953917
 31
0.0
  0
LINE
  5
119
330
20
100
AcDbEntity
  8
_0-0_
  6
DASHED1
 62
     6
100
AcDbLine
 10
5111.434331797234
 20
2297.80529953917
 30
0.0
 11
5151.434331797235
 21
2297.80529953917
 31
0.0
  0
LINE
  5
11A
330
20
100
AcDbEntity
  8
_0-0_
  6
DASHED1
 62
     6
100
AcDbLine
 10
5151.434331797235
 20
2317.80529953917
 30
0.0
 11
5151.434331797235
 21
2297.80529953917
 31
0.0
  0
LINE
  5
11B
330
20
100
AcDbEntity
  8
_0-0_
  6
DASHED1
 62
     6
100
AcDbLine
 10
5111.434331797234
 20
2117.80529953917
 30
0.0
 11
5151.434331797235
 21
2117.80529953917
 31
0.0
  0
LINE
  5
11C
330
20
100
AcDbEntity
  8
_0-0_
  6
DASHED1
 62
     6
100
AcDbLine
 10
5111.434331797234
 20
2097.80529953917
 30
0.0
 11
5151.434331797235
 21
2097.80529953917
 31
0.0
  0
LINE
  5
11D
330
20
100
AcDbEntity
  8
_0-0_
  6
DASHED1
 62
     6
100
AcDbLine
 10
5151.434331797235
 20
2117.80529953917
 30
0.0
 11
5151.434331797235
 21
2097.80529953917
 31
0.0
  0
LINE
  5
11E
330
20
100
AcDbEntity
  8
_0-0_
  6
DASHED1
 62
     6
100
AcDbLine
 10
4401.434331797233
 20
1807.80529953917
 30
0.0
 11
4401.434331797233
 21
1767.80529953917
 31
0.0
  0
LINE
  5
11F
330
20
100
AcDbEntity
  8
_0-0_
  6
DASHED1
 62
     6
100
AcDbLine
 10
4401.434331797233
 20
1767.80529953917
 30
0.0
 11
4421.434331797233
 21
1767.80529953917
 31
0.0
  0
LINE
  5
120
330
20
100
AcDbEntity
  8
_0-0_
  6
DASHED1
 62
     6
100
AcDbLine
 10
4421.434331797233
 20
1807.80529953917
 30
0.0
 11
4421.434331797233
 21
1767.80529953917
 31
0.0
  0
LINE
  5
121
330
20
100
AcDbEntity
  8
_0-0_
  6
DASHED1
 62
     6
100
AcDbLine
 10
4601.434331797235
 20
1807.80529953917
 30
0.0
 11
4601.434331797235
 21
1767.80529953917
 31
0.0
  0
LINE
  5
122
330
20
100
AcDbEntity
  8
_0-0_
  6
DASHED1
 62
     6
100
AcDbLine
 10
4601.434331797235
 20
1767.80529953917
 30
0.0
 11
4621.434331797234
 21
1767.80529953917
 31
0.0
  0
LINE
  5
123
330
20
100
AcDbEntity
  8
_0-0_
  6
DASHED1
 62
     6
100
AcDbLine
 10
4621.434331797234
 20
1807.80529953917
 30
0.0
 11
4621.434331797234
 21
1767.80529953917
 31
0.0
  0
LINE
  5
124
330
20
100
AcDbEntity
  8
_0-0_
  6
DASHED1
 62
     6
100
AcDbLine
 10
4801.434331797235
 20
1807.80529953917
 30
0.0
 11
4801.434331797235
 21
1767.80529953917
 31
0.0
  0
LINE
  5
125
330
20
100
AcDbEntity
  8
_0-0_
  6
DASHED1
 62
     6
100
AcDbLine
 10
4801.434331797235
 20
1767.80529953917
 30
0.0
 11
4821.434331797235
 21
1767.80529953917
 31
0.0
  0
LINE
  5
126
330
20
100
AcDbEntity
  8
_0-0_
  6
DASHED1
 62
     6
100
AcDbLine
 10
4821.434331797235
 20
1807.80529953917
 30
0.0
 11
4821.434331797235
 21
1767.80529953917
 31
0.0
  0
LINE
  5
127
330
20
100
AcDbEntity
  8
_0-0_
  6
DASHED1
 62
     6
100
AcDbLine
 10
4071.434331797234
 20
2517.805299539169
 30
0.0
 11
4111.434331797233
 21
2517.805299539169
 31
0.0
  0
LINE
  5
128
330
20
100
AcDbEntity
  8
_0-0_
  6
DASHED1
 62
     6
100
AcDbLine
 10
4071.434331797234
 20
2497.80529953917
 30
0.0
 11
4111.434331797233
 21
2497.80529953917
 31
0.0
  0
LINE
  5
129
330
20
100
AcDbEntity
  8
_0-0_
  6
DASHED1
 62
     6
100
AcDbLine
 10
4071.434331797234
 20
2517.805299539169
 30
0.0
 11
4071.434331797234
 21
2497.80529953917
 31
0.0
  0
LINE
  5
12A
330
20
100
AcDbEntity
  8
_0-0_
  6
DASHED1
 62
     6
100
AcDbLine
 10
4071.434331797234
 20
2317.80529953917
 30
0.0
 11
4111.434331797233
 21
2317.80529953917
 31
0.0
  0
LINE
  5
12B
330
20
100
AcDbEntity
  8
_0-0_
  6
DASHED1
 62
     6
100
AcDbLine
 10
4071.434331797234
 20
2317.80529953917
 30
0.0
 11
4071.434331797234
 21
2297.80529953917
 31
0.0
  0
LINE
  5
12C
330
20
100
AcDbEntity
  8
_0-0_
  6
DASHED1
 62
     6
100
AcDbLine
 10
4071.434331797234
 20
2297.80529953917
 30
0.0
 11
4111.434331797233
 21
2297.80529953917
 31
0.0
  0
LINE
  5
12D
330
20
100
AcDbEntity
  8
_0-0_
  6
DASHED1
 62
     6
100
AcDbLine
 10
4071.434331797234
 20
2117.80529953917
 30
0.0
 11
4111.434331797233
 21
2117.80529953917
 31
0.0
  0
LINE
  5
12E
330
20
100
AcDbEntity
  8
_0-0_
  6
DASHED1
 62
     6
100
AcDbLine
 10
4071.434331797234
 20
2117.80529953917
 30
0.0
 11
4071.434331797234
 21
2097.80529953917
 31
0.0
  0
LINE
  5
12F
330
20
100
AcDbEntity
  8
_0-0_
  6
DASHED1
 62
     6
100
AcDbLine
 10
4071.434331797234
 20
2097.80529953917
 30
0.0
 11
4111.434331797233
 21
2097.80529953917
 31
0.0
  0
LINE
  5
130
330
20
100
AcDbEntity
  8
_0-0_
  6
Continuous
 62
   136
100
AcDbLine
 10
4344.506126734148
 20
2574.733504602257
 30
0.0
 11
4540.723653678579
 21
2378.515977657825
 31
0.0
  0
LINE
  5
131
330
20
100
AcDbEntity
  8
_0-0_
  6
Continuous
 62
   136
100
AcDbLine
 10
4682.145009915887
 20
2378.515977657825
 30
0.0
 11
4748.36253686032
 21
2444.733504602256
 31
0.0
  0
LINE
  5
132
330
20
100
AcDbEntity
  8
_0-0_
  6
Continuous
 62
   136
100
AcDbLine
 10
4682.145009915887
 20
2237.094621420515
 30
0.0
 11
4748.36253686032
 21
2170.877094476084
 31
0.0
  0
LINE
  5
133
330
20
100
AcDbEntity
  8
_0-0_
  6
Continuous
 62
   136
100
AcDbLine
 10
4344.506126734148
 20
2040.877094476083
 30
0.0
 11
4540.723653678579
 21
2237.094621420515
 31
0.0
  0
LINE
  5
134
330
20
100
AcDbEntity
  8
_0-0_
  6
DASHED1
 62
   136
100
AcDbLine
 10
4748.36253686032
 20
2444.733504602256
 30
0.0
 11
5061.434331797234
 21
2757.80529953917
 31
0.0
  0
LINE
  5
135
330
20
100
AcDbEntity
  8
_0-0_
  6
DASHED1
 62
   136
100
AcDbLine
 10
4344.506126734148
 20
2574.733504602257
 30
0.0
 11
4161.434331797233
 21
2757.80529953917
 31
0.0
  0
LINE
  5
136
330
20
100
AcDbEntity
  8
_0-0_
  6
DASHED1
 62
   136
100
AcDbLine
 10
4344.506126734148
 20
2040.877094476083
 30
0.0
 11
4161.434331797233
 21
1857.80529953917
 31
0.0
  0
LINE
  5
137
330
20
100
AcDbEntity
  8
_0-0_
  6
DASHED1
 62
   136
100
AcDbLine
 10
4748.36253686032
 20
2170.877094476084
 30
0.0
 11
5061.434331797234
 21
1857.80529953917
 31
0.0
  0
LINE
  5
138
330
20
100
AcDbEntity
  8
_0-0_
  6
Continuous
 62
     4
100
AcDbLine
 10
1318.479262672811
 20
1308.303453015427
 30
0.0
 11
643.4792626728113
 21
1308.303453015427
 31
0.0
  0
LINE
  5
139
330
20
100
AcDbEntity
  8
_0-0_
  6
Continuous
 62
     7
100
AcDbLine
 10
1333.479262672811
 20
2408.303453015427
 30
0.0
 11
2493.479262672812
 21
2408.303453015427
 31
0.0
  0
LINE
  5
13A
330
20
100
AcDbEntity
  8
_0-0_
  6
Continuous
 62
     7
100
AcDbLine
 10
1333.479262672811
 20
1908.303453015426
 30
0.0
 11
2493.479262672812
 21
1908.303453015426
 31
0.0
  0
LINE
  5
13B
330
20
100
AcDbEntity
  8
_0-0_
  6
DASHED1
 62
   136
100
AcDbLine
 10
1413.479262672811
 20
1458.303453015427
 30
0.0
 11
2413.479262672812
 21
1458.303453015427
 31
0.0
  0
LINE
  5
13C
330
20
100
AcDbEntity
  8
_0-0_
  6
DASHED1
 62
   136
100
AcDbLine
 10
1413.479262672811
 20
1458.303453015427
 30
0.0
 11
1463.479262672811
 21
1408.303453015427
 31
0.0
  0
LINE
  5
13D
330
20
100
AcDbEntity
  8
_0-0_
  6
DASHED1
 62
   136
100
AcDbLine
 10
2413.479262672812
 20
1458.303453015427
 30
0.0
 11
2363.479262672812
 21
1408.303453015427
 31
0.0
  0
LINE
  5
13E
330
20
100
AcDbEntity
  8
_0-0_
  6
Continuous
 62
     7
100
AcDbLine
 10
2493.479262672812
 20
1318.303453015427
 30
0.0
 11
2483.479262672812
 21
1308.303453015427
 31
0.0
  0
LINE
  5
13F
330
20
100
AcDbEntity
  8
_0-0_
  6
Continuous
 62
     7
100
AcDbLine
 10
1333.479262672811
 20
1318.303453015427
 30
0.0
 11
1343.479262672811
 21
1308.303453015427
 31
0.0
  0
LINE
  5
140
330
20
100
AcDbEntity
  8
_0-0_
  6
Continuous
 62
     7
100
AcDbLine
 10
1343.479262672811
 20
1308.303453015427
 30
0.0
 11
2483.479262672812
 21
1308.303453015427
 31
0.0
  0
LINE
  5
141
330
20
100
AcDbEntity
  8
_0-0_
  6
Continuous
 62
     4
100
AcDbLine
 10
1318.479262672811
 20
2408.303453015427
 30
0.0
 11
1048.479262672811
 21
2408.303453015427
 31
0.0
  0
LINE
  5
142
330
20
100
AcDbEntity
  8
_0-0_
  6
Continuous
 62
     4
100
AcDbLine
 10
1318.479262672811
 20
1908.303453015426
 30
0.0
 11
1048.479262672811
 21
1908.303453015426
 31
0.0
  0
LINE
  5
143
330
20
100
AcDbEntity
  8
_0-0_
  6
Continuous
 62
     4
100
AcDbLine
 10
1318.479262672811
 20
1768.303453015426
 30
0.0
 11
1183.479262672811
 21
1768.303453015426
 31
0.0
  0
LINE
  5
144
330
20
100
AcDbEntity
  8
_0-0_
  6
Continuous
 62
     4
100
AcDbLine
 10
1318.479262672811
 20
1468.303453015426
 30
0.0
 11
1183.479262672811
 21
1468.303453015426
 31
0.0
  0
LINE
  5
145
330
20
100
AcDbEntity
  8
_0-0_
  6
Continuous
 62
     4
100
AcDbLine
 10
1198.479262672811
 20
1768.303453015426
 30
0.0
 11
1198.479262672811
 21
1468.303453015426
 31
0.0
  0
LINE
  5
146
330
20
100
AcDbEntity
  8
_0-0_
  6
Continuous
 62
     4
100
AcDbLine
 10
1198.479262672811
 20
1768.303453015426
 30
0.0
 11
1198.479262672811
 21
1908.303453015426
 31
0.0
  0
LINE
  5
147
330
20
100
AcDbEntity
  8
_0-0_
  6
Continuous
 62
     4
100
AcDbLine
 10
1063.479262672811
 20
2408.303453015427
 30
0.0
 11
1063.479262672811
 21
1908.303453015426
 31
0.0
  0
LINE
  5
148
330
20
100
AcDbEntity
  8
_0-0_
  6
Continuous
 62
     4
100
AcDbLine
 10
1318.479262672811
 20
1408.303453015427
 30
0.0
 11
913.4792626728113
 21
1408.303453015427
 31
0.0
  0
LINE
  5
149
330
20
100
AcDbEntity
  8
_0-0_
  6
Continuous
 62
     4
100
AcDbLine
 10
1198.479262672811
 20
1908.303453015426
 30
0.0
 11
1207.796748296502
 21
1873.53012326902
 31
0.0
  0
LINE
  5
14A
330
20
100
AcDbEntity
  8
_0-0_
  6
Continuous
 62
     4
100
AcDbLine
 10
1198.479262672811
 20
1908.303453015426
 30
0.0
 11
1189.16177704912
 21
1873.53012326902
 31
0.0
  0
LINE
  5
14B
330
20
100
AcDbEntity
  8
_0-0_
  6
Continuous
 62
     4
100
AcDbLine
 10
1198.479262672811
 20
1768.303453015426
 30
0.0
 11
1189.16177704912
 21
1803.076782761833
 31
0.0
  0
LINE
  5
14C
330
20
100
AcDbEntity
  8
_0-0_
  6
Continuous
 62
     4
100
AcDbLine
 10
1198.479262672811
 20
1768.303453015426
 30
0.0
 11
1207.796748296502
 21
1803.076782761833
 31
0.0
  0
LINE
  5
14D
330
20
100
AcDbEntity
  8
_0-0_
  6
Continuous
 62
     4
100
AcDbLine
 10
1198.479262672811
 20
1768.303453015426
 30
0.0
 11
1207.796748296502
 21
1733.53012326902
 31
0.0
  0
LINE
  5
14E
330
20
100
AcDbEntity
  8
_0-0_
  6
Continuous
 62
     4
100
AcDbLine
 10
1198.479262672811
 20
1768.303453015426
 30
0.0
 11
1189.16177704912
 21
1733.53012326902
 31
0.0
  0
LINE
  5
14F
330
20
100
AcDbEntity
  8
_0-0_
  6
Continuous
 62
     4
100
AcDbLine
 10
1198.479262672811
 20
1468.303453015426
 30
0.0
 11
1189.16177704912
 21
1503.076782761833
 31
0.0
  0
LINE
  5
150
330
20
100
AcDbEntity
  8
_0-0_
  6
Continuous
 62
     4
100
AcDbLine
 10
1198.479262672811
 20
1468.303453015426
 30
0.0
 11
1207.796748296502
 21
1503.076782761833
 31
0.0
  0
LINE
  5
151
330
20
100
AcDbEntity
  8
_0-0_
  6
Continuous
 62
     4
100
AcDbLine
 10
658.4792626728114
 20
1308.303453015427
 30
0.0
 11
649.1617770491204
 21
1343.076782761833
 31
0.0
  0
LINE
  5
152
330
20
100
AcDbEntity
  8
_0-0_
  6
Continuous
 62
     4
100
AcDbLine
 10
658.4792626728114
 20
1308.303453015427
 30
0.0
 11
667.7967482965022
 21
1343.076782761833
 31
0.0
  0
LINE
  5
153
330
20
100
AcDbEntity
  8
_0-0_
  6
Continuous
 62
     4
100
AcDbLine
 10
793.4792626728113
 20
1308.303453015427
 30
0.0
 11
784.1617770491206
 21
1343.076782761833
 31
0.0
  0
LINE
  5
154
330
20
100
AcDbEntity
  8
_0-0_
  6
Continuous
 62
     4
100
AcDbLine
 10
793.4792626728113
 20
1308.303453015427
 30
0.0
 11
802.7967482965021
 21
1343.076782761833
 31
0.0
  0
LINE
  5
155
330
20
100
AcDbEntity
  8
_0-0_
  6
Continuous
 62
     4
100
AcDbLine
 10
928.4792626728114
 20
1408.303453015427
 30
0.0
 11
928.4792626728114
 21
1308.303453015427
 31
0.0
  0
LINE
  5
156
330
20
100
AcDbEntity
  8
_0-0_
  6
Continuous
 62
     4
100
AcDbLine
 10
928.4792626728114
 20
1408.303453015427
 30
0.0
 11
919.1617770491204
 21
1443.076782761833
 31
0.0
  0
LINE
  5
157
330
20
100
AcDbEntity
  8
_0-0_
  6
Continuous
 62
     4
100
AcDbLine
 10
928.4792626728114
 20
1408.303453015427
 30
0.0
 11
937.7967482965022
 21
1443.076782761833
 31
0.0
  0
LINE
  5
158
330
20
100
AcDbEntity
  8
_0-0_
  6
Continuous
 62
     4
100
AcDbLine
 10
928.4792626728114
 20
1408.303453015427
 30
0.0
 11
937.7967482965022
 21
1373.53012326902
 31
0.0
  0
LINE
  5
159
330
20
100
AcDbEntity
  8
_0-0_
  6
Continuous
 62
     4
100
AcDbLine
 10
928.4792626728114
 20
1408.303453015427
 30
0.0
 11
919.1617770491204
 21
1373.53012326902
 31
0.0
  0
LINE
  5
15A
330
20
100
AcDbEntity
  8
_0-0_
  6
Continuous
 62
     4
100
AcDbLine
 10
928.4792626728114
 20
1308.303453015427
 30
0.0
 11
919.1617770491204
 21
1343.076782761833
 31
0.0
  0
LINE
  5
15B
330
20
100
AcDbEntity
  8
_0-0_
  6
Continuous
 62
     4
100
AcDbLine
 10
928.4792626728114
 20
1308.303453015427
 30
0.0
 11
937.7967482965022
 21
1343.076782761833
 31
0.0
  0
LINE
  5
15C
330
20
100
AcDbEntity
  8
_0-0_
  6
Continuous
 62
     4
100
AcDbLine
 10
1063.479262672811
 20
1908.303453015426
 30
0.0
 11
1063.479262672811
 21
1408.303453015427
 31
0.0
  0
LINE
  5
15D
330
20
100
AcDbEntity
  8
_0-0_
  6
Continuous
 62
     4
100
AcDbLine
 10
1063.479262672811
 20
1408.303453015427
 30
0.0
 11
1054.16177704912
 21
1443.076782761833
 31
0.0
  0
LINE
  5
15E
330
20
100
AcDbEntity
  8
_0-0_
  6
Continuous
 62
     4
100
AcDbLine
 10
1063.479262672811
 20
1408.303453015427
 30
0.0
 11
1072.796748296502
 21
1443.076782761833
 31
0.0
  0
LINE
  5
15F
330
20
100
AcDbEntity
  8
_0-0_
  6
Continuous
 62
     4
100
AcDbLine
 10
1063.479262672811
 20
1908.303453015426
 30
0.0
 11
1072.796748296502
 21
1873.53012326902
 31
0.0
  0
LINE
  5
160
330
20
100
AcDbEntity
  8
_0-0_
  6
Continuous
 62
     4
100
AcDbLine
 10
1063.479262672811
 20
1908.303453015426
 30
0.0
 11
1054.16177704912
 21
1873.53012326902
 31
0.0
  0
LINE
  5
161
330
20
100
AcDbEntity
  8
_0-0_
  6
Continuous
 62
     4
100
AcDbLine
 10
1063.479262672811
 20
2408.303453015427
 30
0.0
 11
1072.796748296502
 21
2373.53012326902
 31
0.0
  0
LINE
  5
162
330
20
100
AcDbEntity
  8
_0-0_
  6
Continuous
 62
     4
100
AcDbLine
 10
1063.479262672811
 20
2408.303453015427
 30
0.0
 11
1054.16177704912
 21
2373.53012326902
 31
0.0
  0
LINE
  5
163
330
20
100
AcDbEntity
  8
_0-0_
  6
Continuous
 62
     4
100
AcDbLine
 10
1063.479262672811
 20
1908.303453015426
 30
0.0
 11
1054.16177704912
 21
1943.076782761833
 31
0.0
  0
LINE
  5
164
330
20
100
AcDbEntity
  8
_0-0_
  6
Continuous
 62
     4
100
AcDbLine
 10
1063.479262672811
 20
1908.303453015426
 30
0.0
 11
1072.796748296502
 21
1943.076782761833
 31
0.0
  0
LINE
  5
165
330
20
100
AcDbEntity
  8
_0-0_
  6
Continuous
 62
     4
100
AcDbLine
 10
1063.479262672811
 20
2408.303453015427
 30
0.0
 11
1054.16177704912
 21
2443.076782761833
 31
0.0
  0
LINE
  5
166
330
20
100
AcDbEntity
  8
_0-0_
  6
Continuous
 62
     4
100
AcDbLine
 10
1063.479262672811
 20
2408.303453015427
 30
0.0
 11
1072.796748296502
 21
2443.076782761833
 31
0.0
  0
LINE
  5
167
330
20
100
AcDbEntity
  8
_0-0_
  6
Continuous
 62
     4
100
AcDbLine
 10
1318.479262672811
 20
2058.303453015427
 30
0.0
 11
1183.479262672811
 21
2058.303453015427
 31
0.0
  0
LINE
  5
168
330
20
100
AcDbEntity
  8
_0-0_
  6
Continuous
 62
     4
100
AcDbLine
 10
1318.479262672811
 20
2258.303453015427
 30
0.0
 11
1183.479262672811
 21
2258.303453015427
 31
0.0
  0
LINE
  5
169
330
20
100
AcDbEntity
  8
_0-0_
  6
Continuous
 62
     4
100
AcDbLine
 10
1198.479262672811
 20
1908.303453015426
 30
0.0
 11
1198.479262672811
 21
2058.303453015427
 31
0.0
  0
LINE
  5
16A
330
20
100
AcDbEntity
  8
_0-0_
  6
Continuous
 62
     4
100
AcDbLine
 10
1198.479262672811
 20
2258.303453015427
 30
0.0
 11
1198.479262672811
 21
2408.303453015427
 31
0.0
  0
LINE
  5
16B
330
20
100
AcDbEntity
  8
_0-0_
  6
Continuous
 62
     4
100
AcDbLine
 10
1198.479262672811
 20
2258.303453015427
 30
0.0
 11
1198.479262672811
 21
2058.303453015427
 31
0.0
  0
LINE
  5
16C
330
20
100
AcDbEntity
  8
_0-0_
  6
Continuous
 62
     4
100
AcDbLine
 10
1198.479262672811
 20
2408.303453015427
 30
0.0
 11
1207.796748296502
 21
2373.53012326902
 31
0.0
  0
LINE
  5
16D
330
20
100
AcDbEntity
  8
_0-0_
  6
Continuous
 62
     4
100
AcDbLine
 10
1198.479262672811
 20
2408.303453015427
 30
0.0
 11
1189.16177704912
 21
2373.53012326902
 31
0.0
  0
LINE
  5
16E
330
20
100
AcDbEntity
  8
_0-0_
  6
Continuous
 62
     4
100
AcDbLine
 10
1198.479262672811
 20
2258.303453015427
 30
0.0
 11
1189.16177704912
 21
2293.076782761833
 31
0.0
  0
LINE
  5
16F
330
20
100
AcDbEntity
  8
_0-0_
  6
Continuous
 62
     4
100
AcDbLine
 10
1198.479262672811
 20
2258.303453015427
 30
0.0
 11
1207.796748296502
 21
2293.076782761833
 31
0.0
  0
LINE
  5
170
330
20
100
AcDbEntity
  8
_0-0_
  6
Continuous
 62
     4
100
AcDbLine
 10
1198.479262672811
 20
2258.303453015427
 30
0.0
 11
1207.796748296502
 21
2223.53012326902
 31
0.0
  0
LINE
  5
171
330
20
100
AcDbEntity
  8
_0-0_
  6
Continuous
 62
     4
100
AcDbLine
 10
1198.479262672811
 20
2258.303453015427
 30
0.0
 11
1189.16177704912
 21
2223.53012326902
 31
0.0
  0
LINE
  5
172
330
20
100
AcDbEntity
  8
_0-0_
  6
Continuous
 62
     4
100
AcDbLine
 10
1198.479262672811
 20
2058.303453015427
 30
0.0
 11
1189.16177704912
 21
2093.076782761833
 31
0.0
  0
LINE
  5
173
330
20
100
AcDbEntity
  8
_0-0_
  6
Continuous
 62
     4
100
AcDbLine
 10
1198.479262672811
 20
2058.303453015427
 30
0.0
 11
1207.796748296502
 21
2093.076782761833
 31
0.0
  0
LINE
  5
174
330
20
100
AcDbEntity
  8
_0-0_
  6
Continuous
 62
     4
100
AcDbLine
 10
1198.479262672811
 20
2058.303453015427
 30
0.0
 11
1207.796748296502
 21
2023.53012326902
 31
0.0
  0
LINE
  5
175
330
20
100
AcDbEntity
  8
_0-0_
  6
Continuous
 62
     4
100
AcDbLine
 10
1198.479262672811
 20
2058.303453015427
 30
0.0
 11
1189.16177704912
 21
2023.53012326902
 31
0.0
  0
LINE
  5
176
330
20
100
AcDbEntity
  8
_0-0_
  6
Continuous
 62
     4
100
AcDbLine
 10
1198.479262672811
 20
1908.303453015426
 30
0.0
 11
1189.16177704912
 21
1943.076782761833
 31
0.0
  0
LINE
  5
177
330
20
100
AcDbEntity
  8
_0-0_
  6
Continuous
 62
     4
100
AcDbLine
 10
1198.479262672811
 20
1908.303453015426
 30
0.0
 11
1207.796748296502
 21
1943.076782761833
 31
0.0
  0
LINE
  5
178
330
20
100
AcDbEntity
  8
_0-0_
  6
Continuous
 62
     4
100
AcDbLine
 10
1413.479262672811
 20
1293.303453015427
 30
0.0
 11
1413.479262672811
 21
888.3034530154269
 31
0.0
  0
LINE
  5
179
330
20
100
AcDbEntity
  8
_0-0_
  6
Continuous
 62
     4
100
AcDbLine
 10
2413.479262672812
 20
1293.303453015427
 30
0.0
 11
2413.479262672812
 21
888.3034530154269
 31
0.0
  0
LINE
  5
17A
330
20
100
AcDbEntity
  8
_0-0_
  6
Continuous
 62
     4
100
AcDbLine
 10
1333.479262672811
 20
903.3034530154269
 30
0.0
 11
1413.479262672811
 21
903.3034530154269
 31
0.0
  0
LINE
  5
17B
330
20
100
AcDbEntity
  8
_0-0_
  6
Continuous
 62
     4
100
AcDbLine
 10
2413.479262672812
 20
903.3034530154269
 30
0.0
 11
2493.479262672812
 21
903.3034530154269
 31
0.0
  0
LINE
  5
17C
330
20
100
AcDbEntity
  8
_0-0_
  6
Continuous
 62
     4
100
AcDbLine
 10
2413.479262672812
 20
903.3034530154269
 30
0.0
 11
1413.479262672811
 21
903.3034530154269
 31
0.0
  0
LINE
  5
17D
330
20
100
AcDbEntity
  8
_0-0_
  6
Continuous
 62
     4
100
AcDbLine
 10
2493.479262672812
 20
903.3034530154269
 30
0.0
 11
2458.705932926406
 21
893.9859673917361
 31
0.0
  0
LINE
  5
17E
330
20
100
AcDbEntity
  8
_0-0_
  6
Continuous
 62
     4
100
AcDbLine
 10
2493.479262672812
 20
903.3034530154269
 30
0.0
 11
2458.705932926406
 21
912.6209386391176
 31
0.0
  0
LINE
  5
17F
330
20
100
AcDbEntity
  8
_0-0_
  6
Continuous
 62
     4
100
AcDbLine
 10
2413.479262672812
 20
903.3034530154269
 30
0.0
 11
2448.252592419218
 21
912.6209386391176
 31
0.0
  0
LINE
  5
180
330
20
100
AcDbEntity
  8
_0-0_
  6
Continuous
 62
     4
100
AcDbLine
 10
2413.479262672812
 20
903.3034530154269
 30
0.0
 11
2448.252592419218
 21
893.9859673917361
 31
0.0
  0
LINE
  5
181
330
20
100
AcDbEntity
  8
_0-0_
  6
Continuous
 62
     4
100
AcDbLine
 10
2413.479262672812
 20
903.3034530154269
 30
0.0
 11
2378.705932926405
 21
893.9859673917361
 31
0.0
  0
LINE
  5
182
330
20
100
AcDbEntity
  8
_0-0_
  6
Continuous
 62
     4
100
AcDbLine
 10
2413.479262672812
 20
903.3034530154269
 30
0.0
 11
2378.705932926405
 21
912.6209386391176
 31
0.0
  0
LINE
  5
183
330
20
100
AcDbEntity
  8
_0-0_
  6
Continuous
 62
     4
100
AcDbLine
 10
1413.479262672811
 20
903.3034530154269
 30
0.0
 11
1448.252592419218
 21
912.6209386391176
 31
0.0
  0
LINE
  5
184
330
20
100
AcDbEntity
  8
_0-0_
  6
Continuous
 62
     4
100
AcDbLine
 10
1413.479262672811
 20
903.3034530154269
 30
0.0
 11
1448.252592419218
 21
893.9859673917361
 31
0.0
  0
LINE
  5
185
330
20
100
AcDbEntity
  8
_0-0_
  6
Continuous
 62
     4
100
AcDbLine
 10
1413.479262672811
 20
903.3034530154269
 30
0.0
 11
1378.705932926405
 21
893.9859673917361
 31
0.0
  0
LINE
  5
186
330
20
100
AcDbEntity
  8
_0-0_
  6
Continuous
 62
     4
100
AcDbLine
 10
1413.479262672811
 20
903.3034530154269
 30
0.0
 11
1378.705932926405
 21
912.6209386391176
 31
0.0
  0
LINE
  5
187
330
20
100
AcDbEntity
  8
_0-0_
  6
Continuous
 62
     4
100
AcDbLine
 10
1333.479262672811
 20
903.3034530154269
 30
0.0
 11
1368.252592419218
 21
912.6209386391176
 31
0.0
  0
LINE
  5
188
330
20
100
AcDbEntity
  8
_0-0_
  6
Continuous
 62
     4
100
AcDbLine
 10
1333.479262672811
 20
903.3034530154269
 30
0.0
 11
1368.252592419218
 21
893.9859673917361
 31
0.0
  0
LINE
  5
189
330
20
100
AcDbEntity
  8
_0-0_
  6
Continuous
 62
   136
100
AcDbLine
 10
1613.479262672811
 20
2258.303453015427
 30
0.0
 11
1613.479262672811
 21
2058.303453015427
 31
0.0
  0
LINE
  5
18A
330
20
100
AcDbEntity
  8
_0-0_
  6
Continuous
 62
   136
100
AcDbLine
 10
1613.479262672811
 20
2058.303453015427
 30
0.0
 11
2213.479262672812
 21
2058.303453015427
 31
0.0
  0
LINE
  5
18B
330
20
100
AcDbEntity
  8
_0-0_
  6
Continuous
 62
   136
100
AcDbLine
 10
2213.479262672812
 20
2258.303453015427
 30
0.0
 11
2213.479262672812
 21
2058.303453015427
 31
0.0
  0
LINE
  5
18C
330
20
100
AcDbEntity
  8
_0-0_
  6
Continuous
 62
   136
100
AcDbLine
 10
1613.479262672811
 20
2258.303453015427
 30
0.0
 11
2213.479262672812
 21
2258.303453015427
 31
0.0
  0
LINE
  5
18D
330
20
100
AcDbEntity
  8
_0-0_
  6
Continuous
 62
   136
100
AcDbLine
 10
1613.479262672811
 20
1768.303453015426
 30
0.0
 11
2213.479262672812
 21
1768.303453015426
 31
0.0
  0
LINE
  5
18E
330
20
100
AcDbEntity
  8
_0-0_
  6
Continuous
 62
   136
100
AcDbLine
 10
1613.479262672811
 20
1768.303453015426
 30
0.0
 11
1613.479262672811
 21
1468.303453015426
 31
0.0
  0
LINE
  5
18F
330
20
100
AcDbEntity
  8
_0-0_
  6
Continuous
 62
   136
100
AcDbLine
 10
2213.479262672812
 20
1768.303453015426
 30
0.0
 11
2213.479262672812
 21
1468.303453015426
 31
0.0
  0
LINE
  5
190
330
20
100
AcDbEntity
  8
_0-0_
  6
Continuous
 62
   136
100
AcDbLine
 10
1613.479262672811
 20
1468.303453015426
 30
0.0
 11
2213.479262672812
 21
1468.303453015426
 31
0.0
  0
LINE
  5
191
330
20
100
AcDbEntity
  8
_0-0_
  6
Continuous
 62
     4
100
AcDbLine
 10
2213.479262672812
 20
1293.303453015427
 30
0.0
 11
2213.479262672812
 21
1023.303453015427
 31
0.0
  0
LINE
  5
192
330
20
100
AcDbEntity
  8
_0-0_
  6
Continuous
 62
     4
100
AcDbLine
 10
1613.479262672811
 20
1293.303453015427
 30
0.0
 11
1613.479262672811
 21
1023.303453015427
 31
0.0
  0
LINE
  5
193
330
20
100
AcDbEntity
  8
_0-0_
  6
Continuous
 62
     4
100
AcDbLine
 10
1613.479262672811
 20
1038.303453015427
 30
0.0
 11
2213.479262672812
 21
1038.303453015427
 31
0.0
  0
LINE
  5
194
330
20
100
AcDbEntity
  8
_0-0_
  6
Continuous
 62
     4
100
AcDbLine
 10
2213.479262672812
 20
1038.303453015427
 30
0.0
 11
2178.705932926405
 21
1028.985967391736
 31
0.0
  0
LINE
  5
195
330
20
100
AcDbEntity
  8
_0-0_
  6
Continuous
 62
     4
100
AcDbLine
 10
2213.479262672812
 20
1038.303453015427
 30
0.0
 11
2178.705932926405
 21
1047.620938639117
 31
0.0
  0
LINE
  5
196
330
20
100
AcDbEntity
  8
_0-0_
  6
Continuous
 62
     4
100
AcDbLine
 10
1613.479262672811
 20
1038.303453015427
 30
0.0
 11
1648.252592419218
 21
1047.620938639117
 31
0.0
  0
LINE
  5
197
330
20
100
AcDbEntity
  8
_0-0_
  6
Continuous
 62
     4
100
AcDbLine
 10
1613.479262672811
 20
1038.303453015427
 30
0.0
 11
1648.252592419218
 21
1028.985967391736
 31
0.0
  0
TEXT
  5
198
330
20
100
AcDbEntity
  8
_0-0_
 62
     7
100
AcDbText
 10
1181.912656735612
 20
2267.125862391313
 30
0.0
 40
60.0
  1
150
 50
90.0
100
AcDbText
  0
TEXT
  5
199
330
20
100
AcDbEntity
  8
_0-0_
 62
     7
100
AcDbText
 10
1181.427764416187
 20
2089.390919286076
 30
0.0
 40
60.0
  1
200
 50
90.0
100
AcDbText
  0
TEXT
  5
19A
330
20
100
AcDbEntity
  8
_0-0_
 62
     7
100
AcDbText
 10
1183.158164458058
 20
1923.265989906509
 30
0.0
 40
60.0
  1
150
 50
90.0
100
AcDbText
  0
TEXT
  5
19B
330
20
100
AcDbEntity
  8
_0-0_
 62
     7
100
AcDbText
 10
1048.186961192125
 20
2112.857210557802
 30
0.0
 40
60.0
  1
500
 50
90.0
100
AcDbText
  0
TEXT
  5
19C
330
20
100
AcDbEntity
  8
_0-0_
 62
     7
100
AcDbText
 10
1183.158164458058
 20
1761.85650612271
 30
0.0
 40
60.0
  1
140
 50
90.0
100
AcDbText
  0
TEXT
  5
19D
330
20
100
AcDbEntity
  8
_0-0_
 62
     7
100
AcDbText
 10
1184.888564499928
 20
1548.766372987748
 30
0.0
 40
60.0
  1
300
 50
90.0
100
AcDbText
  0
TEXT
  5
19E
330
20
100
AcDbEntity
  8
_0-0_
 62
     7
100
AcDbText
 10
1049.917361233996
 20
1612.771598457103
 30
0.0
 40
60.0
  1
500
 50
90.0
100
AcDbText
  0
TEXT
  5
19F
330
20
100
AcDbEntity
  8
_0-0_
 62
     7
100
AcDbText
 10
914.8784834457458
 20
1333.864981505566
 30
0.0
 40
60.0
  1
100
 50
90.0
100
AcDbText
  0
TEXT
  5
1A0
330
20
100
AcDbEntity
  8
_0-0_
 62
     7
100
AcDbText
 10
1345.310422816369
 20
920.8810985377356
 30
0.0
 40
60.0
  1
80
100
AcDbText
  0
TEXT
  5
1A1
330
20
100
AcDbEntity
  8
_0-0_
 62
     7
100
AcDbText
 10
2422.683615069337
 20
918.4922444529174
 30
0.0
 40
60.0
  1
80
100
AcDbText
  0
TEXT
  5
1A2
330
20
100
AcDbEntity
  8
_0-0_
 62
     7
100
AcDbText
 10
1854.136342882626
 20
916.1033903680992
 30
0.0
 40
60.0
  1
1000
100
AcDbText
  0
TEXT
  5
1A3
330
20
100
AcDbEntity
  8
_0-0_
 62
     7
100
AcDbText
 10
1866.080613306717
 20
1052.268073202731
 30
0.0
 40
60.0
  1
600
100
AcDbText
  0
LINE
  5
1A4
330
20
100
AcDbEntity
  8
_0-0_
  6
Continuous
 62
     4
100
AcDbLine
 10
2508.479262672812
 20
2408.303453015427
 30
0.0
 11
2643.479262672812
 21
2408.303453015427
 31
0.0
  0
LINE
  5
1A5
330
20
100
AcDbEntity
  8
_0-0_
  6
Continuous
 62
     4
100
AcDbLine
 10
2508.479262672812
 20
2338.303453015427
 30
0.0
 11
2643.479262672812
 21
2338.303453015427
 31
0.0
  0
LINE
  5
1A6
330
20
100
AcDbEntity
  8
_0-0_
  6
Continuous
 62
     4
100
AcDbLine
 10
2508.479262672812
 20
1908.303453015426
 30
0.0
 11
2643.479262672812
 21
1908.303453015426
 31
0.0
  0
LINE
  5
1A7
330
20
100
AcDbEntity
  8
_0-0_
  6
Continuous
 62
     4
100
AcDbLine
 10
2508.479262672812
 20
1818.303453015426
 30
0.0
 11
2643.479262672812
 21
1818.303453015426
 31
0.0
  0
LINE
  5
1A8
330
20
100
AcDbEntity
  8
_0-0_
  6
Continuous
 62
     4
100
AcDbLine
 10
2628.479262672812
 20
2338.303453015427
 30
0.0
 11
2628.479262672812
 21
1908.303453015426
 31
0.0
  0
LINE
  5
1A9
330
20
100
AcDbEntity
  8
_0-0_
  6
Continuous
 62
     4
100
AcDbLine
 10
2628.479262672812
 20
2408.303453015427
 30
0.0
 11
2628.479262672812
 21
2338.303453015427
 31
0.0
  0
LINE
  5
1AA
330
20
100
AcDbEntity
  8
_0-0_
  6
Continuous
 62
     4
100
AcDbLine
 10
2628.479262672812
 20
1908.303453015426
 30
0.0
 11
2628.479262672812
 21
1818.303453015426
 31
0.0
  0
LINE
  5
1AB
330
20
100
AcDbEntity
  8
_0-0_
  6
Continuous
 62
     4
100
AcDbLine
 10
2628.479262672812
 20
2338.303453015427
 30
0.0
 11
2637.796748296502
 21
2303.530123269021
 31
0.0
  0
LINE
  5
1AC
330
20
100
AcDbEntity
  8
_0-0_
  6
Continuous
 62
     4
100
AcDbLine
 10
2628.479262672812
 20
2338.303453015427
 30
0.0
 11
2619.161777049122
 21
2303.530123269021
 31
0.0
  0
LINE
  5
1AD
330
20
100
AcDbEntity
  8
_0-0_
  6
Continuous
 62
     4
100
AcDbLine
 10
2628.479262672812
 20
1908.303453015426
 30
0.0
 11
2619.161777049122
 21
1943.076782761833
 31
0.0
  0
LINE
  5
1AE
330
20
100
AcDbEntity
  8
_0-0_
  6
Continuous
 62
     4
100
AcDbLine
 10
2628.479262672812
 20
1908.303453015426
 30
0.0
 11
2637.796748296502
 21
1943.076782761833
 31
0.0
  0
LINE
  5
1AF
330
20
100
AcDbEntity
  8
_0-0_
  6
Continuous
 62
     4
100
AcDbLine
 10
2628.479262672812
 20
1908.303453015426
 30
0.0
 11
2637.796748296502
 21
1873.53012326902
 31
0.0
  0
LINE
  5
1B0
330
20
100
AcDbEntity
  8
_0-0_
  6
Continuous
 62
     4
100
AcDbLine
 10
2628.479262672812
 20
1908.303453015426
 30
0.0
 11
2619.161777049122
 21
1873.53012326902
 31
0.0
  0
LINE
  5
1B1
330
20
100
AcDbEntity
  8
_0-0_
  6
Continuous
 62
     4
100
AcDbLine
 10
2628.479262672812
 20
1818.303453015426
 30
0.0
 11
2619.161777049122
 21
1853.076782761833
 31
0.0
  0
LINE
  5
1B2
330
20
100
AcDbEntity
  8
_0-0_
  6
Continuous
 62
     4
100
AcDbLine
 10
2628.479262672812
 20
1818.303453015426
 30
0.0
 11
2637.796748296502
 21
1853.076782761833
 31
0.0
  0
TEXT
  5
1B3
330
20
100
AcDbEntity
  8
_0-0_
 62
     7
100
AcDbText
 10
2614.643771574123
 20
2341.405739218207
 30
0.0
 40
60.0
  1
70
 50
90.0
100
AcDbText
  0
TEXT
  5
1B4
330
20
100
AcDbEntity
  8
_0-0_
 62
     7
100
AcDbText
 10
2614.643771574123
 20
2078.556005522324
 30
0.0
 40
60.0
  1
430
 50
90.0
100
AcDbText
  0
TEXT
  5
1B5
330
20
100
AcDbEntity
  8
_0-0_
 62
     7
100
AcDbText
 10
2611.656842782125
 20
1832.134380182434
 30
0.0
 40
60.0
  1
90
 50
90.0
100
AcDbText
  0
TEXT
  5
1B6
330
20
100
AcDbEntity
  8
_0-0_
 62
     7
100
AcDbText
 10
2818.132116452981
 20
2129.155451729391
 30
0.0
 40
60.0
  1
BH-500
 41
0.6200000000000001
100
AcDbText
  0
TEXT
  5
1B7
330
20
100
AcDbEntity
  8
_0-0_
 62
     7
100
AcDbText
 10
2826.293001821884
 20
1578.294879443462
 30
0.0
 40
60.0
  1
B1-500
 41
0.6200000000000001
100
AcDbText
  0
LINE
  5
1B8
330
20
100
AcDbEntity
  8
_0-0_
  6
Continuous
 62
     7
100
AcDbLine
 10
2823.479262672811
 20
2198.303453015427
 30
0.0
 11
2743.479262672812
 21
2158.303453015427
 31
0.0
  0
LINE
  5
1B9
330
20
100
AcDbEntity
  8
_0-0_
  6
Continuous
 62
     7
100
AcDbLine
 10
2743.479262672812
 20
2158.303453015427
 30
0.0
 11
2823.479262672811
 21
2118.303453015427
 31
0.0
  0
LINE
  5
1BA
330
20
100
AcDbEntity
  8
_0-0_
  6
Continuous
 62
     7
100
AcDbLine
 10
2823.479262672811
 20
1648.303453015427
 30
0.0
 11
2743.479262672812
 21
1608.303453015426
 31
0.0
  0
LINE
  5
1BB
330
20
100
AcDbEntity
  8
_0-0_
  6
Continuous
 62
     7
100
AcDbLine
 10
2743.479262672812
 20
1608.303453015426
 30
0.0
 11
2823.479262672811
 21
1568.303453015426
 31
0.0
  0
LINE
  5
1BC
330
20
100
AcDbEntity
  8
_0-0_
  6
Continuous
 62
     7
100
AcDbLine
 10
2823.479262672811
 20
1648.303453015427
 30
0.0
 11
3023.479262672811
 21
1648.303453015427
 31
0.0
  0
LINE
  5
1BD
330
20
100
AcDbEntity
  8
_0-0_
  6
Continuous
 62
     7
100
AcDbLine
 10
3023.479262672811
 20
1648.303453015427
 30
0.0
 11
3023.479262672811
 21
1568.303453015426
 31
0.0
  0
LINE
  5
1BE
330
20
100
AcDbEntity
  8
_0-0_
  6
Continuous
 62
     7
100
AcDbLine
 10
3023.479262672811
 20
1568.303453015426
 30
0.0
 11
2823.479262672811
 21
1568.303453015426
 31
0.0
  0
LINE
  5
1BF
330
20
100
AcDbEntity
  8
_0-0_
  6
Continuous
 62
     7
100
AcDbLine
 10
2823.479262672811
 20
2118.303453015427
 30
0.0
 11
3023.479262672811
 21
2118.303453015427
 31
0.0
  0
LINE
  5
1C0
330
20
100
AcDbEntity
  8
_0-0_
  6
Continuous
 62
     7
100
AcDbLine
 10
3023.479262672811
 20
2118.303453015427
 30
0.0
 11
3023.479262672811
 21
2198.303453015427
 31
0.0
  0
LINE
  5
1C1
330
20
100
AcDbEntity
  8
_0-0_
  6
Continuous
 62
     7
100
AcDbLine
 10
3023.479262672811
 20
2198.303453015427
 30
0.0
 11
2823.479262672811
 21
2198.303453015427
 31
0.0
  0
LINE
  5
1C2
330
20
100
AcDbEntity
  8
_0-0_
  6
Continuous
 62
   136
100
AcDbLine
 10
1590.979262672811
 20
2280.803453015427
 30
0.0
 11
2235.979262672812
 21
2280.803453015427
 31
0.0
  0
LINE
  5
1C3
330
20
100
AcDbEntity
  8
_0-0_
  6
Continuous
 62
   136
100
AcDbLine
 10
2235.979262672812
 20
2280.803453015427
 30
0.0
 11
2235.979262672812
 21
2035.803453015427
 31
0.0
  0
LINE
  5
1C4
330
20
100
AcDbEntity
  8
_0-0_
  6
Continuous
 62
   136
100
AcDbLine
 10
1590.979262672811
 20
2035.803453015427
 30
0.0
 11
2235.979262672812
 21
2035.803453015427
 31
0.0
  0
LINE
  5
1C5
330
20
100
AcDbEntity
  8
_0-0_
  6
Continuous
 62
   136
100
AcDbLine
 10
1590.979262672811
 20
2280.803453015427
 30
0.0
 11
1590.979262672811
 21
2035.803453015427
 31
0.0
  0
LINE
  5
1C6
330
20
100
AcDbEntity
  8
_0-0_
  6
Continuous
 62
   136
100
AcDbLine
 10
1590.979262672811
 20
1790.803453015427
 30
0.0
 11
1590.979262672811
 21
1445.803453015426
 31
0.0
  0
LINE
  5
1C7
330
20
100
AcDbEntity
  8
_0-0_
  6
Continuous
 62
   136
100
AcDbLine
 10
1590.979262672811
 20
1445.803453015426
 30
0.0
 11
2235.979262672812
 21
1445.803453015426
 31
0.0
  0
LINE
  5
1C8
330
20
100
AcDbEntity
  8
_0-0_
  6
Continuous
 62
   136
100
AcDbLine
 10
1590.979262672811
 20
1790.803453015427
 30
0.0
 11
2235.979262672812
 21
1790.803453015427
 31
0.0
  0
LINE
  5
1C9
330
20
100
AcDbEntity
  8
_0-0_
  6
Continuous
 62
   136
100
AcDbLine
 10
2235.979262672812
 20
1790.803453015427
 30
0.0
 11
2235.979262672812
 21
1445.803453015426
 31
0.0
  0
LINE
  5
1CA
330
20
100
AcDbEntity
  8
_0-0_
  6
Continuous
 62
   136
100
AcDbLine
 10
1590.979262672811
 20
2280.803453015427
 30
0.0
 11
1613.479262672811
 21
2258.303453015427
 31
0.0
  0
LINE
  5
1CB
330
20
100
AcDbEntity
  8
_0-0_
  6
Continuous
 62
   136
100
AcDbLine
 10
1613.479262672811
 20
2058.303453015427
 30
0.0
 11
1590.979262672811
 21
2035.803453015427
 31
0.0
  0
LINE
  5
1CC
330
20
100
AcDbEntity
  8
_0-0_
  6
Continuous
 62
   136
100
AcDbLine
 10
2213.479262672812
 20
2058.303453015427
 30
0.0
 11
2235.979262672812
 21
2035.803453015427
 31
0.0
  0
LINE
  5
1CD
330
20
100
AcDbEntity
  8
_0-0_
  6
Continuous
 62
   136
100
AcDbLine
 10
2235.979262672812
 20
2280.803453015427
 30
0.0
 11
2213.479262672812
 21
2258.303453015427
 31
0.0
  0
LINE
  5
1CE
330
20
100
AcDbEntity
  8
_0-0_
  6
Continuous
 62
   136
100
AcDbLine
 10
2213.479262672812
 20
1768.303453015426
 30
0.0
 11
2235.979262672812
 21
1790.803453015427
 31
0.0
  0
LINE
  5
1CF
330
20
100
AcDbEntity
  8
_0-0_
  6
Continuous
 62
   136
100
AcDbLine
 10
1590.979262672811
 20
1790.803453015427
 30
0.0
 11
1613.479262672811
 21
1768.303453015426
 31
0.0
  0
LINE
  5
1D0
330
20
100
AcDbEntity
  8
_0-0_
  6
Continuous
 62
   136
100
AcDbLine
 10
1613.479262672811
 20
1468.303453015426
 30
0.0
 11
1590.979262672811
 21
1445.803453015426
 31
0.0
  0
LINE
  5
1D1
330
20
100
AcDbEntity
  8
_0-0_
  6
Continuous
 62
   136
100
AcDbLine
 10
2213.479262672812
 20
1468.303453015426
 30
0.0
 11
2235.979262672812
 21
1445.803453015426
 31
0.0
  0
LINE
  5
1D2
330
20
100
AcDbEntity
  8
_0-0_
  6
DASHED1
 62
   136
100
AcDbLine
 10
2363.479262672812
 20
1408.303453015427
 30
0.0
 11
2013.479262672811
 21
1398.303453015427
 31
0.0
  0
LINE
  5
1D3
330
20
100
AcDbEntity
  8
_0-0_
  6
DASHED1
 62
   136
100
AcDbLine
 10
1463.479262672811
 20
1408.303453015427
 30
0.0
 11
1813.479262672811
 21
1398.303453015427
 31
0.0
  0
LINE
  5
1D4
330
20
100
AcDbEntity
  8
_0-0_
  6
DASHED1
 62
   136
100
AcDbLine
 10
1813.479262672811
 20
1398.303453015427
 30
0.0
 11
1823.479262672811
 21
1378.303453015427
 31
0.0
  0
LINE
  5
1D5
330
20
100
AcDbEntity
  8
_0-0_
  6
DASHED1
 62
   136
100
AcDbLine
 10
2013.479262672811
 20
1398.303453015427
 30
0.0
 11
2003.479262672811
 21
1378.303453015427
 31
0.0
  0
LINE
  5
1D6
330
20
100
AcDbEntity
  8
_0-0_
  6
DASHED1
 62
   136
100
AcDbLine
 10
1823.479262672811
 20
1378.303453015427
 30
0.0
 11
2003.479262672811
 21
1378.303453015427
 31
0.0
  0
LINE
  5
1D7
330
20
100
AcDbEntity
  8
_0-0_
  6
Continuous
 62
     4
100
AcDbLine
 10
2013.479262672811
 20
1293.303453015427
 30
0.0
 11
2013.479262672811
 21
1158.303453015427
 31
0.0
  0
LINE
  5
1D8
330
20
100
AcDbEntity
  8
_0-0_
  6
Continuous
 62
     4
100
AcDbLine
 10
2003.479262672811
 20
1293.303453015427
 30
0.0
 11
2003.479262672811
 21
1158.303453015427
 31
0.0
  0
LINE
  5
1D9
330
20
100
AcDbEntity
  8
_0-0_
  6
Continuous
 62
     4
100
AcDbLine
 10
1823.479262672811
 20
1293.303453015427
 30
0.0
 11
1823.479262672811
 21
1158.303453015427
 31
0.0
  0
LINE
  5
1DA
330
20
100
AcDbEntity
  8
_0-0_
  6
Continuous
 62
     4
100
AcDbLine
 10
1813.479262672811
 20
1293.303453015427
 30
0.0
 11
1813.479262672811
 21
1158.303453015427
 31
0.0
  0
LINE
  5
1DB
330
20
100
AcDbEntity
  8
_0-0_
  6
Continuous
 62
     4
100
AcDbLine
 10
1753.479262672811
 20
1173.303453015427
 30
0.0
 11
1813.479262672811
 21
1173.303453015427
 31
0.0
  0
LINE
  5
1DC
330
20
100
AcDbEntity
  8
_0-0_
  6
Continuous
 62
     4
100
AcDbLine
 10
1823.479262672811
 20
1173.303453015427
 30
0.0
 11
2003.479262672811
 21
1173.303453015427
 31
0.0
  0
LINE
  5
1DD
330
20
100
AcDbEntity
  8
_0-0_
  6
Continuous
 62
     4
100
AcDbLine
 10
2013.479262672811
 20
1173.303453015427
 30
0.0
 11
2073.479262672812
 21
1173.303453015427
 31
0.0
  0
LINE
  5
1DE
330
20
100
AcDbEntity
  8
_0-0_
  6
Continuous
 62
     4
100
AcDbLine
 10
1823.479262672811
 20
1173.303453015427
 30
0.0
 11
1813.479262672811
 21
1173.303453015427
 31
0.0
  0
LINE
  5
1DF
330
20
100
AcDbEntity
  8
_0-0_
  6
Continuous
 62
     4
100
AcDbLine
 10
2013.479262672811
 20
1173.303453015427
 30
0.0
 11
2003.479262672811
 21
1173.303453015427
 31
0.0
  0
LINE
  5
1E0
330
20
100
AcDbEntity
  8
_0-0_
  6
Continuous
 62
     4
100
AcDbLine
 10
1823.479262672811
 20
1173.303453015427
 30
0.0
 11
1858.252592419218
 21
1182.620938639117
 31
0.0
  0
LINE
  5
1E1
330
20
100
AcDbEntity
  8
_0-0_
  6
Continuous
 62
     4
100
AcDbLine
 10
1823.479262672811
 20
1173.303453015427
 30
0.0
 11
1858.252592419218
 21
1163.985967391736
 31
0.0
  0
LINE
  5
1E2
330
20
100
AcDbEntity
  8
_0-0_
  6
Continuous
 62
     4
100
AcDbLine
 10
2003.479262672811
 20
1173.303453015427
 30
0.0
 11
1968.705932926405
 21
1163.985967391736
 31
0.0
  0
LINE
  5
1E3
330
20
100
AcDbEntity
  8
_0-0_
  6
Continuous
 62
     4
100
AcDbLine
 10
2003.479262672811
 20
1173.303453015427
 30
0.0
 11
1968.705932926405
 21
1182.620938639117
 31
0.0
  0
LINE
  5
1E4
330
20
100
AcDbEntity
  8
_0-0_
  6
Continuous
 62
     4
100
AcDbLine
 10
2013.479262672811
 20
1173.303453015427
 30
0.0
 11
2048.252592419217
 21
1182.620938639117
 31
0.0
  0
LINE
  5
1E5
330
20
100
AcDbEntity
  8
_0-0_
  6
Continuous
 62
     4
100
AcDbLine
 10
2013.479262672811
 20
1173.303453015427
 30
0.0
 11
2048.252592419217
 21
1163.985967391736
 31
0.0
  0
LINE
  5
1E6
330
20
100
AcDbEntity
  8
_0-0_
  6
Continuous
 62
     4
100
AcDbLine
 10
1813.479262672811
 20
1173.303453015427
 30
0.0
 11
1778.705932926405
 21
1163.985967391736
 31
0.0
  0
LINE
  5
1E7
330
20
100
AcDbEntity
  8
_0-0_
  6
Continuous
 62
     4
100
AcDbLine
 10
1813.479262672811
 20
1173.303453015427
 30
0.0
 11
1778.705932926405
 21
1182.620938639117
 31
0.0
  0
TEXT
  5
1E8
330
20
100
AcDbEntity
  8
_0-0_
 62
     7
100
AcDbText
 10
2021.718793136402
 20
1188.842724395154
 30
0.0
 40
60.0
  1
10
100
AcDbText
  0
TEXT
  5
1E9
330
20
100
AcDbEntity
  8
_0-0_
 62
     7
100
AcDbText
 10
1734.195377982483
 20
1188.842724395154
 30
0.0
 40
60.0
  1
10
100
AcDbText
  0
LINE
  5
1EA
330
20
100
AcDbEntity
  8
_0-0_
  6
DASHED1
 62
   136
100
AcDbLine
 10
1358.479262672811
 20
2258.303453015427
 30
0.0
 11
1358.479262672811
 21
2058.303453015427
 31
0.0
  0
LINE
  5
1EB
330
20
100
AcDbEntity
  8
_0-0_
  6
DASHED1
 62
   136
100
AcDbLine
 10
1333.479262672811
 20
2280.803453015427
 30
0.0
 11
1358.479262672811
 21
2258.303453015427
 31
0.0
  0
LINE
  5
1EC
330
20
100
AcDbEntity
  8
_0-0_
  6
DASHED1
 62
   136
100
AcDbLine
 10
1358.479262672811
 20
2058.303453015427
 30
0.0
 11
1333.479262672811
 21
2035.803453015427
 31
0.0
  0
LINE
  5
1ED
330
20
100
AcDbEntity
  8
_0-0_
  6
DASHED1
 62
   136
100
AcDbLine
 10
1358.479262672811
 20
1768.303453015426
 30
0.0
 11
1358.479262672811
 21
1468.303453015426
 31
0.0
  0
LINE
  5
1EE
330
20
100
AcDbEntity
  8
_0-0_
  6
DASHED1
 62
   136
100
AcDbLine
 10
1358.479262672811
 20
1768.303453015426
 30
0.0
 11
1333.479262672811
 21
1790.803453015427
 31
0.0
  0
LINE
  5
1EF
330
20
100
AcDbEntity
  8
_0-0_
  6
DASHED1
 62
   136
100
AcDbLine
 10
1358.479262672811
 20
1468.303453015426
 30
0.0
 11
1333.479262672811
 21
1445.803453015426
 31
0.0
  0
LINE
  5
1F0
330
20
100
AcDbEntity
  8
_0-0_
  6
DASHED1
 62
   136
100
AcDbLine
 10
2493.479262672812
 20
2280.803453015427
 30
0.0
 11
2468.479262672812
 21
2258.303453015427
 31
0.0
  0
LINE
  5
1F1
330
20
100
AcDbEntity
  8
_0-0_
  6
DASHED1
 62
   136
100
AcDbLine
 10
2468.479262672812
 20
2258.303453015427
 30
0.0
 11
2468.479262672812
 21
2058.303453015427
 31
0.0
  0
LINE
  5
1F2
330
20
100
AcDbEntity
  8
_0-0_
  6
DASHED1
 62
   136
100
AcDbLine
 10
2468.479262672812
 20
2058.303453015427
 30
0.0
 11
2493.479262672812
 21
2035.803453015427
 31
0.0
  0
LINE
  5
1F3
330
20
100
AcDbEntity
  8
_0-0_
  6
DASHED1
 62
   136
100
AcDbLine
 10
2493.479262672812
 20
1790.803453015427
 30
0.0
 11
2468.479262672812
 21
1768.303453015426
 31
0.0
  0
LINE
  5
1F4
330
20
100
AcDbEntity
  8
_0-0_
  6
DASHED1
 62
   136
100
AcDbLine
 10
2468.479262672812
 20
1768.303453015426
 30
0.0
 11
2468.479262672812
 21
1468.303453015426
 31
0.0
  0
LINE
  5
1F5
330
20
100
AcDbEntity
  8
_0-0_
  6
DASHED1
 62
   136
100
AcDbLine
 10
2468.479262672812
 20
1468.303453015426
 30
0.0
 11
2493.479262672812
 21
1445.803453015426
 31
0.0
  0
TEXT
  5
1F6
330
20
100
AcDbEntity
  8
_0-0_
 62
     7
100
AcDbText
 10
1815.507801362618
 20
1192.390527491419
 30
0.0
 40
60.0
  1
φ200
 41
0.85
100
AcDbText
  0
LINE
  5
1F7
330
20
100
AcDbEntity
  8
_0-0_
  6
Continuous
 62
     4
100
AcDbLine
 10
1333.479262672811
 20
3513.303453015428
 30
0.0
 11
2493.479262672812
 21
3513.303453015428
 31
0.0
  0
LINE
  5
1F8
330
20
100
AcDbEntity
  8
_0-0_
  6
DASHED1
 62
   136
100
AcDbLine
 10
1413.479262672811
 20
2858.303453015427
 30
0.0
 11
2413.479262672812
 21
2858.303453015427
 31
0.0
  0
LINE
  5
1F9
330
20
100
AcDbEntity
  8
_0-0_
  6
DASHED1
 62
   136
100
AcDbLine
 10
1463.479262672811
 20
2908.303453015427
 30
0.0
 11
1413.479262672811
 21
2858.303453015427
 31
0.0
  0
LINE
  5
1FA
330
20
100
AcDbEntity
  8
_0-0_
  6
DASHED1
 62
   136
100
AcDbLine
 10
1463.479262672811
 20
2908.303453015427
 30
0.0
 11
2363.479262672812
 21
2908.303453015427
 31
0.0
  0
LINE
  5
1FB
330
20
100
AcDbEntity
  8
_0-0_
  6
DASHED1
 62
   136
100
AcDbLine
 10
2363.479262672812
 20
2908.303453015427
 30
0.0
 11
2413.479262672812
 21
2858.303453015427
 31
0.0
  0
LINE
  5
1FC
330
20
100
AcDbEntity
  8
_0-0_
  6
DASHED1
 62
   136
100
AcDbLine
 10
1483.479262672811
 20
3008.303453015428
 30
0.0
 11
1473.479262672811
 21
2908.303453015427
 31
0.0
  0
LINE
  5
1FD
330
20
100
AcDbEntity
  8
_0-0_
  6
DASHED1
 62
   136
100
AcDbLine
 10
2083.479262672812
 20
3008.303453015428
 30
0.0
 11
2093.479262672812
 21
2908.303453015427
 31
0.0
  0
LINE
  5
1FE
330
20
100
AcDbEntity
  8
_0-0_
  6
DASHED1
 62
   136
100
AcDbLine
 10
1483.479262672811
 20
3008.303453015428
 30
0.0
 11
1483.479262672811
 21
3108.303453015427
 31
0.0
  0
LINE
  5
1FF
330
20
100
AcDbEntity
  8
_0-0_
  6
DASHED1
 62
   136
100
AcDbLine
 10
2083.479262672812
 20
3008.303453015428
 30
0.0
 11
2083.479262672812
 21
3108.303453015427
 31
0.0
  0
LINE
  5
200
330
20
100
AcDbEntity
  8
_0-0_
  6
Continuous
 62
     7
100
AcDbLine
 10
1343.479262672811
 20
3008.303453015428
 30
0.0
 11
1333.479262672811
 21
2998.303453015428
 31
0.0
  0
LINE
  5
201
330
20
100
AcDbEntity
  8
_0-0_
  6
Continuous
 62
     7
100
AcDbLine
 10
1343.479262672811
 20
3008.303453015428
 30
0.0
 11
2483.479262672812
 21
3008.303453015428
 31
0.0
  0
LINE
  5
202
330
20
100
AcDbEntity
  8
_0-0_
  6
Continuous
 62
     7
100
AcDbLine
 10
2483.479262672812
 20
3008.303453015428
 30
0.0
 11
2493.479262672812
 21
2998.303453015428
 31
0.0
  0
LINE
  5
203
330
20
100
AcDbEntity
  8
_0-0_
  6
Continuous
 62
     7
100
AcDbLine
 10
2213.95429386434
 20
3098.802829184865
 30
0.0
 11
2218.479262672812
 21
3008.303453015428
 31
0.0
  0
ARC
  5
204
330
20
100
AcDbEntity
  8
_0-0_
  6
Continuous
 62
     7
100
AcDbCircle
 10
2203.966770475561
 20
3098.303453015427
 30
0.0
 40
10.0
100
AcDbArc
 50
2.862405226111732
 51
90.00000000000003
  0
LINE
  5
205
330
20
100
AcDbEntity
  8
_0-0_
  6
Continuous
 62
     7
100
AcDbLine
 10
1362.991754870062
 20
3108.303453015427
 30
0.0
 11
2203.966770475561
 21
3108.303453015427
 31
0.0
  0
LINE
  5
206
330
20
100
AcDbEntity
  8
_0-0_
  6
Continuous
 62
     7
100
AcDbLine
 10
1353.004231481283
 20
3098.802829184865
 30
0.0
 11
1348.479262672811
 21
3008.303453015428
 31
0.0
  0
ARC
  5
207
330
20
100
AcDbEntity
  8
_0-0_
  6
Continuous
 62
     7
100
AcDbCircle
 10
1362.991754870062
 20
3098.303453015427
 30
0.0
 40
10.0
100
AcDbArc
 50
90.0
 51
177.1375947738882
  0
LINE
  5
208
330
20
100
AcDbEntity
  8
_0-0_
  6
Continuous
 62
     4
100
AcDbLine
 10
1483.479262672811
 20
3123.303453015428
 30
0.0
 11
1483.479262672811
 21
3258.303453015428
 31
0.0
  0
LINE
  5
209
330
20
100
AcDbEntity
  8
_0-0_
  6
Continuous
 62
     4
100
AcDbLine
 10
2083.479262672812
 20
3123.303453015428
 30
0.0
 11
2083.479262672812
 21
3258.303453015428
 31
0.0
  0
LINE
  5
20A
330
20
100
AcDbEntity
  8
_0-0_
  6
Continuous
 62
     4
100
AcDbLine
 10
2218.479262672812
 20
3123.303453015428
 30
0.0
 11
2218.479262672812
 21
3393.303453015427
 31
0.0
  0
LINE
  5
20B
330
20
100
AcDbEntity
  8
_0-0_
  6
Continuous
 62
     4
100
AcDbLine
 10
1348.479262672811
 20
3378.303453015428
 30
0.0
 11
2218.479262672812
 21
3378.303453015428
 31
0.0
  0
LINE
  5
20C
330
20
100
AcDbEntity
  8
_0-0_
  6
Continuous
 62
     4
100
AcDbLine
 10
1348.479262672811
 20
3243.303453015427
 30
0.0
 11
1483.479262672811
 21
3243.303453015427
 31
0.0
  0
LINE
  5
20D
330
20
100
AcDbEntity
  8
_0-0_
  6
Continuous
 62
     4
100
AcDbLine
 10
2083.479262672812
 20
3243.303453015427
 30
0.0
 11
2218.479262672812
 21
3243.303453015427
 31
0.0
  0
LINE
  5
20E
330
20
100
AcDbEntity
  8
_0-0_
  6
Continuous
 62
     4
100
AcDbLine
 10
2083.479262672812
 20
3243.303453015427
 30
0.0
 11
1483.479262672811
 21
3243.303453015427
 31
0.0
  0
LINE
  5
20F
330
20
100
AcDbEntity
  8
_0-0_
  6
Continuous
 62
     4
100
AcDbLine
 10
2493.479262672812
 20
3528.303453015428
 30
0.0
 11
2493.479262672812
 21
3023.303453015428
 31
0.0
  0
LINE
  5
210
330
20
100
AcDbEntity
  8
_0-0_
  6
Continuous
 62
     4
100
AcDbLine
 10
2493.479262672812
 20
3123.303453015428
 30
0.0
 11
2493.479262672812
 21
3023.303453015428
 31
0.0
  0
LINE
  5
211
330
20
100
AcDbEntity
  8
_0-0_
  6
Continuous
 62
     4
100
AcDbLine
 10
1333.479262672811
 20
3513.303453015428
 30
0.0
 11
1368.252592419218
 21
3522.620938639118
 31
0.0
  0
LINE
  5
212
330
20
100
AcDbEntity
  8
_0-0_
  6
Continuous
 62
     4
100
AcDbLine
 10
1333.479262672811
 20
3513.303453015428
 30
0.0
 11
1368.252592419218
 21
3503.985967391737
 31
0.0
  0
LINE
  5
213
330
20
100
AcDbEntity
  8
_0-0_
  6
Continuous
 62
     4
100
AcDbLine
 10
2493.479262672812
 20
3513.303453015428
 30
0.0
 11
2458.705932926406
 21
3503.985967391737
 31
0.0
  0
LINE
  5
214
330
20
100
AcDbEntity
  8
_0-0_
  6
Continuous
 62
     4
100
AcDbLine
 10
2493.479262672812
 20
3513.303453015428
 30
0.0
 11
2458.705932926406
 21
3522.620938639118
 31
0.0
  0
LINE
  5
215
330
20
100
AcDbEntity
  8
_0-0_
  6
Continuous
 62
     4
100
AcDbLine
 10
2218.479262672812
 20
3378.303453015428
 30
0.0
 11
2183.705932926405
 21
3368.985967391736
 31
0.0
  0
LINE
  5
216
330
20
100
AcDbEntity
  8
_0-0_
  6
Continuous
 62
     4
100
AcDbLine
 10
2218.479262672812
 20
3378.303453015428
 30
0.0
 11
2183.705932926405
 21
3387.620938639118
 31
0.0
  0
LINE
  5
217
330
20
100
AcDbEntity
  8
_0-0_
  6
Continuous
 62
     4
100
AcDbLine
 10
1348.479262672811
 20
3378.303453015428
 30
0.0
 11
1383.252592419218
 21
3387.620938639118
 31
0.0
  0
LINE
  5
218
330
20
100
AcDbEntity
  8
_0-0_
  6
Continuous
 62
     4
100
AcDbLine
 10
1348.479262672811
 20
3378.303453015428
 30
0.0
 11
1383.252592419218
 21
3368.985967391736
 31
0.0
  0
LINE
  5
219
330
20
100
AcDbEntity
  8
_0-0_
  6
Continuous
 62
     4
100
AcDbLine
 10
1348.479262672811
 20
3243.303453015427
 30
0.0
 11
1383.252592419218
 21
3252.620938639117
 31
0.0
  0
LINE
  5
21A
330
20
100
AcDbEntity
  8
_0-0_
  6
Continuous
 62
     4
100
AcDbLine
 10
1348.479262672811
 20
3243.303453015427
 30
0.0
 11
1383.252592419218
 21
3233.985967391736
 31
0.0
  0
LINE
  5
21B
330
20
100
AcDbEntity
  8
_0-0_
  6
Continuous
 62
     4
100
AcDbLine
 10
1483.479262672811
 20
3243.303453015427
 30
0.0
 11
1448.705932926405
 21
3233.985967391736
 31
0.0
  0
LINE
  5
21C
330
20
100
AcDbEntity
  8
_0-0_
  6
Continuous
 62
     4
100
AcDbLine
 10
1483.479262672811
 20
3243.303453015427
 30
0.0
 11
1448.705932926405
 21
3252.620938639117
 31
0.0
  0
LINE
  5
21D
330
20
100
AcDbEntity
  8
_0-0_
  6
Continuous
 62
     4
100
AcDbLine
 10
1483.479262672811
 20
3243.303453015427
 30
0.0
 11
1518.252592419218
 21
3252.620938639117
 31
0.0
  0
LINE
  5
21E
330
20
100
AcDbEntity
  8
_0-0_
  6
Continuous
 62
     4
100
AcDbLine
 10
1483.479262672811
 20
3243.303453015427
 30
0.0
 11
1518.252592419218
 21
3233.985967391736
 31
0.0
  0
LINE
  5
21F
330
20
100
AcDbEntity
  8
_0-0_
  6
Continuous
 62
     4
100
AcDbLine
 10
2083.479262672812
 20
3243.303453015427
 30
0.0
 11
2048.705932926405
 21
3233.985967391736
 31
0.0
  0
LINE
  5
220
330
20
100
AcDbEntity
  8
_0-0_
  6
Continuous
 62
     4
100
AcDbLine
 10
2083.479262672812
 20
3243.303453015427
 30
0.0
 11
2048.705932926405
 21
3252.620938639117
 31
0.0
  0
LINE
  5
221
330
20
100
AcDbEntity
  8
_0-0_
  6
Continuous
 62
     4
100
AcDbLine
 10
2083.479262672812
 20
3243.303453015427
 30
0.0
 11
2118.252592419217
 21
3252.620938639117
 31
0.0
  0
LINE
  5
222
330
20
100
AcDbEntity
  8
_0-0_
  6
Continuous
 62
     4
100
AcDbLine
 10
2083.479262672812
 20
3243.303453015427
 30
0.0
 11
2118.252592419217
 21
3233.985967391736
 31
0.0
  0
LINE
  5
223
330
20
100
AcDbEntity
  8
_0-0_
  6
Continuous
 62
     4
100
AcDbLine
 10
2218.479262672812
 20
3243.303453015427
 30
0.0
 11
2183.705932926405
 21
3233.985967391736
 31
0.0
  0
LINE
  5
224
330
20
100
AcDbEntity
  8
_0-0_
  6
Continuous
 62
     4
100
AcDbLine
 10
2218.479262672812
 20
3243.303453015427
 30
0.0
 11
2183.705932926405
 21
3252.620938639117
 31
0.0
  0
TEXT
  5
225
330
20
100
AcDbEntity
  8
_0-0_
 62
     7
100
AcDbText
 10
1855.989084499565
 20
3525.35340098629
 30
0.0
 40
60.0
  1
1160
100
AcDbText
  0
TEXT
  5
226
330
20
100
AcDbEntity
  8
_0-0_
 62
     7
100
AcDbText
 10
1708.163955488543
 20
3393.296285736445
 30
0.0
 40
60.0
  1
φ870
100
AcDbText
  0
TEXT
  5
227
330
20
100
AcDbEntity
  8
_0-0_
 62
     7
100
AcDbText
 10
1690.398616458015
 20
3261.239170486599
 30
0.0
 40
60.0
  1
φ600
100
AcDbText
  0
TEXT
  5
228
330
20
100
AcDbEntity
  8
_0-0_
 62
     7
100
AcDbText
 10
1373.09366306356
 20
3257.297167046305
 30
0.0
 40
60.0
  1
135
100
AcDbText
  0
TEXT
  5
229
330
20
100
AcDbEntity
  8
_0-0_
 62
     7
100
AcDbText
 10
2062.810045046808
 20
3257.297167046305
 30
0.0
 40
60.0
  1
135
100
AcDbText
  0
LINE
  5
22A
330
20
100
AcDbEntity
  8
_0-0_
  6
Continuous
 62
     4
100
AcDbLine
 10
2508.479262672812
 20
2738.303453015428
 30
0.0
 11
2643.479262672812
 21
2738.303453015428
 31
0.0
  0
LINE
  5
22B
330
20
100
AcDbEntity
  8
_0-0_
  6
Continuous
 62
     4
100
AcDbLine
 10
2628.479262672812
 20
2738.303453015428
 30
0.0
 11
2637.796748296502
 21
2703.53012326902
 31
0.0
  0
LINE
  5
22C
330
20
100
AcDbEntity
  8
_0-0_
  6
Continuous
 62
     4
100
AcDbLine
 10
2628.479262672812
 20
2738.303453015428
 30
0.0
 11
2619.161777049122
 21
2703.53012326902
 31
0.0
  0
LINE
  5
22D
330
20
100
AcDbEntity
  8
_0-0_
  6
Continuous
 62
     4
100
AcDbLine
 10
2120.312992470468
 20
2745.604147301083
 30
0.0
 11
2586.178626978076
 21
3243.303453015427
 31
0.0
  0
LINE
  5
22E
330
20
100
AcDbEntity
  8
_0-0_
  6
Continuous
 62
     4
100
AcDbLine
 10
2120.312992470468
 20
2745.604147301083
 30
0.0
 11
2137.273735030689
 21
2777.358410192952
 31
0.0
  0
LINE
  5
22F
330
20
100
AcDbEntity
  8
_0-0_
  6
Continuous
 62
     4
100
AcDbLine
 10
2120.312992470468
 20
2745.604147301083
 30
0.0
 11
2150.878557840602
 21
2764.623774363781
 31
0.0
  0
LINE
  5
230
330
20
100
AcDbEntity
  8
_0-0_
  6
Continuous
 62
     4
100
AcDbLine
 10
2628.479262672812
 20
2738.303453015428
 30
0.0
 11
2628.479262672812
 21
2508.303453015427
 31
0.0
  0
LINE
  5
231
330
20
100
AcDbEntity
  8
_0-0_
  6
Continuous
 62
     4
100
AcDbLine
 10
2628.479262672812
 20
2508.303453015427
 30
0.0
 11
2619.161777049122
 21
2543.076782761833
 31
0.0
  0
LINE
  5
232
330
20
100
AcDbEntity
  8
_0-0_
  6
Continuous
 62
     4
100
AcDbLine
 10
2628.479262672812
 20
2508.303453015427
 30
0.0
 11
2637.796748296502
 21
2543.076782761833
 31
0.0
  0
TEXT
  5
233
330
20
100
AcDbEntity
  8
_0-0_
 62
     7
100
AcDbText
 10
2613.284878860911
 20
2578.570850761873
 30
0.0
 40
60.0
  1
230
 50
90.0
100
AcDbText
  0
LINE
  5
234
330
20
100
AcDbEntity
  8
_0-0_
  6
Continuous
 62
     4
100
AcDbLine
 10
1333.479262672811
 20
3023.303453015428
 30
0.0
 11
1333.479262672811
 21
3528.303453015428
 31
0.0
  0
LINE
  5
235
330
20
100
AcDbEntity
  8
_0-0_
  6
Continuous
 62
     4
100
AcDbLine
 10
1348.479262672811
 20
3123.303453015428
 30
0.0
 11
1348.479262672811
 21
3393.303453015427
 31
0.0
  0
LINE
  5
236
330
20
100
AcDbEntity
  8
_0-0_
  6
Continuous
 62
     4
100
AcDbLine
 10
1913.479262672811
 20
2713.303453015428
 30
0.0
 11
1913.479262672811
 21
2578.303453015428
 31
0.0
  0
LINE
  5
237
330
20
100
AcDbEntity
  8
_0-0_
  6
Continuous
 62
     4
100
AcDbLine
 10
2113.479262672812
 20
2713.303453015428
 30
0.0
 11
2113.479262672812
 21
2578.303453015428
 31
0.0
  0
LINE
  5
238
330
20
100
AcDbEntity
  8
_0-0_
  6
Continuous
 62
     4
100
AcDbLine
 10
1713.479262672811
 20
2713.303453015428
 30
0.0
 11
1713.479262672811
 21
2578.303453015428
 31
0.0
  0
LINE
  5
239
330
20
100
AcDbEntity
  8
_0-0_
  6
Continuous
 62
     4
100
AcDbLine
 10
1713.479262672811
 20
2593.303453015428
 30
0.0
 11
1913.479262672811
 21
2593.303453015428
 31
0.0
  0
LINE
  5
23A
330
20
100
AcDbEntity
  8
_0-0_
  6
Continuous
 62
     4
100
AcDbLine
 10
2113.479262672812
 20
2593.303453015428
 30
0.0
 11
1913.479262672811
 21
2593.303453015428
 31
0.0
  0
LINE
  5
23B
330
20
100
AcDbEntity
  8
_0-0_
  6
Continuous
 62
     4
100
AcDbLine
 10
2113.479262672812
 20
2593.303453015428
 30
0.0
 11
2078.705932926405
 21
2583.985967391737
 31
0.0
  0
LINE
  5
23C
330
20
100
AcDbEntity
  8
_0-0_
  6
Continuous
 62
     4
100
AcDbLine
 10
2113.479262672812
 20
2593.303453015428
 30
0.0
 11
2078.705932926405
 21
2602.620938639117
 31
0.0
  0
LINE
  5
23D
330
20
100
AcDbEntity
  8
_0-0_
  6
Continuous
 62
     4
100
AcDbLine
 10
1913.479262672811
 20
2593.303453015428
 30
0.0
 11
1948.252592419218
 21
2602.620938639117
 31
0.0
  0
LINE
  5
23E
330
20
100
AcDbEntity
  8
_0-0_
  6
Continuous
 62
     4
100
AcDbLine
 10
1913.479262672811
 20
2593.303453015428
 30
0.0
 11
1948.252592419218
 21
2583.985967391737
 31
0.0
  0
LINE
  5
23F
330
20
100
AcDbEntity
  8
_0-0_
  6
Continuous
 62
     4
100
AcDbLine
 10
1913.479262672811
 20
2593.303453015428
 30
0.0
 11
1878.705932926405
 21
2583.985967391737
 31
0.0
  0
LINE
  5
240
330
20
100
AcDbEntity
  8
_0-0_
  6
Continuous
 62
     4
100
AcDbLine
 10
1913.479262672811
 20
2593.303453015428
 30
0.0
 11
1878.705932926405
 21
2602.620938639117
 31
0.0
  0
LINE
  5
241
330
20
100
AcDbEntity
  8
_0-0_
  6
Continuous
 62
     4
100
AcDbLine
 10
1713.479262672811
 20
2593.303453015428
 30
0.0
 11
1748.252592419218
 21
2602.620938639117
 31
0.0
  0
LINE
  5
242
330
20
100
AcDbEntity
  8
_0-0_
  6
Continuous
 62
     4
100
AcDbLine
 10
1713.479262672811
 20
2593.303453015428
 30
0.0
 11
1748.252592419218
 21
2583.985967391737
 31
0.0
  0
TEXT
  5
243
330
20
100
AcDbEntity
  8
_0-0_
 62
     7
100
AcDbText
 10
1747.255580937033
 20
2601.476990565118
 30
0.0
 40
60.0
  1
200
100
AcDbText
  0
TEXT
  5
244
330
20
100
AcDbEntity
  8
_0-0_
 62
     7
100
AcDbText
 10
1949.043721503876
 20
2601.476990565118
 30
0.0
 40
60.0
  1
200
100
AcDbText
  0
LINE
  5
245
330
20
100
AcDbEntity
  8
_0-0_
  6
Continuous
 62
     4
100
AcDbLine
 10
1318.479262672811
 20
3108.303453015427
 30
0.0
 11
643.4792626728113
 21
3108.303453015427
 31
0.0
  0
LINE
  5
246
330
20
100
AcDbEntity
  8
_0-0_
  6
Continuous
 62
     4
100
AcDbLine
 10
1318.479262672811
 20
3008.303453015428
 30
0.0
 11
778.4792626728114
 21
3008.303453015428
 31
0.0
  0
LINE
  5
247
330
20
100
AcDbEntity
  8
_0-0_
  6
Continuous
 62
     4
100
AcDbLine
 10
928.4792626728114
 20
2908.303453015427
 30
0.0
 11
928.4792626728114
 21
3008.303453015428
 31
0.0
  0
LINE
  5
248
330
20
100
AcDbEntity
  8
_0-0_
  6
Continuous
 62
     4
100
AcDbLine
 10
1318.479262672811
 20
2908.303453015427
 30
0.0
 11
913.4792626728113
 21
2908.303453015427
 31
0.0
  0
LINE
  5
249
330
20
100
AcDbEntity
  8
_0-0_
  6
Continuous
 62
     4
100
AcDbLine
 10
793.4792626728113
 20
3008.303453015428
 30
0.0
 11
793.4792626728113
 21
3108.303453015427
 31
0.0
  0
LINE
  5
24A
330
20
100
AcDbEntity
  8
_0-0_
  6
Continuous
 62
     4
100
AcDbLine
 10
658.4792626728114
 20
3108.303453015427
 30
0.0
 11
667.7967482965022
 21
3073.530123269021
 31
0.0
  0
LINE
  5
24B
330
20
100
AcDbEntity
  8
_0-0_
  6
Continuous
 62
     4
100
AcDbLine
 10
658.4792626728114
 20
3108.303453015427
 30
0.0
 11
649.1617770491204
 21
3073.530123269021
 31
0.0
  0
LINE
  5
24C
330
20
100
AcDbEntity
  8
_0-0_
  6
Continuous
 62
     4
100
AcDbLine
 10
793.4792626728113
 20
3008.303453015428
 30
0.0
 11
802.7967482965021
 21
2973.53012326902
 31
0.0
  0
LINE
  5
24D
330
20
100
AcDbEntity
  8
_0-0_
  6
Continuous
 62
     4
100
AcDbLine
 10
793.4792626728113
 20
3008.303453015428
 30
0.0
 11
784.1617770491206
 21
2973.53012326902
 31
0.0
  0
LINE
  5
24E
330
20
100
AcDbEntity
  8
_0-0_
  6
Continuous
 62
     4
100
AcDbLine
 10
793.4792626728113
 20
3008.303453015428
 30
0.0
 11
784.1617770491206
 21
3043.076782761833
 31
0.0
  0
LINE
  5
24F
330
20
100
AcDbEntity
  8
_0-0_
  6
Continuous
 62
     4
100
AcDbLine
 10
793.4792626728113
 20
3008.303453015428
 30
0.0
 11
802.7967482965021
 21
3043.076782761833
 31
0.0
  0
LINE
  5
250
330
20
100
AcDbEntity
  8
_0-0_
  6
Continuous
 62
     4
100
AcDbLine
 10
793.4792626728113
 20
3108.303453015427
 30
0.0
 11
802.7967482965021
 21
3073.530123269021
 31
0.0
  0
LINE
  5
251
330
20
100
AcDbEntity
  8
_0-0_
  6
Continuous
 62
     4
100
AcDbLine
 10
793.4792626728113
 20
3108.303453015427
 30
0.0
 11
784.1617770491206
 21
3073.530123269021
 31
0.0
  0
LINE
  5
252
330
20
100
AcDbEntity
  8
_0-0_
  6
Continuous
 62
     4
100
AcDbLine
 10
928.4792626728114
 20
3008.303453015428
 30
0.0
 11
937.7967482965022
 21
2973.53012326902
 31
0.0
  0
LINE
  5
253
330
20
100
AcDbEntity
  8
_0-0_
  6
Continuous
 62
     4
100
AcDbLine
 10
928.4792626728114
 20
3008.303453015428
 30
0.0
 11
919.1617770491204
 21
2973.53012326902
 31
0.0
  0
LINE
  5
254
330
20
100
AcDbEntity
  8
_0-0_
  6
Continuous
 62
     4
100
AcDbLine
 10
928.4792626728114
 20
2908.303453015427
 30
0.0
 11
919.1617770491204
 21
2943.076782761833
 31
0.0
  0
LINE
  5
255
330
20
100
AcDbEntity
  8
_0-0_
  6
Continuous
 62
     4
100
AcDbLine
 10
928.4792626728114
 20
2908.303453015427
 30
0.0
 11
937.7967482965022
 21
2943.076782761833
 31
0.0
  0
LINE
  5
256
330
20
100
AcDbEntity
  8
_0-0_
  6
Continuous
 62
     4
100
AcDbLine
 10
928.4792626728114
 20
2908.303453015427
 30
0.0
 11
937.7967482965022
 21
2873.53012326902
 31
0.0
  0
LINE
  5
257
330
20
100
AcDbEntity
  8
_0-0_
  6
Continuous
 62
     4
100
AcDbLine
 10
928.4792626728114
 20
2908.303453015427
 30
0.0
 11
919.1617770491204
 21
2873.53012326902
 31
0.0
  0
LINE
  5
258
330
20
100
AcDbEntity
  8
_0-0_
  6
Continuous
 62
     4
100
AcDbLine
 10
1063.479262672811
 20
2908.303453015427
 30
0.0
 11
1072.796748296502
 21
2873.53012326902
 31
0.0
  0
LINE
  5
259
330
20
100
AcDbEntity
  8
_0-0_
  6
Continuous
 62
     4
100
AcDbLine
 10
1063.479262672811
 20
2908.303453015427
 30
0.0
 11
1054.16177704912
 21
2873.53012326902
 31
0.0
  0
TEXT
  5
25A
330
20
100
AcDbEntity
  8
_0-0_
 62
     7
100
AcDbText
 10
778.1781159575611
 20
2963.827695203966
 30
0.0
 40
60.0
  1
100
 50
90.0
100
AcDbText
  0
TEXT
  5
25B
330
20
100
AcDbEntity
  8
_0-0_
 62
     7
100
AcDbText
 10
912.126781695424
 20
2864.360864210503
 30
0.0
 40
60.0
  1
100
 50
90.0
100
AcDbText
  0
TEXT
  5
25C
330
20
100
AcDbEntity
  8
_0-0_
 62
     7
100
AcDbText
 10
2811.76444629624
 20
3028.585069931283
 30
0.0
 40
60.0
  1
CR-600
 41
0.6200000000000001
100
AcDbText
  0
LINE
  5
25D
330
20
100
AcDbEntity
  8
_0-0_
  6
Continuous
 62
     7
100
AcDbLine
 10
2823.479262672811
 20
3098.303453015427
 30
0.0
 11
2743.479262672812
 21
3058.303453015427
 31
0.0
  0
LINE
  5
25E
330
20
100
AcDbEntity
  8
_0-0_
  6
Continuous
 62
     7
100
AcDbLine
 10
2743.479262672812
 20
3058.303453015427
 30
0.0
 11
2823.479262672811
 21
3018.303453015427
 31
0.0
  0
LINE
  5
25F
330
20
100
AcDbEntity
  8
_0-0_
  6
Continuous
 62
     7
100
AcDbLine
 10
2823.479262672811
 20
3018.303453015427
 30
0.0
 11
3023.479262672811
 21
3018.303453015427
 31
0.0
  0
LINE
  5
260
330
20
100
AcDbEntity
  8
_0-0_
  6
Continuous
 62
     7
100
AcDbLine
 10
3023.479262672811
 20
3018.303453015427
 30
0.0
 11
3023.479262672811
 21
3098.303453015427
 31
0.0
  0
LINE
  5
261
330
20
100
AcDbEntity
  8
_0-0_
  6
Continuous
 62
     7
100
AcDbLine
 10
3023.479262672811
 20
3098.303453015427
 30
0.0
 11
2823.479262672811
 21
3098.303453015427
 31
0.0
  0
TEXT
  5
262
330
20
100
AcDbEntity
  8
_0-0_
 62
     7
100
AcDbText
 10
2587.407992928497
 20
3254.868892927084
 30
0.0
 40
60.0
  1
インサート　M12
100
AcDbText
  0
LINE
  5
263
330
20
100
AcDbEntity
  8
_0-0_
  6
Continuous
 62
     4
100
AcDbLine
 10
2586.178626978076
 20
3243.303453015427
 30
0.0
 11
3173.841546795104
 21
3243.303453015427
 31
0.0
  0
LINE
  5
264
330
20
100
AcDbEntity
  8
_0-0_
  6
Continuous
 62
     7
100
AcDbLine
 10
2823.479262672811
 20
2748.303453015428
 30
0.0
 11
2743.479262672812
 21
2708.303453015428
 31
0.0
  0
LINE
  5
265
330
20
100
AcDbEntity
  8
_0-0_
  6
Continuous
 62
     7
100
AcDbLine
 10
2743.479262672812
 20
2708.303453015428
 30
0.0
 11
2823.479262672811
 21
2668.303453015427
 31
0.0
  0
LINE
  5
266
330
20
100
AcDbEntity
  8
_0-0_
  6
Continuous
 62
     7
100
AcDbLine
 10
2823.479262672811
 20
2668.303453015427
 30
0.0
 11
3023.479262672811
 21
2668.303453015427
 31
0.0
  0
LINE
  5
267
330
20
100
AcDbEntity
  8
_0-0_
  6
Continuous
 62
     7
100
AcDbLine
 10
3023.479262672811
 20
2668.303453015427
 30
0.0
 11
3023.479262672811
 21
2748.303453015428
 31
0.0
  0
LINE
  5
268
330
20
100
AcDbEntity
  8
_0-0_
  6
Continuous
 62
     7
100
AcDbLine
 10
3023.479262672811
 20
2748.303453015428
 30
0.0
 11
2823.479262672811
 21
2748.303453015428
 31
0.0
  0
TEXT
  5
269
330
20
100
AcDbEntity
  8
_0-0_
 62
     7
100
AcDbText
 10
2818.132116452981
 20
2676.729666711708
 30
0.0
 40
60.0
  1
B2-500
 41
0.6200000000000001
100
AcDbText
  0
LINE
  5
26A
330
20
100
AcDbEntity
  8
_0-0_
  6
Continuous
 62
     7
100
AcDbLine
 10
1333.479262672811
 20
2998.303453015428
 30
0.0
 11
1333.479262672811
 21
1318.303453015427
 31
0.0
  0
LINE
  5
26B
330
20
100
AcDbEntity
  8
_0-0_
  6
Continuous
 62
     7
100
AcDbLine
 10
2493.479262672812
 20
2998.303453015428
 30
0.0
 11
2493.479262672812
 21
1318.303453015427
 31
0.0
  0
LINE
  5
26C
330
20
100
AcDbEntity
  8
_0-0_
  6
DASHED1
 62
   136
100
AcDbLine
 10
1413.479262672811
 20
2858.303453015427
 30
0.0
 11
1413.479262672811
 21
1458.303453015427
 31
0.0
  0
LINE
  5
26D
330
20
100
AcDbEntity
  8
_0-0_
  6
DASHED1
 62
   136
100
AcDbLine
 10
1463.479262672811
 20
2908.303453015427
 30
0.0
 11
1463.479262672811
 21
1408.303453015427
 31
0.0
  0
LINE
  5
26E
330
20
100
AcDbEntity
  8
_0-0_
  6
DASHED1
 62
   136
100
AcDbLine
 10
2363.479262672812
 20
2908.303453015427
 30
0.0
 11
2363.479262672812
 21
1408.303453015427
 31
0.0
  0
LINE
  5
26F
330
20
100
AcDbEntity
  8
_0-0_
  6
DASHED1
 62
   136
100
AcDbLine
 10
2413.479262672812
 20
2858.303453015427
 30
0.0
 11
2413.479262672812
 21
1458.303453015427
 31
0.0
  0
LINE
  5
270
330
20
100
AcDbEntity
  8
_0-0_
  6
Continuous
 62
     4
100
AcDbLine
 10
658.4792626728114
 20
3108.303453015427
 30
0.0
 11
658.4792626728114
 21
1308.303453015427
 31
0.0
  0
LINE
  5
271
330
20
100
AcDbEntity
  8
_0-0_
  6
Continuous
 62
     4
100
AcDbLine
 10
793.4792626728113
 20
3008.303453015428
 30
0.0
 11
793.4792626728113
 21
1308.303453015427
 31
0.0
  0
LINE
  5
272
330
20
100
AcDbEntity
  8
_0-0_
  6
Continuous
 62
     4
100
AcDbLine
 10
928.4792626728114
 20
2908.303453015427
 30
0.0
 11
928.4792626728114
 21
1408.303453015427
 31
0.0
  0
LINE
  5
273
330
20
100
AcDbEntity
  8
_0-0_
  6
Continuous
 62
     4
100
AcDbLine
 10
1063.479262672811
 20
2908.303453015427
 30
0.0
 11
1063.479262672811
 21
2408.303453015427
 31
0.0
  0
TEXT
  5
274
330
20
100
AcDbEntity
  8
_0-0_
 62
     7
100
AcDbText
 10
1050.796148372641
 20
2613.167353542053
 30
0.0
 40
60.0
  1
500
 50
90.0
100
AcDbText
  0
TEXT
  5
275
330
20
100
AcDbEntity
  8
_0-0_
 62
     7
100
AcDbText
 10
916.5001393205445
 20
2097.403013619864
 30
0.0
 40
60.0
  1
1500
 50
90.0
100
AcDbText
  0
TEXT
  5
276
330
20
100
AcDbEntity
  8
_0-0_
 62
     7
100
AcDbText
 10
782.1037402207694
 20
2098.561603267276
 30
0.0
 40
60.0
  1
1700
 50
90.0
100
AcDbText
  0
TEXT
  5
277
330
20
100
AcDbEntity
  8
_0-0_
 62
     7
100
AcDbText
 10
644.2315721787588
 20
2148.380958105985
 30
0.0
 40
60.0
  1
1800
 50
90.0
100
AcDbText
  0
LINE
  5
278
330
20
100
AcDbEntity
  8
_0-0_
  6
DASHED1
 62
     6
100
AcDbLine
 10
1373.479262672811
 20
2748.303453015428
 30
0.0
 11
1413.479262672811
 21
2748.303453015428
 31
0.0
  0
LINE
  5
279
330
20
100
AcDbEntity
  8
_0-0_
  6
DASHED1
 62
     6
100
AcDbLine
 10
1373.479262672811
 20
2728.303453015428
 30
0.0
 11
1413.479262672811
 21
2728.303453015428
 31
0.0
  0
LINE
  5
27A
330
20
100
AcDbEntity
  8
_0-0_
  6
DASHED1
 62
     6
100
AcDbLine
 10
1373.479262672811
 20
2748.303453015428
 30
0.0
 11
1373.479262672811
 21
2728.303453015428
 31
0.0
  0
LINE
  5
27B
330
20
100
AcDbEntity
  8
_0-0_
  6
DASHED1
 62
     6
100
AcDbLine
 10
1373.479262672811
 20
2348.303453015427
 30
0.0
 11
1413.479262672811
 21
2348.303453015427
 31
0.0
  0
LINE
  5
27C
330
20
100
AcDbEntity
  8
_0-0_
  6
DASHED1
 62
     6
100
AcDbLine
 10
1373.479262672811
 20
2348.303453015427
 30
0.0
 11
1373.479262672811
 21
2328.303453015427
 31
0.0
  0
LINE
  5
27D
330
20
100
AcDbEntity
  8
_0-0_
  6
DASHED1
 62
     6
100
AcDbLine
 10
1373.479262672811
 20
2328.303453015427
 30
0.0
 11
1413.479262672811
 21
2328.303453015427
 31
0.0
  0
CIRCLE
  5
27E
330
20
100
AcDbEntity
  8
_0-0_
  6
DASHED1
 62
     6
100
AcDbCircle
 10
1713.479262672811
 20
2338.303453015427
 30
0.0
 40
10.0
  0
CIRCLE
  5
27F
330
20
100
AcDbEntity
  8
_0-0_
  6
DASHED1
 62
     6
100
AcDbCircle
 10
1913.479262672811
 20
2338.303453015427
 30
0.0
 40
10.0
  0
CIRCLE
  5
280
330
20
100
AcDbEntity
  8
_0-0_
  6
DASHED1
 62
     6
100
AcDbCircle
 10
2113.479262672812
 20
2338.303453015427
 30
0.0
 40
10.0
  0
LINE
  5
281
330
20
100
AcDbEntity
  8
_0-0_
  6
DASHED1
 62
     6
100
AcDbLine
 10
2413.479262672812
 20
2328.303453015427
 30
0.0
 11
2453.479262672812
 21
2328.303453015427
 31
0.0
  0
LINE
  5
282
330
20
100
AcDbEntity
  8
_0-0_
  6
DASHED1
 62
     6
100
AcDbLine
 10
2413.479262672812
 20
2348.303453015427
 30
0.0
 11
2453.479262672812
 21
2348.303453015427
 31
0.0
  0
LINE
  5
283
330
20
100
AcDbEntity
  8
_0-0_
  6
DASHED1
 62
     6
100
AcDbLine
 10
2453.479262672812
 20
2348.303453015427
 30
0.0
 11
2453.479262672812
 21
2328.303453015427
 31
0.0
  0
LINE
  5
284
330
20
100
AcDbEntity
  8
_0-0_
  6
DASHED1
 62
     6
100
AcDbLine
 10
2413.479262672812
 20
2728.303453015428
 30
0.0
 11
2453.479262672812
 21
2728.303453015428
 31
0.0
  0
LINE
  5
285
330
20
100
AcDbEntity
  8
_0-0_
  6
DASHED1
 62
     6
100
AcDbLine
 10
2413.479262672812
 20
2748.303453015428
 30
0.0
 11
2453.479262672812
 21
2748.303453015428
 31
0.0
  0
LINE
  5
286
330
20
100
AcDbEntity
  8
_0-0_
  6
DASHED1
 62
     6
100
AcDbLine
 10
2453.479262672812
 20
2748.303453015428
 30
0.0
 11
2453.479262672812
 21
2728.303453015428
 31
0.0
  0
CIRCLE
  5
287
330
20
100
AcDbEntity
  8
_0-0_
  6
DASHED1
 62
     6
100
AcDbCircle
 10
2113.479262672812
 20
2738.303453015428
 30
0.0
 40
10.0
  0
CIRCLE
  5
288
330
20
100
AcDbEntity
  8
_0-0_
  6
DASHED1
 62
     6
100
AcDbCircle
 10
1913.479262672811
 20
2738.303453015428
 30
0.0
 40
10.0
  0
CIRCLE
  5
289
330
20
100
AcDbEntity
  8
_0-0_
  6
DASHED1
 62
     6
100
AcDbCircle
 10
1713.479262672811
 20
2738.303453015428
 30
0.0
 40
10.0
  0
LINE
  5
28A
330
20
100
AcDbEntity
  8
_0-0_
  6
DASHED1
 62
     6
100
AcDbLine
 10
1373.479262672811
 20
1828.303453015427
 30
0.0
 11
1413.479262672811
 21
1828.303453015427
 31
0.0
  0
LINE
  5
28B
330
20
100
AcDbEntity
  8
_0-0_
  6
DASHED1
 62
     6
100
AcDbLine
 10
1373.479262672811
 20
1808.303453015426
 30
0.0
 11
1413.479262672811
 21
1808.303453015426
 31
0.0
  0
LINE
  5
28C
330
20
100
AcDbEntity
  8
_0-0_
  6
DASHED1
 62
     6
100
AcDbLine
 10
1373.479262672811
 20
1828.303453015427
 30
0.0
 11
1373.479262672811
 21
1808.303453015426
 31
0.0
  0
CIRCLE
  5
28D
330
20
100
AcDbEntity
  8
_0-0_
  6
DASHED1
 62
     6
100
AcDbCircle
 10
1713.479262672811
 20
1818.303453015426
 30
0.0
 40
10.0
  0
CIRCLE
  5
28E
330
20
100
AcDbEntity
  8
_0-0_
  6
DASHED1
 62
     6
100
AcDbCircle
 10
1913.479262672811
 20
1818.303453015426
 30
0.0
 40
10.0
  0
CIRCLE
  5
28F
330
20
100
AcDbEntity
  8
_0-0_
  6
DASHED1
 62
     6
100
AcDbCircle
 10
2113.479262672812
 20
1818.303453015426
 30
0.0
 40
10.0
  0
LINE
  5
290
330
20
100
AcDbEntity
  8
_0-0_
  6
DASHED1
 62
     6
100
AcDbLine
 10
2413.479262672812
 20
1808.303453015426
 30
0.0
 11
2453.479262672812
 21
1808.303453015426
 31
0.0
  0
LINE
  5
291
330
20
100
AcDbEntity
  8
_0-0_
  6
DASHED1
 62
     6
100
AcDbLine
 10
2413.479262672812
 20
1828.303453015427
 30
0.0
 11
2453.479262672812
 21
1828.303453015427
 31
0.0
  0
LINE
  5
292
330
20
100
AcDbEntity
  8
_0-0_
  6
DASHED1
 62
     6
100
AcDbLine
 10
2453.479262672812
 20
1828.303453015427
 30
0.0
 11
2453.479262672812
 21
1808.303453015426
 31
0.0
  0
LINE
  5
293
330
20
100
AcDbEntity
  8
_0-0_
  6
Continuous
 62
     4
100
AcDbLine
 10
2493.479262672812
 20
768.3034530154269
 30
0.0
 11
1333.479262672811
 21
768.3034530154269
 31
0.0
  0
LINE
  5
294
330
20
100
AcDbEntity
  8
_0-0_
  6
Continuous
 62
     4
100
AcDbLine
 10
1333.479262672811
 20
1293.303453015427
 30
0.0
 11
1333.479262672811
 21
753.3034530154269
 31
0.0
  0
LINE
  5
295
330
20
100
AcDbEntity
  8
_0-0_
  6
Continuous
 62
     4
100
AcDbLine
 10
2493.479262672812
 20
1293.303453015427
 30
0.0
 11
2493.479262672812
 21
753.3034530154269
 31
0.0
  0
LINE
  5
296
330
20
100
AcDbEntity
  8
_0-0_
  6
Continuous
 62
     4
100
AcDbLine
 10
2493.479262672812
 20
768.3034530154269
 30
0.0
 11
2458.705932926406
 21
758.985967391736
 31
0.0
  0
LINE
  5
297
330
20
100
AcDbEntity
  8
_0-0_
  6
Continuous
 62
     4
100
AcDbLine
 10
2493.479262672812
 20
768.3034530154269
 30
0.0
 11
2458.705932926406
 21
777.6209386391176
 31
0.0
  0
LINE
  5
298
330
20
100
AcDbEntity
  8
_0-0_
  6
Continuous
 62
     4
100
AcDbLine
 10
1333.479262672811
 20
768.3034530154269
 30
0.0
 11
1368.252592419218
 21
777.6209386391176
 31
0.0
  0
LINE
  5
299
330
20
100
AcDbEntity
  8
_0-0_
  6
Continuous
 62
     4
100
AcDbLine
 10
1333.479262672811
 20
768.3034530154269
 30
0.0
 11
1368.252592419218
 21
758.985967391736
 31
0.0
  0
TEXT
  5
29A
330
20
100
AcDbEntity
  8
_0-0_
 62
     7
100
AcDbText
 10
1859.490326827921
 20
780.3314213307443
 30
0.0
 40
60.0
  1
1160
100
AcDbText
  0
LINE
  5
29B
330
20
100
AcDbEntity
  8
_0-0_
  6
Continuous
 62
     4
100
AcDbLine
 10
3896.434331797234
 20
2757.80529953917
 30
0.0
 11
3905.751817420926
 21
2723.031969792764
 31
0.0
  0
LINE
  5
29C
330
20
100
AcDbEntity
  8
_0-0_
  6
Continuous
 62
     4
100
AcDbLine
 10
3896.434331797234
 20
2757.80529953917
 30
0.0
 11
3887.116846173544
 21
2723.031969792764
 31
0.0
  0
LINE
  5
29D
330
20
100
AcDbEntity
  8
_0-0_
  6
Continuous
 62
     4
100
AcDbLine
 10
3881.434331797234
 20
2307.80529953917
 30
0.0
 11
4016.434331797233
 21
2307.80529953917
 31
0.0
  0
LINE
  5
29E
330
20
100
AcDbEntity
  8
_0-0_
  6
Continuous
 62
     4
100
AcDbLine
 10
3881.434331797234
 20
2507.80529953917
 30
0.0
 11
4016.434331797233
 21
2507.80529953917
 31
0.0
  0
LINE
  5
29F
330
20
100
AcDbEntity
  8
_0-0_
  6
Continuous
 62
     4
100
AcDbLine
 10
3881.434331797234
 20
2107.805299539169
 30
0.0
 11
4016.434331797233
 21
2107.805299539169
 31
0.0
  0
LINE
  5
2A0
330
20
100
AcDbEntity
  8
_0-0_
  6
Continuous
 62
     4
100
AcDbLine
 10
3896.434331797234
 20
2107.805299539169
 30
0.0
 11
3896.434331797234
 21
2307.80529953917
 31
0.0
  0
LINE
  5
2A1
330
20
100
AcDbEntity
  8
_0-0_
  6
Continuous
 62
     4
100
AcDbLine
 10
3896.434331797234
 20
2507.80529953917
 30
0.0
 11
3896.434331797234
 21
2307.80529953917
 31
0.0
  0
LINE
  5
2A2
330
20
100
AcDbEntity
  8
_0-0_
  6
Continuous
 62
     4
100
AcDbLine
 10
3896.434331797234
 20
2507.80529953917
 30
0.0
 11
3905.751817420926
 21
2473.031969792764
 31
0.0
  0
LINE
  5
2A3
330
20
100
AcDbEntity
  8
_0-0_
  6
Continuous
 62
     4
100
AcDbLine
 10
3896.434331797234
 20
2507.80529953917
 30
0.0
 11
3887.116846173544
 21
2473.031969792764
 31
0.0
  0
LINE
  5
2A4
330
20
100
AcDbEntity
  8
_0-0_
  6
Continuous
 62
     4
100
AcDbLine
 10
3896.434331797234
 20
2307.80529953917
 30
0.0
 11
3887.116846173544
 21
2342.578629285577
 31
0.0
  0
LINE
  5
2A5
330
20
100
AcDbEntity
  8
_0-0_
  6
Continuous
 62
     4
100
AcDbLine
 10
3896.434331797234
 20
2307.80529953917
 30
0.0
 11
3905.751817420926
 21
2342.578629285577
 31
0.0
  0
LINE
  5
2A6
330
20
100
AcDbEntity
  8
_0-0_
  6
Continuous
 62
     4
100
AcDbLine
 10
3896.434331797234
 20
2307.80529953917
 30
0.0
 11
3905.751817420926
 21
2273.031969792763
 31
0.0
  0
LINE
  5
2A7
330
20
100
AcDbEntity
  8
_0-0_
  6
Continuous
 62
     4
100
AcDbLine
 10
3896.434331797234
 20
2307.80529953917
 30
0.0
 11
3887.116846173544
 21
2273.031969792763
 31
0.0
  0
LINE
  5
2A8
330
20
100
AcDbEntity
  8
_0-0_
  6
Continuous
 62
     4
100
AcDbLine
 10
3896.434331797234
 20
2107.805299539169
 30
0.0
 11
3887.116846173544
 21
2142.578629285576
 31
0.0
  0
LINE
  5
2A9
330
20
100
AcDbEntity
  8
_0-0_
  6
Continuous
 62
     4
100
AcDbLine
 10
3896.434331797234
 20
2107.805299539169
 30
0.0
 11
3905.751817420926
 21
2142.578629285576
 31
0.0
  0
TEXT
  5
2AA
330
20
100
AcDbEntity
  8
_0-0_
 62
     7
100
AcDbText
 10
3885.43860250777
 20
2343.777003556187
 30
0.0
 40
60.0
  1
200
 50
90.0
100
AcDbText
  0
TEXT
  5
2AB
330
20
100
AcDbEntity
  8
_0-0_
 62
     7
100
AcDbText
 10
3885.43860250777
 20
2143.786605956787
 30
0.0
 40
60.0
  1
200
 50
90.0
100
AcDbText
  0
LINE
  5
2AC
330
20
100
AcDbEntity
  8
_0-0_
  6
Continuous
 62
     4
100
AcDbLine
 10
5326.434331797234
 20
2607.805299539169
 30
0.0
 11
5326.434331797234
 21
2007.80529953917
 31
0.0
  0
LINE
  5
2AD
330
20
100
AcDbEntity
  8
_0-0_
  6
Continuous
 62
     4
100
AcDbLine
 10
5206.434331797234
 20
2607.805299539169
 30
0.0
 11
5341.434331797234
 21
2607.805299539169
 31
0.0
  0
LINE
  5
2AE
330
20
100
AcDbEntity
  8
_0-0_
  6
Continuous
 62
     4
100
AcDbLine
 10
5206.434331797234
 20
2007.80529953917
 30
0.0
 11
5341.434331797234
 21
2007.80529953917
 31
0.0
  0
TEXT
  5
2AF
330
20
100
AcDbEntity
  8
_0-0_
 62
     7
100
AcDbText
 10
5316.465784220142
 20
2241.517904529363
 30
0.0
 40
60.0
  1
600
 50
90.0
100
AcDbText
  0
LINE
  5
2B0
330
20
100
AcDbEntity
  8
_0-0_
  6
Continuous
 62
     4
100
AcDbLine
 10
5326.434331797234
 20
2607.805299539169
 30
0.0
 11
5335.751817420925
 21
2573.031969792764
 31
0.0
  0
LINE
  5
2B1
330
20
100
AcDbEntity
  8
_0-0_
  6
Continuous
 62
     4
100
AcDbLine
 10
5326.434331797234
 20
2607.805299539169
 30
0.0
 11
5317.116846173544
 21
2573.031969792764
 31
0.0
  0
LINE
  5
2B2
330
20
100
AcDbEntity
  8
_0-0_
  6
Continuous
 62
     4
100
AcDbLine
 10
5326.434331797234
 20
2007.80529953917
 30
0.0
 11
5317.116846173544
 21
2042.578629285577
 31
0.0
  0
LINE
  5
2B3
330
20
100
AcDbEntity
  8
_0-0_
  6
Continuous
 62
     4
100
AcDbLine
 10
5326.434331797234
 20
2007.80529953917
 30
0.0
 11
5335.751817420925
 21
2042.578629285577
 31
0.0
  0
LINE
  5
2B4
330
20
100
AcDbEntity
  8
_0-0_
  6
Continuous
 62
     4
100
AcDbLine
 10
4611.434331797234
 20
3037.80529953917
 30
0.0
 11
4611.434331797234
 21
2902.80529953917
 31
0.0
  0
LINE
  5
2B5
330
20
100
AcDbEntity
  8
_0-0_
  6
Continuous
 62
     4
100
AcDbLine
 10
4811.434331797234
 20
3037.80529953917
 30
0.0
 11
4811.434331797234
 21
2902.80529953917
 31
0.0
  0
LINE
  5
2B6
330
20
100
AcDbEntity
  8
_0-0_
  6
Continuous
 62
     4
100
AcDbLine
 10
4411.434331797233
 20
3037.80529953917
 30
0.0
 11
4411.434331797233
 21
2902.80529953917
 31
0.0
  0
LINE
  5
2B7
330
20
100
AcDbEntity
  8
_0-0_
  6
Continuous
 62
     4
100
AcDbLine
 10
4611.434331797234
 20
3022.80529953917
 30
0.0
 11
4411.434331797233
 21
3022.80529953917
 31
0.0
  0
LINE
  5
2B8
330
20
100
AcDbEntity
  8
_0-0_
  6
Continuous
 62
     4
100
AcDbLine
 10
4811.434331797234
 20
3022.80529953917
 30
0.0
 11
4611.434331797234
 21
3022.80529953917
 31
0.0
  0
LINE
  5
2B9
330
20
100
AcDbEntity
  8
_0-0_
  6
Continuous
 62
     4
100
AcDbLine
 10
4811.434331797234
 20
3022.80529953917
 30
0.0
 11
4776.661002050828
 21
3013.487813915479
 31
0.0
  0
LINE
  5
2BA
330
20
100
AcDbEntity
  8
_0-0_
  6
Continuous
 62
     4
100
AcDbLine
 10
4811.434331797234
 20
3022.80529953917
 30
0.0
 11
4776.661002050828
 21
3032.122785162861
 31
0.0
  0
LINE
  5
2BB
330
20
100
AcDbEntity
  8
_0-0_
  6
Continuous
 62
     4
100
AcDbLine
 10
4611.434331797234
 20
3022.80529953917
 30
0.0
 11
4646.20766154364
 21
3032.122785162861
 31
0.0
  0
LINE
  5
2BC
330
20
100
AcDbEntity
  8
_0-0_
  6
Continuous
 62
     4
100
AcDbLine
 10
4611.434331797234
 20
3022.80529953917
 30
0.0
 11
4646.20766154364
 21
3013.487813915479
 31
0.0
  0
LINE
  5
2BD
330
20
100
AcDbEntity
  8
_0-0_
  6
Continuous
 62
     4
100
AcDbLine
 10
4611.434331797234
 20
3022.80529953917
 30
0.0
 11
4576.661002050828
 21
3013.487813915479
 31
0.0
  0
LINE
  5
2BE
330
20
100
AcDbEntity
  8
_0-0_
  6
Continuous
 62
     4
100
AcDbLine
 10
4611.434331797234
 20
3022.80529953917
 30
0.0
 11
4576.661002050828
 21
3032.122785162861
 31
0.0
  0
LINE
  5
2BF
330
20
100
AcDbEntity
  8
_0-0_
  6
Continuous
 62
     4
100
AcDbLine
 10
4411.434331797233
 20
3022.80529953917
 30
0.0
 11
4446.207661543641
 21
3032.122785162861
 31
0.0
  0
LINE
  5
2C0
330
20
100
AcDbEntity
  8
_0-0_
  6
Continuous
 62
     4
100
AcDbLine
 10
4411.434331797233
 20
3022.80529953917
 30
0.0
 11
4446.207661543641
 21
3013.487813915479
 31
0.0
  0
TEXT
  5
2C1
330
20
100
AcDbEntity
  8
_0-0_
 62
     7
100
AcDbText
 10
4443.561870371208
 20
3030.768176887418
 30
0.0
 40
60.0
  1
200
100
AcDbText
  0
TEXT
  5
2C2
330
20
100
AcDbEntity
  8
_0-0_
 62
     7
100
AcDbText
 10
4643.852521944516
 20
3029.991856532483
 30
0.0
 40
60.0
  1
200
100
AcDbText
  0
CIRCLE
  5
2C3
330
20
100
AcDbEntity
  8
_0-0_
  6
Continuous
 62
     7
100
AcDbCircle
 10
4481.434331797234
 20
2307.80529953917
 30
0.0
 40
435.0
  0
CIRCLE
  5
2C4
330
20
100
AcDbEntity
  8
_0-0_
  6
Continuous
 62
     7
100
AcDbCircle
 10
4481.434331797234
 20
2307.80529953917
 30
0.0
 40
300.0
  0
ENDSEC
  0
SECTION
  2
OBJECTS
  0
DICTIONARY
  5
C
330
0
100
AcDbDictionary
281
     1
  3
ACAD_COLOR
350
1B
  3
ACAD_GROUP
350
D
  3
ACAD_LAYOUT
350
19
  3
ACAD_MATERIAL
350
1A
  3
ACAD_MLINESTYLE
350
16
  3
ACAD_PLOTSETTINGS
350
18
  3
ACAD_PLOTSTYLENAME
350
E
  3
ACDBHEADERROUNDTRIPXREC
350
2CD
  3
AcDbVariableDictionary
350
2C9
  0
DICTIONARY
  5
1B
102
{ACAD_REACTORS
330
C
102
}
330
C
100
AcDbDictionary
281
     1
  0
DICTIONARY
  5
D
102
{ACAD_REACTORS
330
C
102
}
330
C
100
AcDbDictionary
281
     1
  0
DICTIONARY
  5
19
102
{ACAD_REACTORS
330
C
102
}
330
C
100
AcDbDictionary
281
     1
  3
Model
350
23
  3
レイアウト1
350
1F
  0
DICTIONARY
  5
1A
102
{ACAD_REACTORS
330
C
102
}
330
C
100
AcDbDictionary
281
     1
  0
DICTIONARY
  5
16
102
{ACAD_REACTORS
330
C
102
}
330
C
100
AcDbDictionary
281
     1
  3
Standard
350
17
  0
DICTIONARY
  5
18
102
{ACAD_REACTORS
330
C
102
}
330
C
100
AcDbDictionary
281
     1
  0
ACDBDICTIONARYWDFLT
  5
E
102
{ACAD_REACTORS
330
C
102
}
330
C
100
AcDbDictionary
281
     1
  3
Normal
350
F
100
AcDbDictionaryWithDefault
340
F
  0
DICTIONARY
  5
2CD
102
{ACAD_REACTORS
330
C
102
}
330
C
100
AcDbDictionary
281
     1
  3
COLORDICT
350
2CF
  3
MATERIALDICT
350
2CE
  0
DICTIONARY
  5
2C9
102
{ACAD_REACTORS
330
C
102
}
330
C
100
AcDbDictionary
281
     1
  3
DIMASSOC
350
2CA
  3
PROJECTNAME
350
2CB
  0
LAYOUT
  5
23
102
{ACAD_XDICTIONARY
360
2D2
102
}
102
{ACAD_REACTORS
330
19
102
}
330
19
100
AcDbPlotSettings
  1

  2
RICOH imagio MP C3300 RPCS
  4

  6

 40
0.0
 41
0.0
 42
0.0
 43
0.0
 44
0.0
 45
0.0
 46
0.0
 47
0.0
 48
0.0
 49
0.0
140
0.0
141
0.0
142
1.0
143
1.0
 70
  1712
 72
     0
 73
     0
 74
     0
  7

 75
     0
147
1.0
148
0.0
149
0.0
100
AcDbLayout
  1
Model
 70
     1
 71
     0
 10
0.0
 20
0.0
 11
12.0
 21
9.0
 12
0.0
 22
0.0
 32
0.0
 14
0.0
 24
0.0
 34
0.0
 15
0.0
 25
0.0
 35
0.0
146
0.0
 13
0.0
 23
0.0
 33
0.0
 16
1.0
 26
0.0
 36
0.0
 17
0.0
 27
1.0
 37
0.0
 76
     0
330
20
  0
LAYOUT
  5
1F
102
{ACAD_XDICTIONARY
360
2D0
102
}
102
{ACAD_REACTORS
330
19
102
}
330
19
100
AcDbPlotSettings
  1

  2
RICOH imagio MP C3300 RPCS
  4

  6

 40
0.0
 41
0.0
 42
0.0
 43
0.0
 44
0.0
 45
0.0
 46
0.0
 47
0.0
 48
0.0
 49
0.0
140
0.0
141
0.0
142
1.0
143
1.0
 70
   688
 72
     0
 73
     0
 74
     5
  7

 75
    16
147
1.0
148
0.0
149
0.0
100
AcDbLayout
  1
レイアウト1
 70
     1
 71
     1
 10
0.0
 20
0.0
 11
12.0
 21
9.0
 12
0.0
 22
0.0
 32
0.0
 14
1.000000000000000E+20
 24
1.000000000000000E+20
 34
1.000000000000000E+20
 15
-1.000000000000000E+20
 25
-1.000000000000000E+20
 35
-1.000000000000000E+20
146
0.0
 13
0.0
 23
0.0
 33
0.0
 16
1.0
 26
0.0
 36
0.0
 17
0.0
 27
1.0
 37
0.0
 76
     0
330
1C
  0
MLINESTYLE
  5
17
102
{ACAD_REACTORS
330
16
102
}
330
16
100
AcDbMlineStyle
  2
STANDARD
 70
     0
  3

 62
   256
 51
90.0
 52
90.0
 71
     2
 49
0.5
 62
   256
  6
BYLAYER
 49
-0.5
 62
   256
  6
BYLAYER
  0
ACDBPLACEHOLDER
  5
F
102
{ACAD_REACTORS
330
E
102
}
330
E
  0
XRECORD
  5
2CF
102
{ACAD_REACTORS
330
2CD
102
}
330
2CD
100
AcDbXrecord
280
     1
340
1B
  0
XRECORD
  5
2CE
102
{ACAD_REACTORS
330
2CD
102
}
330
2CD
100
AcDbXrecord
280
     1
340
1A
  0
DICTIONARYVAR
  5
2CA
102
{ACAD_REACTORS
330
2C9
102
}
330
2C9
100
DictionaryVariables
280
     0
  1
1
  0
DICTIONARYVAR
  5
2CB
102
{ACAD_REACTORS
330
2C9
102
}
330
2C9
100
DictionaryVariables
280
     0
  1

  0
DICTIONARY
  5
2D2
330
23
100
AcDbDictionary
280
     1
281
     1
  3
ACAD_XREC_ROUNDTRIP
360
2D3
  0
DICTIONARY
  5
2D0
330
1F
100
AcDbDictionary
280
     1
281
     1
  3
ACAD_XREC_ROUNDTRIP
360
2D1
  0
XRECORD
  5
2D3
102
{ACAD_REACTORS
330
2D2
102
}
330
2D2
100
AcDbXrecord
280
     1
102
SHADEPLOT
 70
     0
102
SHADEPLOTRESLEVEL
 70
     2
102
SHADEPLOTCUSTOMDPI
 70
   300
  0
XRECORD
  5
2D1
102
{ACAD_REACTORS
330
2D0
102
}
330
2D0
100
AcDbXrecord
280
     1
102
SHADEPLOT
 70
     0
102
SHADEPLOTRESLEVEL
 70
     2
102
SHADEPLOTCUSTOMDPI
 70
   300
  0
ENDSEC
  0
EOF
