  0
SECTION
  2
HEADER
  9
$ACADVER
  1
AC1015
  9
$ACADMAINTVER
 70
    20
  9
$DWGCODEPAGE
  3
ANSI_932
  9
$INSBASE
 10
0.0
 20
0.0
 30
0.0
  9
$EXTMIN
 10
189.70368836739
 20
179.9560646758837
 30
-0.0015258207003583
  9
$EXTMAX
 10
5926.585707173898
 20
4020.043954881891
 30
0.0000000349246037
  9
$LIMMIN
 10
0.0
 20
0.0
  9
$LIMMAX
 10
5940.0
 20
4200.0
  9
$ORTHOMODE
 70
     1
  9
$REGENMODE
 70
     1
  9
$FILLMODE
 70
     1
  9
$QTEXTMODE
 70
     0
  9
$MIRRTEXT
 70
     0
  9
$LTSCALE
 40
20.0
  9
$ATTMODE
 70
     1
  9
$TEXTSIZE
 40
0.2
  9
$TRACEWID
 40
0.05
  9
$TEXTSTYLE
  7
STANDARD
  9
$CLAYER
  8
0
  9
$CELTYPE
  6
CONTINUOUS
  9
$CECOLOR
 62
   256
  9
$CELTSCALE
 40
1.0
  9
$DISPSILH
 70
     0
  9
$DIMSCALE
 40
1.0
  9
$DIMASZ
 40
0.18
  9
$DIMEXO
 40
0.0625
  9
$DIMDLI
 40
0.38
  9
$DIMRND
 40
0.0
  9
$DIMDLE
 40
0.0
  9
$DIMEXE
 40
0.18
  9
$DIMTP
 40
0.0
  9
$DIMTM
 40
0.0
  9
$DIMTXT
 40
0.18
  9
$DIMCEN
 40
0.09
  9
$DIMTSZ
 40
0.0
  9
$DIMTOL
 70
     0
  9
$DIMLIM
 70
     0
  9
$DIMTIH
 70
     1
  9
$DIMTOH
 70
     1
  9
$DIMSE1
 70
     0
  9
$DIMSE2
 70
     0
  9
$DIMTAD
 70
     0
  9
$DIMZIN
 70
     0
  9
$DIMBLK
  1

  9
$DIMASO
 70
     1
  9
$DIMSHO
 70
     1
  9
$DIMPOST
  1

  9
$DIMAPOST
  1

  9
$DIMALT
 70
     0
  9
$DIMALTD
 70
     2
  9
$DIMALTF
 40
25.4
  9
$DIMLFAC
 40
1.0
  9
$DIMTOFL
 70
     0
  9
$DIMTVP
 40
0.0
  9
$DIMTIX
 70
     0
  9
$DIMSOXD
 70
     0
  9
$DIMSAH
 70
     0
  9
$DIMBLK1
  1

  9
$DIMBLK2
  1

  9
$DIMSTYLE
  2
Standard
  9
$DIMCLRD
 70
     0
  9
$DIMCLRE
 70
     0
  9
$DIMCLRT
 70
     0
  9
$DIMTFAC
 40
1.0
  9
$DIMGAP
 40
0.09
  9
$DIMJUST
 70
     0
  9
$DIMSD1
 70
     0
  9
$DIMSD2
 70
     0
  9
$DIMTOLJ
 70
     1
  9
$DIMTZIN
 70
     0
  9
$DIMALTZ
 70
     0
  9
$DIMALTTZ
 70
     0
  9
$DIMUPT
 70
     0
  9
$DIMDEC
 70
     4
  9
$DIMTDEC
 70
     4
  9
$DIMALTU
 70
     2
  9
$DIMALTTD
 70
     2
  9
$DIMTXSTY
  7
STANDARD
  9
$DIMAUNIT
 70
     0
  9
$DIMADEC
 70
     0
  9
$DIMALTRND
 40
0.0
  9
$DIMAZIN
 70
     0
  9
$DIMDSEP
 70
    46
  9
$DIMATFIT
 70
     3
  9
$DIMFRAC
 70
     0
  9
$DIMLDRBLK
  1

  9
$DIMLUNIT
 70
     2
  9
$DIMLWD
 70
    -2
  9
$DIMLWE
 70
    -2
  9
$DIMTMOVE
 70
     0
  9
$LUNITS
 70
     2
  9
$LUPREC
 70
     4
  9
$SKETCHINC
 40
0.1
  9
$FILLETRAD
 40
0.0
  9
$AUNITS
 70
     0
  9
$AUPREC
 70
     0
  9
$MENU
  1
.
  9
$ELEVATION
 40
0.0
  9
$PELEVATION
 40
0.0
  9
$THICKNESS
 40
0.0
  9
$LIMCHECK
 70
     0
  9
$CHAMFERA
 40
0.0
  9
$CHAMFERB
 40
0.0
  9
$CHAMFERC
 40
0.0
  9
$CHAMFERD
 40
0.0
  9
$SKPOLY
 70
     0
  9
$TDCREATE
 40
2457253.665168935
  9
$TDUCREATE
 40
2457253.290168935
  9
$TDUPDATE
 40
2457253.669928739
  9
$TDUUPDATE
 40
2457253.294928738
  9
$TDINDWG
 40
0.0047601736
  9
$TDUSRTIMER
 40
0.0047601736
  9
$USRTIMER
 70
     1
  9
$ANGBASE
 50
0.0
  9
$ANGDIR
 70
     0
  9
$PDMODE
 70
     0
  9
$PDSIZE
 40
0.0
  9
$PLINEWID
 40
0.0
  9
$SPLFRAME
 70
     0
  9
$SPLINETYPE
 70
     6
  9
$SPLINESEGS
 70
     8
  9
$HANDSEED
  5
23C
  9
$SURFTAB1
 70
     6
  9
$SURFTAB2
 70
     6
  9
$SURFTYPE
 70
     6
  9
$SURFU
 70
     6
  9
$SURFV
 70
     6
  9
$UCSBASE
  2

  9
$UCSNAME
  2

  9
$UCSORG
 10
0.0
 20
0.0
 30
0.0
  9
$UCSXDIR
 10
1.0
 20
0.0
 30
0.0
  9
$UCSYDIR
 10
0.0
 20
1.0
 30
0.0
  9
$UCSORTHOREF
  2

  9
$UCSORTHOVIEW
 70
     0
  9
$UCSORGTOP
 10
0.0
 20
0.0
 30
0.0
  9
$UCSORGBOTTOM
 10
0.0
 20
0.0
 30
0.0
  9
$UCSORGLEFT
 10
0.0
 20
0.0
 30
0.0
  9
$UCSORGRIGHT
 10
0.0
 20
0.0
 30
0.0
  9
$UCSORGFRONT
 10
0.0
 20
0.0
 30
0.0
  9
$UCSORGBACK
 10
0.0
 20
0.0
 30
0.0
  9
$PUCSBASE
  2

  9
$PUCSNAME
  2

  9
$PUCSORG
 10
0.0
 20
0.0
 30
0.0
  9
$PUCSXDIR
 10
1.0
 20
0.0
 30
0.0
  9
$PUCSYDIR
 10
0.0
 20
1.0
 30
0.0
  9
$PUCSORTHOREF
  2

  9
$PUCSORTHOVIEW
 70
     0
  9
$PUCSORGTOP
 10
0.0
 20
0.0
 30
0.0
  9
$PUCSORGBOTTOM
 10
0.0
 20
0.0
 30
0.0
  9
$PUCSORGLEFT
 10
0.0
 20
0.0
 30
0.0
  9
$PUCSORGRIGHT
 10
0.0
 20
0.0
 30
0.0
  9
$PUCSORGFRONT
 10
0.0
 20
0.0
 30
0.0
  9
$PUCSORGBACK
 10
0.0
 20
0.0
 30
0.0
  9
$USERI1
 70
     0
  9
$USERI2
 70
     0
  9
$USERI3
 70
     0
  9
$USERI4
 70
     0
  9
$USERI5
 70
     0
  9
$USERR1
 40
0.0
  9
$USERR2
 40
0.0
  9
$USERR3
 40
0.0
  9
$USERR4
 40
0.0
  9
$USERR5
 40
0.0
  9
$WORLDVIEW
 70
     1
  9
$SHADEDGE
 70
     3
  9
$SHADEDIF
 70
    70
  9
$TILEMODE
 70
     1
  9
$MAXACTVP
 70
    64
  9
$PINSBASE
 10
0.0
 20
0.0
 30
0.0
  9
$PLIMCHECK
 70
     0
  9
$PEXTMIN
 10
1.000000000000000E+20
 20
1.000000000000000E+20
 30
1.000000000000000E+20
  9
$PEXTMAX
 10
-1.000000000000000E+20
 20
-1.000000000000000E+20
 30
-1.000000000000000E+20
  9
$PLIMMIN
 10
0.0
 20
0.0
  9
$PLIMMAX
 10
12.0
 20
9.0
  9
$UNITMODE
 70
     0
  9
$VISRETAIN
 70
     1
  9
$PLINEGEN
 70
     0
  9
$PSLTSCALE
 70
     1
  9
$TREEDEPTH
 70
  3020
  9
$CMLSTYLE
  2
Standard
  9
$CMLJUST
 70
     0
  9
$CMLSCALE
 40
1.0
  9
$PROXYGRAPHICS
 70
     1
  9
$MEASUREMENT
 70
     0
  9
$CELWEIGHT
370
    -1
  9
$ENDCAPS
280
     0
  9
$JOINSTYLE
280
     0
  9
$LWDISPLAY
290
     0
  9
$INSUNITS
 70
     0
  9
$HYPERLINKBASE
  1

  9
$STYLESHEET
  1

  9
$XEDIT
290
     1
  9
$CEPSNTYPE
380
     0
  9
$PSTYLEMODE
290
     1
  9
$FINGERPRINTGUID
  2
{628F27FA-37A8-432E-87F2-4FC08C35638D}
  9
$VERSIONGUID
  2
{038A09EC-E385-4D87-95DF-EAFC9027A5B5}
  9
$EXTNAMES
290
     1
  9
$PSVPSCALE
 40
0.0
  9
$OLESTARTUP
290
     0
  0
ENDSEC
  0
SECTION
  2
CLASSES
  0
CLASS
  1
ACDBDICTIONARYWDFLT
  2
AcDbDictionaryWithDefault
  3
ObjectDBX Classes
 90
        0
280
     0
281
     0
  0
CLASS
  1
DICTIONARYVAR
  2
AcDbDictionaryVar
  3
ObjectDBX Classes
 90
        0
280
     0
281
     0
  0
CLASS
  1
ACDBPLACEHOLDER
  2
AcDbPlaceHolder
  3
ObjectDBX Classes
 90
        0
280
     0
281
     0
  0
CLASS
  1
LAYOUT
  2
AcDbLayout
  3
ObjectDBX Classes
 90
        0
280
     0
281
     0
  0
ENDSEC
  0
SECTION
  2
TABLES
  0
TABLE
  2
VPORT
  5
8
330
0
100
AcDbSymbolTable
 70
     2
  0
VPORT
  5
234
330
8
100
AcDbSymbolTableRecord
100
AcDbViewportTableRecord
  2
*Active
 70
     0
 10
0.0
 20
0.0
 11
1.0
 21
1.0
 12
3384.503664215147
 22
1415.293617107812
 13
0.0
 23
0.0
 14
1.0
 24
1.0
 15
0.0
 25
0.0
 16
0.0
 26
0.0
 36
1.0
 17
0.0
 27
0.0
 37
0.0
 40
4909.639124267424
 41
1.609333333333333
 42
50.0
 43
0.0
 44
0.0
 50
0.0
 51
0.0
 71
     0
 72
   100
 73
     1
 74
     1
 75
     0
 76
     0
 77
     0
 78
     0
281
     0
 65
     1
110
0.0
120
0.0
130
0.0
111
1.0
121
0.0
131
0.0
112
0.0
122
1.0
132
0.0
 79
     0
146
0.0
  0
ENDTAB
  0
TABLE
  2
LTYPE
  5
5
330
0
100
AcDbSymbolTable
 70
    35
  0
LTYPE
  5
13
330
5
100
AcDbSymbolTableRecord
100
AcDbLinetypeTableRecord
  2
ByBlock
 70
     0
  3

 72
    65
 73
     0
 40
0.0
  0
LTYPE
  5
14
330
5
100
AcDbSymbolTableRecord
100
AcDbLinetypeTableRecord
  2
ByLayer
 70
     0
  3

 72
    65
 73
     0
 40
0.0
  0
LTYPE
  5
15
330
5
100
AcDbSymbolTableRecord
100
AcDbLinetypeTableRecord
  2
CONTINUOUS
 70
     0
  3
実線
 72
    65
 73
     0
 40
0.0
  0
LTYPE
  5
24
330
5
100
AcDbSymbolTableRecord
100
AcDbLinetypeTableRecord
  2
DASHED1
 70
     0
  3
--  --  --  --  --  --  --  --  
 72
    65
 73
     2
 40
2.5
 49
1.25
 74
     0
 49
-1.25
 74
     0
  0
LTYPE
  5
25
330
5
100
AcDbSymbolTableRecord
100
AcDbLinetypeTableRecord
  2
DASHED2
 70
     0
  3
----    ----    ----    ----    
 72
    65
 73
     2
 40
5.0
 49
2.5
 74
     0
 49
-2.5
 74
     0
  0
LTYPE
  5
26
330
5
100
AcDbSymbolTableRecord
100
AcDbLinetypeTableRecord
  2
DASHED3
 70
     0
  3
------  ------  ------  ------  
 72
    65
 73
     2
 40
5.0
 49
3.75
 74
     0
 49
-1.25
 74
     0
  0
LTYPE
  5
27
330
5
100
AcDbSymbolTableRecord
100
AcDbLinetypeTableRecord
  2
CENTER1
 70
     0
  3
----- - ----- - ----- - ----- - 
 72
    65
 73
     4
 40
10.0
 49
6.25
 74
     0
 49
-1.25
 74
     0
 49
1.25
 74
     0
 49
-1.25
 74
     0
  0
LTYPE
  5
28
330
5
100
AcDbSymbolTableRecord
100
AcDbLinetypeTableRecord
  2
CENTER2
 70
     0
  3
----------  --  ----------  --  
 72
    65
 73
     4
 40
20.0
 49
12.5
 74
     0
 49
-2.5
 74
     0
 49
2.5
 74
     0
 49
-2.5
 74
     0
  0
LTYPE
  5
29
330
5
100
AcDbSymbolTableRecord
100
AcDbLinetypeTableRecord
  2
PHANTOM1
 70
     0
  3
--- - - --- - - --- - - --- - - 
 72
    65
 73
     6
 40
10.0
 49
3.25
 74
     0
 49
-1.25
 74
     0
 49
1.25
 74
     0
 49
-1.25
 74
     0
 49
1.25
 74
     0
 49
-1.25
 74
     0
  0
LTYPE
  5
2A
330
5
100
AcDbSymbolTableRecord
100
AcDbLinetypeTableRecord
  2
PHANTOM2
 70
     0
  3
--------  -  -  --------  -  -  
 72
    65
 73
     6
 40
20.0
 49
10.0
 74
     0
 49
-2.5
 74
     0
 49
1.25
 74
     0
 49
-2.5
 74
     0
 49
1.25
 74
     0
 49
-2.5
 74
     0
  0
LTYPE
  5
2B
330
5
100
AcDbSymbolTableRecord
100
AcDbLinetypeTableRecord
  2
DOT
 70
     0
  3
-   -   -   -   -   -   -   -   
 72
    65
 73
     2
 40
2.5
 49
0.625
 74
     0
 49
-1.875
 74
     0
  0
LTYPE
  5
2C
330
5
100
AcDbSymbolTableRecord
100
AcDbLinetypeTableRecord
  2
DUMMY
 70
     0
  3
ダミー
 72
    65
 73
     0
 40
0.0
  0
LTYPE
  5
2D
330
5
100
AcDbSymbolTableRecord
100
AcDbLinetypeTableRecord
  2
RAND1
 70
     0
  3
ランダム線1
 72
    65
 73
     4
 40
10.0
 49
1.0
 74
     0
 49
-2.0
 74
     0
 49
3.0
 74
     0
 49
-4.0
 74
     0
  0
LTYPE
  5
2E
330
5
100
AcDbSymbolTableRecord
100
AcDbLinetypeTableRecord
  2
RAND2
 70
     0
  3
ランダム線2
 72
    65
 73
     4
 40
14.0
 49
2.0
 74
     0
 49
-3.0
 74
     0
 49
4.0
 74
     0
 49
-5.0
 74
     0
  0
LTYPE
  5
2F
330
5
100
AcDbSymbolTableRecord
100
AcDbLinetypeTableRecord
  2
RAND3
 70
     0
  3
ランダム線3
 72
    65
 73
     4
 40
18.0
 49
3.0
 74
     0
 49
-4.0
 74
     0
 49
5.0
 74
     0
 49
-6.0
 74
     0
  0
LTYPE
  5
30
330
5
100
AcDbSymbolTableRecord
100
AcDbLinetypeTableRecord
  2
RAND4
 70
     0
  3
ランダム線4
 72
    65
 73
     4
 40
22.0
 49
4.0
 74
     0
 49
-5.0
 74
     0
 49
6.0
 74
     0
 49
-7.0
 74
     0
  0
LTYPE
  5
31
330
5
100
AcDbSymbolTableRecord
100
AcDbLinetypeTableRecord
  2
RAND5
 70
     0
  3
ランダム線5
 72
    65
 73
     4
 40
26.0
 49
5.0
 74
     0
 49
-6.0
 74
     0
 49
7.0
 74
     0
 49
-8.0
 74
     0
  0
LTYPE
  5
32
330
5
100
AcDbSymbolTableRecord
100
AcDbLinetypeTableRecord
  2
LONG1
 70
     0
  3
----------  --  ----------  --  
 72
    65
 73
     4
 40
40.0
 49
32.5
 74
     0
 49
-2.5
 74
     0
 49
2.5
 74
     0
 49
-2.5
 74
     0
  0
LTYPE
  5
33
330
5
100
AcDbSymbolTableRecord
100
AcDbLinetypeTableRecord
  2
LONG2
 70
     0
  3
--------  -  -  --------  -  -  
 72
    65
 73
     6
 40
40.0
 49
30.0
 74
     0
 49
-2.5
 74
     0
 49
1.25
 74
     0
 49
-2.5
 74
     0
 49
1.25
 74
     0
 49
-2.5
 74
     0
  0
LTYPE
  5
34
330
5
100
AcDbSymbolTableRecord
100
AcDbLinetypeTableRecord
  2
LONG3
 70
     0
  3
+++++++++++++++..+++++++++++++++
 72
    65
 73
     2
 40
40.0
 49
37.5
 74
     0
 49
-2.5
 74
     0
  0
LTYPE
  5
35
330
5
100
AcDbSymbolTableRecord
100
AcDbLinetypeTableRecord
  2
LONG4
 70
     0
  3
+++++++++++++++..+++++++++++++++
 72
    65
 73
     2
 40
80.0
 49
75.0
 74
     0
 49
-5.0
 74
     0
  0
LTYPE
  5
36
330
5
100
AcDbSymbolTableRecord
100
AcDbLinetypeTableRecord
  2
LONG5
 70
     0
  3
----------  --  ----------  --  
 72
    65
 73
     4
 40
60.0
 49
37.5
 74
     0
 49
-7.5
 74
     0
 49
7.5
 74
     0
 49
-7.5
 74
     0
  0
LTYPE
  5
37
330
5
100
AcDbSymbolTableRecord
100
AcDbLinetypeTableRecord
  2
DASHED
 70
     0
  3
-------   -------------   ------
 72
    65
 73
     2
 40
7.5
 49
6.0
 74
     0
 49
-1.5
 74
     0
  0
LTYPE
  5
38
330
5
100
AcDbSymbolTableRecord
100
AcDbLinetypeTableRecord
  2
DASHED_SPACED
 70
     0
  3
----        --------        ----
 72
    65
 73
     2
 40
12.0
 49
6.0
 74
     0
 49
-6.0
 74
     0
  0
LTYPE
  5
39
330
5
100
AcDbSymbolTableRecord
100
AcDbLinetypeTableRecord
  2
LONG_DASHED_DOTTED
 70
     0
  3
------------- --- --------------
 72
    65
 73
     4
 40
15.25
 49
12.0
 74
     0
 49
-1.5
 74
     0
 49
0.25
 74
     0
 49
-1.5
 74
     0
  0
LTYPE
  5
3A
330
5
100
AcDbSymbolTableRecord
100
AcDbLinetypeTableRecord
  2
LONG_DASHED_DOUBLE-DOTTED
 70
     0
  3
----------- --- --- ------------
 72
    65
 73
     6
 40
17.0
 49
12.0
 74
     0
 49
-1.5
 74
     0
 49
0.25
 74
     0
 49
-1.5
 74
     0
 49
0.25
 74
     0
 49
-1.5
 74
     0
  0
LTYPE
  5
3B
330
5
100
AcDbSymbolTableRecord
100
AcDbLinetypeTableRecord
  2
LONG_DASHED_TRIPLICATE-DOTTED
 70
     0
  3
--------- --- --- --- ----------
 72
    65
 73
     8
 40
18.75
 49
12.0
 74
     0
 49
-1.5
 74
     0
 49
0.25
 74
     0
 49
-1.5
 74
     0
 49
0.25
 74
     0
 49
-1.5
 74
     0
 49
0.25
 74
     0
 49
-1.5
 74
     0
  0
LTYPE
  5
3C
330
5
100
AcDbSymbolTableRecord
100
AcDbLinetypeTableRecord
  2
DOTTED
 70
     0
  3
   -       -       -       -    
 72
    65
 73
     2
 40
1.75
 49
0.25
 74
     0
 49
-1.5
 74
     0
  0
LTYPE
  5
3D
330
5
100
AcDbSymbolTableRecord
100
AcDbLinetypeTableRecord
  2
CHAIN
 70
     0
  3
-------------- -- --------------
 72
    65
 73
     4
 40
18.5
 49
12.0
 74
     0
 49
-1.5
 74
     0
 49
3.5
 74
     0
 49
-1.5
 74
     0
  0
LTYPE
  5
3E
330
5
100
AcDbSymbolTableRecord
100
AcDbLinetypeTableRecord
  2
CHAIN_DOUBLE_DASH
 70
     0
  3
------------ -- -- -------------
 72
    65
 73
     6
 40
23.5
 49
12.0
 74
     0
 49
-1.5
 74
     0
 49
3.5
 74
     0
 49
-1.5
 74
     0
 49
3.5
 74
     0
 49
-1.5
 74
     0
  0
LTYPE
  5
3F
330
5
100
AcDbSymbolTableRecord
100
AcDbLinetypeTableRecord
  2
DASHED_DOTTED
 70
     0
  3
-----------     -     ----------
 72
    65
 73
     4
 40
9.25
 49
6.0
 74
     0
 49
-1.5
 74
     0
 49
0.25
 74
     0
 49
-1.5
 74
     0
  0
LTYPE
  5
40
330
5
100
AcDbSymbolTableRecord
100
AcDbLinetypeTableRecord
  2
DOUBLE-DASHED_DOTTED
 70
     0
  3
------   -----------   -   -----
 72
    65
 73
     6
 40
16.75
 49
6.0
 74
     0
 49
-1.5
 74
     0
 49
6.0
 74
     0
 49
-1.5
 74
     0
 49
0.25
 74
     0
 49
-1.5
 74
     0
  0
LTYPE
  5
41
330
5
100
AcDbSymbolTableRecord
100
AcDbLinetypeTableRecord
  2
DASHED_DOUBLE-DOTTED
 70
     0
  3
---------    -    -    ---------
 72
    65
 73
     6
 40
11.0
 49
6.0
 74
     0
 49
-1.5
 74
     0
 49
0.25
 74
     0
 49
-1.5
 74
     0
 49
0.25
 74
     0
 49
-1.5
 74
     0
  0
LTYPE
  5
42
330
5
100
AcDbSymbolTableRecord
100
AcDbLinetypeTableRecord
  2
DOUBLE-DASHED_DOUBLE-DOTTED
 70
     0
  3
-----   ---------   -   -   ----
 72
    65
 73
     8
 40
18.5
 49
6.0
 74
     0
 49
-1.5
 74
     0
 49
6.0
 74
     0
 49
-1.5
 74
     0
 49
0.25
 74
     0
 49
-1.5
 74
     0
 49
0.25
 74
     0
 49
-1.5
 74
     0
  0
LTYPE
  5
43
330
5
100
AcDbSymbolTableRecord
100
AcDbLinetypeTableRecord
  2
DASHED_TRIPLICATE-DOTTED
 70
     0
  3
-------    -    -    -    ------
 72
    65
 73
     8
 40
12.75
 49
6.0
 74
     0
 49
-1.5
 74
     0
 49
0.25
 74
     0
 49
-1.5
 74
     0
 49
0.25
 74
     0
 49
-1.5
 74
     0
 49
0.25
 74
     0
 49
-1.5
 74
     0
  0
LTYPE
  5
44
330
5
100
AcDbSymbolTableRecord
100
AcDbLinetypeTableRecord
  2
DOUBLE-DASHED_TRIPLICATE-DOTTED
 70
     0
  3
-----  ---------  -  -  -  -----
 72
    65
 73
    10
 40
20.25
 49
6.0
 74
     0
 49
-1.5
 74
     0
 49
6.0
 74
     0
 49
-1.5
 74
     0
 49
0.25
 74
     0
 49
-1.5
 74
     0
 49
0.25
 74
     0
 49
-1.5
 74
     0
 49
0.25
 74
     0
 49
-1.5
 74
     0
  0
LTYPE
  5
45
330
5
100
AcDbSymbolTableRecord
100
AcDbLinetypeTableRecord
  2
UNDEFINED
 70
     0
  3
--------------------------------
 72
    65
 73
     0
 40
0.0
  0
ENDTAB
  0
TABLE
  2
LAYER
  5
2
330
0
100
AcDbSymbolTable
 70
     3
  0
LAYER
  5
10
330
2
100
AcDbSymbolTableRecord
100
AcDbLayerTableRecord
  2
0
 70
     0
 62
     7
  6
CONTINUOUS
370
    -3
390
F
  0
LAYER
  5
47
330
2
100
AcDbSymbolTableRecord
100
AcDbLayerTableRecord
  2
_0-0_
 70
     0
 62
     7
  6
CONTINUOUS
370
    -3
390
F
  0
LAYER
  5
48
330
2
100
AcDbSymbolTableRecord
100
AcDbLayerTableRecord
  2
ADD_LINE
 70
     0
 62
     7
  6
CONTINUOUS
370
    -3
390
F
  0
ENDTAB
  0
TABLE
  2
STYLE
  5
3
330
0
100
AcDbSymbolTable
 70
     2
  0
STYLE
  5
11
330
3
100
AcDbSymbolTableRecord
100
AcDbTextStyleTableRecord
  2
STANDARD
 70
     0
 40
0.0
 41
1.0
 50
0.0
 71
     0
 42
0.2
  3
txt
  4
bigfont.shx
  0
STYLE
  5
46
330
3
100
AcDbSymbolTableRecord
100
AcDbTextStyleTableRecord
  2
TATEGAKI
 70
     4
 40
0.0
 41
1.0
 50
0.0
 71
     0
 42
1.0
  3
txt
  4
bigfont.shx
  0
ENDTAB
  0
TABLE
  2
VIEW
  5
6
330
0
100
AcDbSymbolTable
 70
     0
  0
ENDTAB
  0
TABLE
  2
UCS
  5
7
330
0
100
AcDbSymbolTable
 70
     0
  0
ENDTAB
  0
TABLE
  2
APPID
  5
9
330
0
100
AcDbSymbolTable
 70
     1
  0
APPID
  5
12
330
9
100
AcDbSymbolTableRecord
100
AcDbRegAppTableRecord
  2
ACAD
 70
     0
  0
ENDTAB
  0
TABLE
  2
DIMSTYLE
  5
A
330
0
100
AcDbSymbolTable
 70
     1
100
AcDbDimStyleTable
 71
     0
  0
DIMSTYLE
105
22F
330
A
100
AcDbSymbolTableRecord
100
AcDbDimStyleTableRecord
  2
Standard
 70
     0
340
11
  0
ENDTAB
  0
TABLE
  2
BLOCK_RECORD
  5
1
330
0
100
AcDbSymbolTable
 70
     0
  0
BLOCK_RECORD
  5
20
330
1
100
AcDbSymbolTableRecord
100
AcDbBlockTableRecord
  2
*Model_Space
340
23
  0
BLOCK_RECORD
  5
1C
330
1
100
AcDbSymbolTableRecord
100
AcDbBlockTableRecord
  2
*Paper_Space
340
1F
  0
ENDTAB
  0
ENDSEC
  0
SECTION
  2
BLOCKS
  0
BLOCK
  5
21
330
20
100
AcDbEntity
  8
0
100
AcDbBlockBegin
  2
*Model_Space
 70
     0
 10
0.0
 20
0.0
 30
0.0
  3
*Model_Space
  1

  0
ENDBLK
  5
22
330
20
100
AcDbEntity
  8
0
100
AcDbBlockEnd
  0
BLOCK
  5
1D
330
1C
100
AcDbEntity
 67
     1
  8
0
100
AcDbBlockBegin
  2
*Paper_Space
 70
     0
 10
0.0
 20
0.0
 30
0.0
  3
*Paper_Space
  1

  0
ENDBLK
  5
1E
330
1C
100
AcDbEntity
 67
     1
  8
0
100
AcDbBlockEnd
  0
ENDSEC
  0
SECTION
  2
ENTITIES
  0
LINE
  5
4C
330
20
100
AcDbEntity
  8
_0-0_
  6
Continuous
 62
     7
100
AcDbLine
 10
190.0
 20
180.0
 30
0.0
 11
5750.0
 21
180.0
 31
0.0
  0
LINE
  5
4D
330
20
100
AcDbEntity
  8
_0-0_
  6
Continuous
 62
     7
100
AcDbLine
 10
5750.0
 20
180.0
 30
0.0
 11
5750.0
 21
4020.0
 31
0.0
  0
LINE
  5
4E
330
20
100
AcDbEntity
  8
_0-0_
  6
Continuous
 62
     7
100
AcDbLine
 10
5750.0
 20
4020.0
 30
0.0
 11
190.0
 21
4020.0
 31
0.0
  0
LINE
  5
4F
330
20
100
AcDbEntity
  8
_0-0_
  6
Continuous
 62
     7
100
AcDbLine
 10
190.0
 20
4020.0
 30
0.0
 11
190.0
 21
180.0
 31
0.0
  0
LINE
  5
50
330
20
100
AcDbEntity
  8
_0-0_
  6
Continuous
 62
     7
100
AcDbLine
 10
4550.0
 20
180.0
 30
0.0
 11
4550.0
 21
720.0
 31
0.0
  0
LINE
  5
51
330
20
100
AcDbEntity
  8
_0-0_
  6
Continuous
 62
     7
100
AcDbLine
 10
3590.0
 20
180.0
 30
0.0
 11
3590.0
 21
720.0
 31
0.0
  0
LINE
  5
52
330
20
100
AcDbEntity
  8
_0-0_
  6
Continuous
 62
     7
100
AcDbLine
 10
3270.0
 20
180.0
 30
0.0
 11
3270.0
 21
720.0
 31
0.0
  0
LINE
  5
53
330
20
100
AcDbEntity
  8
_0-0_
  6
Continuous
 62
     7
100
AcDbLine
 10
3270.0
 20
720.0
 30
0.0
 11
5750.0
 21
720.0
 31
0.0
  0
LINE
  5
54
330
20
100
AcDbEntity
  8
_0-0_
  6
Continuous
 62
     7
100
AcDbLine
 10
3270.0
 20
630.0
 30
0.0
 11
5750.0
 21
630.0
 31
0.0
  0
LINE
  5
55
330
20
100
AcDbEntity
  8
_0-0_
  6
Continuous
 62
     7
100
AcDbLine
 10
3270.0
 20
540.0
 30
0.0
 11
5750.0
 21
540.0
 31
0.0
  0
LINE
  5
56
330
20
100
AcDbEntity
  8
_0-0_
  6
Continuous
 62
     7
100
AcDbLine
 10
3270.0
 20
450.0
 30
0.0
 11
5750.0
 21
450.0
 31
0.0
  0
LINE
  5
57
330
20
100
AcDbEntity
  8
_0-0_
  6
Continuous
 62
     7
100
AcDbLine
 10
3270.0
 20
360.0
 30
0.0
 11
5750.0
 21
360.0
 31
0.0
  0
LINE
  5
58
330
20
100
AcDbEntity
  8
_0-0_
  6
Continuous
 62
     7
100
AcDbLine
 10
3270.0
 20
270.0
 30
0.0
 11
5750.0
 21
270.0
 31
0.0
  0
LINE
  5
59
330
20
100
AcDbEntity
  8
_0-0_
  6
Continuous
 62
     7
100
AcDbLine
 10
3910.0
 20
180.0
 30
0.0
 11
3910.0
 21
270.0
 31
0.0
  0
LINE
  5
5A
330
20
100
AcDbEntity
  8
_0-0_
  6
Continuous
 62
     7
100
AcDbLine
 10
4230.0
 20
180.0
 30
0.0
 11
4230.0
 21
270.0
 31
0.0
  0
LINE
  5
5B
330
20
100
AcDbEntity
  8
_0-0_
  6
Continuous
 62
     7
100
AcDbLine
 10
4870.0
 20
270.0
 30
0.0
 11
4870.0
 21
720.0
 31
0.0
  0
TEXT
  5
5C
330
20
100
AcDbEntity
  8
_0-0_
 62
     7
100
AcDbText
 10
4598.170567881409
 20
194.7951768065823
 30
0.0
 40
60.0
  1
株式会社　丸治コンクリート工業所
100
AcDbText
  0
TEXT
  5
5D
330
20
100
AcDbEntity
  8
_0-0_
 62
     7
100
AcDbText
 10
4576.265744893506
 20
555.4945953407377
 30
0.0
 40
60.0
  1
参考重量
100
AcDbText
  0
TEXT
  5
5E
330
20
100
AcDbEntity
  8
_0-0_
 62
     7
100
AcDbText
 10
4576.265744893506
 20
644.5742088248813
 30
0.0
 40
60.0
  1
縮　　尺
100
AcDbText
  0
TEXT
  5
5F
330
20
100
AcDbEntity
  8
_0-0_
 62
     7
100
AcDbText
 10
4576.265744893506
 20
464.9546603240671
 30
0.0
 40
60.0
  1
設計Ｎｏ
100
AcDbText
  0
TEXT
  5
60
330
20
100
AcDbEntity
  8
_0-0_
 62
     7
100
AcDbText
 10
4574.805423360979
 20
374.4147253073965
 30
0.0
 40
60.0
  1
図面Ｎｏ
100
AcDbText
  0
TEXT
  5
61
330
20
100
AcDbEntity
  8
_0-0_
 62
     7
100
AcDbText
 10
4576.265744893506
 20
285.3351118232529
 30
0.0
 40
60.0
  1
製 図 日
100
AcDbText
  0
TEXT
  5
62
330
20
100
AcDbEntity
  8
_0-0_
 62
     7
100
AcDbText
 10
4929.663555765027
 20
285.3351118232529
 30
0.0
 40
60.0
  1
平成　　年　　月　　日
100
AcDbText
  0
TEXT
  5
63
330
20
100
AcDbEntity
  8
_0-0_
 62
     7
100
AcDbText
 10
5242.172363725792
 20
644.5742088248813
 30
0.0
 40
60.0
  1
1/20
100
AcDbText
  0
TEXT
  5
64
330
20
100
AcDbEntity
  8
_0-0_
 62
     7
100
AcDbText
 10
5208.584968477673
 20
556.9549168732647
 30
0.0
 40
60.0
  1
1950kg
100
AcDbText
  0
TEXT
  5
65
330
20
100
AcDbEntity
  8
_0-0_
 62
     7
100
AcDbText
 10
4885.926922929585
 20
375.8750468399234
 30
0.0
 40
60.0
  1
FKHH-H1206-CR600
 41
0.95
100
AcDbText
  0
TEXT
  5
66
330
20
100
AcDbEntity
  8
_0-0_
 62
     7
100
AcDbText
 10
3295.300282443883
 20
644.4183089468875
 30
0.0
 40
60.0
  1
製 品 名
100
AcDbText
  0
TEXT
  5
67
330
20
100
AcDbEntity
  8
_0-0_
 62
     7
100
AcDbText
 10
3295.201568864645
 20
554.2548443417226
 30
0.0
 40
60.0
  1
型　　式
100
AcDbText
  0
TEXT
  5
68
330
20
100
AcDbEntity
  8
_0-0_
 62
     7
100
AcDbText
 10
3295.201568864645
 20
464.3191803040288
 30
0.0
 40
60.0
  1
呼 び 名
100
AcDbText
  0
TEXT
  5
69
330
20
100
AcDbEntity
  8
_0-0_
 62
     7
100
AcDbText
 10
3295.201568864645
 20
373.3128535992193
 30
0.0
 40
60.0
  1
寸　　法
100
AcDbText
  0
TEXT
  5
6A
330
20
100
AcDbEntity
  8
_0-0_
 62
     7
100
AcDbText
 10
3295.201568864645
 20
283.3771895615254
 30
0.0
 40
60.0
  1
特記事項
100
AcDbText
  0
TEXT
  5
6B
330
20
100
AcDbEntity
  8
_0-0_
 62
     7
100
AcDbText
 10
3296.272231531761
 20
193.4415255238315
 30
0.0
 40
60.0
  1
検　　図
100
AcDbText
  0
TEXT
  5
6C
330
20
100
AcDbEntity
  8
_0-0_
 62
     7
100
AcDbText
 10
3934.911703746988
 20
194.7630049720536
 30
0.0
 40
60.0
  1
製　　図
100
AcDbText
  0
TEXT
  5
6D
330
20
100
AcDbEntity
  8
_0-0_
 62
     7
100
AcDbText
 10
3757.563257873389
 20
644.1660207267091
 30
0.0
 40
60.0
  1
ＦＫ式ハンドホール
100
AcDbText
  0
TEXT
  5
6E
330
20
100
AcDbEntity
  8
_0-0_
 62
     7
100
AcDbText
 10
3968.476209942874
 20
555.1871190723949
 30
0.0
 40
60.0
  1
1200型
100
AcDbText
  0
TEXT
  5
6F
330
20
100
AcDbEntity
  8
_0-0_
 62
     7
100
AcDbText
 10
3726.734997502279
 20
465.1070047291771
 30
0.0
 40
60.0
  1
H-1206(CR-600)
100
AcDbText
  0
TEXT
  5
70
330
20
100
AcDbEntity
  8
_0-0_
 62
     7
100
AcDbText
 10
3708.609665683807
 20
372.8325881987772
 30
0.0
 40
60.0
  1
1200×1200×600
100
AcDbText
  0
TEXT
  5
71
330
20
100
AcDbEntity
  8
_0-0_
 62
     7
100
AcDbText
 10
222.2090084733168
 20
3919.064218819681
 30
0.0
 40
80.0
  1
組立構造図
100
AcDbText
  0
LINE
  5
72
330
20
100
AcDbEntity
  8
_0-0_
  6
Continuous
 62
     7
100
AcDbLine
 10
690.0
 20
3900.0
 30
0.0
 11
190.0
 21
3900.0
 31
0.0
  0
LINE
  5
73
330
20
100
AcDbEntity
  8
_0-0_
  6
Continuous
 62
     7
100
AcDbLine
 10
690.0
 20
4020.0
 30
0.0
 11
690.0
 21
3900.0
 31
0.0
  0
LINE
  5
74
330
20
100
AcDbEntity
  8
_0-0_
  6
DASHED1
 62
   136
100
AcDbLine
 10
4879.350055676506
 20
2926.084981859985
 30
0.0
 11
4099.350048606796
 21
2926.084981859985
 31
0.0
  0
LINE
  5
75
330
20
100
AcDbEntity
  8
_0-0_
  6
DASHED1
 62
   136
100
AcDbLine
 10
4099.350048606796
 20
2926.084981859985
 30
0.0
 11
4089.350210031823
 21
2961.0849417983
 31
0.0
  0
LINE
  5
76
330
20
100
AcDbEntity
  8
_0-0_
  6
DASHED1
 62
   136
100
AcDbLine
 10
5039.35132233274
 20
2861.085156246146
 30
0.0
 11
3939.348781950561
 21
2861.085156246146
 31
0.0
  0
LINE
  5
77
330
20
100
AcDbEntity
  8
_0-0_
  6
DASHED1
 62
   136
100
AcDbLine
 10
5089.350865158209
 20
2811.08526347007
 30
0.0
 11
3889.34923912509
 21
2811.08526347007
 31
0.0
  0
LINE
  5
78
330
20
100
AcDbEntity
  8
_0-0_
  6
DASHED1
 62
   136
100
AcDbLine
 10
3939.348781950561
 20
2861.085156246146
 30
0.0
 11
3939.348781950561
 21
1661.084930015451
 31
0.0
  0
LINE
  5
79
330
20
100
AcDbEntity
  8
_0-0_
  6
DASHED1
 62
   136
100
AcDbLine
 10
3889.34923912509
 20
1711.084822791528
 30
0.0
 11
3889.34923912509
 21
2811.08526347007
 31
0.0
  0
LINE
  5
7A
330
20
100
AcDbEntity
  8
_0-0_
  6
DASHED1
 62
   136
100
AcDbLine
 10
3889.34923912509
 20
2811.08526347007
 30
0.0
 11
3939.348781950561
 21
2861.085156246146
 31
0.0
  0
LINE
  5
7B
330
20
100
AcDbEntity
  8
_0-0_
  6
DASHED1
 62
   136
100
AcDbLine
 10
4889.349894251478
 20
2961.0849417983
 30
0.0
 11
4879.350055676506
 21
2926.084981859985
 31
0.0
  0
LINE
  5
7C
330
20
100
AcDbEntity
  8
_0-0_
  6
DASHED1
 62
   136
100
AcDbLine
 10
5039.35132233274
 20
1661.084930015451
 30
0.0
 11
5039.35132233274
 21
2861.085156246146
 31
0.0
  0
LINE
  5
7D
330
20
100
AcDbEntity
  8
_0-0_
  6
DASHED1
 62
   136
100
AcDbLine
 10
5039.35132233274
 20
2861.085156246146
 30
0.0
 11
5089.350865158209
 21
2811.08526347007
 31
0.0
  0
LINE
  5
7E
330
20
100
AcDbEntity
  8
_0-0_
  6
DASHED1
 62
   136
100
AcDbLine
 10
5089.350865158209
 20
1711.084822791528
 30
0.0
 11
5089.350865158209
 21
2811.08526347007
 31
0.0
  0
LINE
  5
7F
330
20
100
AcDbEntity
  8
_0-0_
  6
DASHED1
 62
   136
100
AcDbLine
 10
3889.34923912509
 20
1711.084822791528
 30
0.0
 11
5089.350865158209
 21
1711.084822791528
 31
0.0
  0
LINE
  5
80
330
20
100
AcDbEntity
  8
_0-0_
  6
DASHED1
 62
   136
100
AcDbLine
 10
3939.348781950561
 20
1661.084930015451
 30
0.0
 11
5039.35132233274
 21
1661.084930015451
 31
0.0
  0
LINE
  5
81
330
20
100
AcDbEntity
  8
_0-0_
  6
DASHED1
 62
   136
100
AcDbLine
 10
5089.350865158209
 20
1711.084822791528
 30
0.0
 11
5039.35132233274
 21
1661.084930015451
 31
0.0
  0
LINE
  5
82
330
20
100
AcDbEntity
  8
_0-0_
  6
DASHED1
 62
   136
100
AcDbLine
 10
5189.350300759759
 20
1861.084851070366
 30
0.0
 11
5154.350340821444
 21
1871.084689645338
 31
0.0
  0
LINE
  5
83
330
20
100
AcDbEntity
  8
_0-0_
  6
DASHED1
 62
   136
100
AcDbLine
 10
5154.350340821444
 20
1871.084689645338
 30
0.0
 11
5154.350340821444
 21
2651.084696715048
 31
0.0
  0
LINE
  5
84
330
20
100
AcDbEntity
  8
_0-0_
  6
DASHED1
 62
   136
100
AcDbLine
 10
3824.349763461858
 20
1871.084689645338
 30
0.0
 11
3789.349803523544
 21
1861.084851070366
 31
0.0
  0
LINE
  5
85
330
20
100
AcDbEntity
  8
_0-0_
  6
DASHED1
 62
   136
100
AcDbLine
 10
3824.349763461858
 20
2651.084696715048
 30
0.0
 11
3824.349763461858
 21
1871.084689645338
 31
0.0
  0
LINE
  5
86
330
20
100
AcDbEntity
  8
_0-0_
  6
DASHED1
 62
   136
100
AcDbLine
 10
3939.348781950561
 20
1661.084930015451
 30
0.0
 11
3889.34923912509
 21
1711.084822791528
 31
0.0
  0
LINE
  5
87
330
20
100
AcDbEntity
  8
_0-0_
  6
DASHED1
 62
   136
100
AcDbLine
 10
4089.350210031823
 20
1561.084444562085
 30
0.0
 11
4099.350048606796
 21
1596.0844045004
 31
0.0
  0
LINE
  5
88
330
20
100
AcDbEntity
  8
_0-0_
  6
DASHED1
 62
   136
100
AcDbLine
 10
4099.350048606796
 20
1596.0844045004
 30
0.0
 11
4879.350055676506
 21
1596.0844045004
 31
0.0
  0
LINE
  5
89
330
20
100
AcDbEntity
  8
_0-0_
  6
DASHED1
 62
   136
100
AcDbLine
 10
4879.350055676506
 20
1596.0844045004
 30
0.0
 11
4889.349894251478
 21
1561.084444562085
 31
0.0
  0
LINE
  5
8A
330
20
100
AcDbEntity
  8
_0-0_
  6
DASHED1
 62
   136
100
AcDbLine
 10
3789.349803523544
 20
2661.084535290021
 30
0.0
 11
3824.349763461858
 21
2651.084696715048
 31
0.0
  0
LINE
  5
8B
330
20
100
AcDbEntity
  8
_0-0_
  6
DASHED1
 62
   136
100
AcDbLine
 10
5154.350340821444
 20
2651.084696715048
 30
0.0
 11
5189.350300759759
 21
2661.084535290021
 31
0.0
  0
ARC
  5
8C
330
20
100
AcDbEntity
  8
_0-0_
  6
Continuous
 62
   136
100
AcDbCircle
 10
4489.349352240439
 20
2261.085043130799
 30
0.0
 40
100.0000042712826
100
AcDbArc
 50
62.18429565429689
 51
62.18414306640636
  0
ARC
  5
8D
330
20
100
AcDbEntity
  8
_0-0_
  6
Continuous
 62
   136
100
AcDbCircle
 10
4489.349352240439
 20
2261.085043130799
 30
0.0
 40
89.99999072100663
100
AcDbArc
 50
55.7740478515625
 51
55.77389526367192
  0
LINE
  5
8E
330
20
100
AcDbEntity
  8
_0-0_
  6
Continuous
 62
   136
100
AcDbLine
 10
4202.265857004665
 20
2548.16869027657
 30
0.0
 11
4418.638953565424
 21
2331.796006732473
 31
0.0
  0
LINE
  5
8F
330
20
100
AcDbEntity
  8
_0-0_
  6
Continuous
 62
   136
100
AcDbLine
 10
4202.265857004665
 20
1974.001395985029
 30
0.0
 11
4418.638953565424
 21
2190.374079529126
 31
0.0
  0
LINE
  5
90
330
20
100
AcDbEntity
  8
_0-0_
  6
Continuous
 62
   136
100
AcDbLine
 10
4560.060450815327
 20
2190.374779430338
 30
0.0
 11
4576.430094996076
 21
2174.005166496247
 31
0.0
  0
LINE
  5
91
330
20
100
AcDbEntity
  8
_0-0_
  6
Continuous
 62
   136
100
AcDbLine
 10
4560.060450815327
 20
2331.79530683126
 30
0.0
 11
4576.430094996076
 21
2348.164919765351
 31
0.0
  0
LINE
  5
92
330
20
100
AcDbEntity
  8
_0-0_
  6
DASHED1
 62
   136
100
AcDbLine
 10
4202.265857004665
 20
2548.16869027657
 30
0.0
 11
3939.348781950561
 21
2811.08526347007
 31
0.0
  0
LINE
  5
93
330
20
100
AcDbEntity
  8
_0-0_
  6
DASHED1
 62
   136
100
AcDbLine
 10
4576.430094996076
 20
2348.164919765351
 30
0.0
 11
5039.35132233274
 21
2811.08526347007
 31
0.0
  0
LINE
  5
94
330
20
100
AcDbEntity
  8
_0-0_
  6
DASHED1
 62
   136
100
AcDbLine
 10
4576.430094996076
 20
2174.005166496247
 30
0.0
 11
5039.35132233274
 21
1711.084822791528
 31
0.0
  0
LINE
  5
95
330
20
100
AcDbEntity
  8
_0-0_
  6
DASHED1
 62
   136
100
AcDbLine
 10
4202.265857004665
 20
1974.001395985029
 30
0.0
 11
3939.348781950561
 21
1711.084822791528
 31
0.0
  0
LINE
  5
96
330
20
100
AcDbEntity
  8
_0-0_
  6
DASHED1
 62
     6
100
AcDbLine
 10
4279.349592610551
 20
2896.085116184461
 30
0.0
 11
4279.349592610551
 21
2861.085156246146
 31
0.0
  0
LINE
  5
97
330
20
100
AcDbEntity
  8
_0-0_
  6
DASHED1
 62
     6
100
AcDbLine
 10
4299.348569859285
 20
2896.085116184461
 30
0.0
 11
4279.349592610551
 21
2896.085116184461
 31
0.0
  0
LINE
  5
98
330
20
100
AcDbEntity
  8
_0-0_
  6
DASHED1
 62
     6
100
AcDbLine
 10
4299.348569859285
 20
2861.085156246146
 30
0.0
 11
4299.348569859285
 21
2896.085116184461
 31
0.0
  0
LINE
  5
99
330
20
100
AcDbEntity
  8
_0-0_
  6
DASHED1
 62
     6
100
AcDbLine
 10
4479.349163714859
 20
2896.085116184461
 30
0.0
 11
4479.349163714859
 21
2861.085156246146
 31
0.0
  0
LINE
  5
9A
330
20
100
AcDbEntity
  8
_0-0_
  6
DASHED1
 62
     6
100
AcDbLine
 10
4499.348840864805
 20
2896.085116184461
 30
0.0
 11
4479.349163714859
 21
2896.085116184461
 31
0.0
  0
LINE
  5
9B
330
20
100
AcDbEntity
  8
_0-0_
  6
DASHED1
 62
     6
100
AcDbLine
 10
4499.348840864805
 20
2861.085156246146
 30
0.0
 11
4499.348840864805
 21
2896.085116184461
 31
0.0
  0
LINE
  5
9C
330
20
100
AcDbEntity
  8
_0-0_
  6
DASHED1
 62
     6
100
AcDbLine
 10
4679.348734819167
 20
2896.085116184461
 30
0.0
 11
4679.348734819167
 21
2861.085156246146
 31
0.0
  0
LINE
  5
9D
330
20
100
AcDbEntity
  8
_0-0_
  6
DASHED1
 62
     6
100
AcDbLine
 10
4699.349111870325
 20
2896.085116184461
 30
0.0
 11
4679.348734819167
 21
2896.085116184461
 31
0.0
  0
LINE
  5
9E
330
20
100
AcDbEntity
  8
_0-0_
  6
DASHED1
 62
     6
100
AcDbLine
 10
4699.349111870325
 20
2861.085156246146
 30
0.0
 11
4699.349111870325
 21
2896.085116184461
 31
0.0
  0
LINE
  5
9F
330
20
100
AcDbEntity
  8
_0-0_
  6
DASHED1
 62
     6
100
AcDbLine
 10
5124.348725392888
 20
2471.084802760686
 30
0.0
 11
5089.349465355787
 21
2471.084802760686
 31
0.0
  0
LINE
  5
A0
330
20
100
AcDbEntity
  8
_0-0_
  6
DASHED1
 62
     6
100
AcDbLine
 10
5089.349465355787
 20
2451.08512561074
 30
0.0
 11
5124.348725392888
 21
2451.08512561074
 31
0.0
  0
LINE
  5
A1
330
20
100
AcDbEntity
  8
_0-0_
  6
DASHED1
 62
     6
100
AcDbLine
 10
5124.348725392888
 20
2451.08512561074
 30
0.0
 11
5124.348725392888
 21
2471.084802760686
 31
0.0
  0
LINE
  5
A2
330
20
100
AcDbEntity
  8
_0-0_
  6
DASHED1
 62
     6
100
AcDbLine
 10
5124.348725392888
 20
2271.084881705772
 30
0.0
 11
5089.349465355787
 21
2271.084881705772
 31
0.0
  0
LINE
  5
A3
330
20
100
AcDbEntity
  8
_0-0_
  6
DASHED1
 62
     6
100
AcDbLine
 10
5089.349465355787
 20
2251.085204555826
 30
0.0
 11
5124.348725392888
 21
2251.085204555826
 31
0.0
  0
LINE
  5
A4
330
20
100
AcDbEntity
  8
_0-0_
  6
DASHED1
 62
     6
100
AcDbLine
 10
5124.348725392888
 20
2251.085204555826
 30
0.0
 11
5124.348725392888
 21
2271.084881705772
 31
0.0
  0
LINE
  5
A5
330
20
100
AcDbEntity
  8
_0-0_
  6
DASHED1
 62
     6
100
AcDbLine
 10
5124.348725392888
 20
2071.084960650859
 30
0.0
 11
5089.349465355787
 21
2071.084960650859
 31
0.0
  0
LINE
  5
A6
330
20
100
AcDbEntity
  8
_0-0_
  6
DASHED1
 62
     6
100
AcDbLine
 10
5089.349465355787
 20
2051.085283500913
 30
0.0
 11
5124.348725392888
 21
2051.085283500913
 31
0.0
  0
LINE
  5
A7
330
20
100
AcDbEntity
  8
_0-0_
  6
DASHED1
 62
     6
100
AcDbLine
 10
5124.348725392888
 20
2051.085283500913
 30
0.0
 11
5124.348725392888
 21
2071.084960650859
 31
0.0
  0
LINE
  5
A8
330
20
100
AcDbEntity
  8
_0-0_
  6
DASHED1
 62
     6
100
AcDbLine
 10
4279.349592610551
 20
1661.084930015451
 30
0.0
 11
4279.349592610551
 21
1626.084970077137
 31
0.0
  0
LINE
  5
A9
330
20
100
AcDbEntity
  8
_0-0_
  6
DASHED1
 62
     6
100
AcDbLine
 10
4279.349592610551
 20
1626.084970077137
 30
0.0
 11
4299.348569859285
 21
1626.084970077137
 31
0.0
  0
LINE
  5
AA
330
20
100
AcDbEntity
  8
_0-0_
  6
DASHED1
 62
     6
100
AcDbLine
 10
4299.348569859285
 20
1626.084970077137
 30
0.0
 11
4299.348569859285
 21
1661.084930015451
 31
0.0
  0
LINE
  5
AB
330
20
100
AcDbEntity
  8
_0-0_
  6
DASHED1
 62
     6
100
AcDbLine
 10
4479.349163714859
 20
1661.084930015451
 30
0.0
 11
4479.349163714859
 21
1626.084970077137
 31
0.0
  0
LINE
  5
AC
330
20
100
AcDbEntity
  8
_0-0_
  6
DASHED1
 62
     6
100
AcDbLine
 10
4479.349163714859
 20
1626.084970077137
 30
0.0
 11
4499.348840864805
 21
1626.084970077137
 31
0.0
  0
LINE
  5
AD
330
20
100
AcDbEntity
  8
_0-0_
  6
DASHED1
 62
     6
100
AcDbLine
 10
4499.348840864805
 20
1626.084970077137
 30
0.0
 11
4499.348840864805
 21
1661.084930015451
 31
0.0
  0
LINE
  5
AE
330
20
100
AcDbEntity
  8
_0-0_
  6
DASHED1
 62
     6
100
AcDbLine
 10
4679.348734819167
 20
1661.084930015451
 30
0.0
 11
4679.348734819167
 21
1626.084970077137
 31
0.0
  0
LINE
  5
AF
330
20
100
AcDbEntity
  8
_0-0_
  6
DASHED1
 62
     6
100
AcDbLine
 10
4679.348734819167
 20
1626.084970077137
 30
0.0
 11
4699.349111870325
 21
1626.084970077137
 31
0.0
  0
LINE
  5
B0
330
20
100
AcDbEntity
  8
_0-0_
  6
DASHED1
 62
     6
100
AcDbLine
 10
4699.349111870325
 20
1626.084970077137
 30
0.0
 11
4699.349111870325
 21
1661.084930015451
 31
0.0
  0
LINE
  5
B1
330
20
100
AcDbEntity
  8
_0-0_
  6
DASHED1
 62
     6
100
AcDbLine
 10
3889.34923912509
 20
2471.084802760686
 30
0.0
 11
3854.348579285564
 21
2471.084802760686
 31
0.0
  0
LINE
  5
B2
330
20
100
AcDbEntity
  8
_0-0_
  6
DASHED1
 62
     6
100
AcDbLine
 10
3854.348579285564
 20
2451.08512561074
 30
0.0
 11
3889.34923912509
 21
2451.08512561074
 31
0.0
  0
LINE
  5
B3
330
20
100
AcDbEntity
  8
_0-0_
  6
DASHED1
 62
     6
100
AcDbLine
 10
3854.348579285564
 20
2471.084802760686
 30
0.0
 11
3854.348579285564
 21
2451.08512561074
 31
0.0
  0
LINE
  5
B4
330
20
100
AcDbEntity
  8
_0-0_
  6
DASHED1
 62
     6
100
AcDbLine
 10
3889.34923912509
 20
2271.084881705772
 30
0.0
 11
3854.348579285564
 21
2271.084881705772
 31
0.0
  0
LINE
  5
B5
330
20
100
AcDbEntity
  8
_0-0_
  6
DASHED1
 62
     6
100
AcDbLine
 10
3854.348579285564
 20
2251.085204555826
 30
0.0
 11
3889.34923912509
 21
2251.085204555826
 31
0.0
  0
LINE
  5
B6
330
20
100
AcDbEntity
  8
_0-0_
  6
DASHED1
 62
     6
100
AcDbLine
 10
3889.34923912509
 20
2071.084960650859
 30
0.0
 11
3854.348579285564
 21
2071.084960650859
 31
0.0
  0
LINE
  5
B7
330
20
100
AcDbEntity
  8
_0-0_
  6
DASHED1
 62
     6
100
AcDbLine
 10
3854.348579285564
 20
2051.085283500913
 30
0.0
 11
3889.34923912509
 21
2051.085283500913
 31
0.0
  0
LINE
  5
B8
330
20
100
AcDbEntity
  8
_0-0_
  6
DASHED1
 62
     6
100
AcDbLine
 10
3854.348579285564
 20
2071.084960650859
 30
0.0
 11
3854.348579285564
 21
2051.085283500913
 31
0.0
  0
LINE
  5
B9
330
20
100
AcDbEntity
  8
_0-0_
  6
DASHED1
 62
     6
100
AcDbLine
 10
3854.348579285564
 20
2271.084881705772
 30
0.0
 11
3854.348579285564
 21
2251.085204555826
 31
0.0
  0
LINE
  5
BA
330
20
100
AcDbEntity
  8
_0-0_
  6
Continuous
 62
     7
100
AcDbLine
 10
3789.348753671725
 20
1571.084983038271
 30
0.0
 11
3789.348753671725
 21
2951.085103223329
 31
0.0
  0
LINE
  5
BB
330
20
100
AcDbEntity
  8
_0-0_
  6
Continuous
 62
     7
100
AcDbLine
 10
5179.351162085996
 20
2961.0849417983
 30
0.0
 11
3799.348942197303
 21
2961.0849417983
 31
0.0
  0
LINE
  5
BC
330
20
100
AcDbEntity
  8
_0-0_
  6
Continuous
 62
     7
100
AcDbLine
 10
3789.348753671725
 20
2951.085103223329
 30
0.0
 11
3799.348942197303
 21
2961.0849417983
 31
0.0
  0
CIRCLE
  5
BD
330
20
100
AcDbEntity
  8
_0-0_
  6
Continuous
 62
     7
100
AcDbCircle
 10
4289.346281630068
 20
2261.085043130799
 30
0.0
 40
435.0000645110965
  0
CIRCLE
  5
BE
330
20
100
AcDbEntity
  8
_0-0_
  6
Continuous
 62
     7
100
AcDbCircle
 10
4289.346281630068
 20
2261.085043130799
 30
0.0
 40
300.0000346857608
  0
LINE
  5
BF
330
20
100
AcDbEntity
  8
_0-0_
  6
Continuous
 62
     7
100
AcDbLine
 10
5189.351350611578
 20
1571.084983038271
 30
0.0
 11
5189.351350611578
 21
2951.085103223329
 31
0.0
  0
LINE
  5
C0
330
20
100
AcDbEntity
  8
_0-0_
  6
Continuous
 62
     7
100
AcDbLine
 10
5179.351162085996
 20
2961.0849417983
 30
0.0
 11
5189.351350611578
 21
2951.085103223329
 31
0.0
  0
LINE
  5
C1
330
20
100
AcDbEntity
  8
_0-0_
  6
Continuous
 62
     7
100
AcDbLine
 10
3799.348942197303
 20
1561.084794512692
 30
0.0
 11
5179.351162085996
 21
1561.084794512692
 31
0.0
  0
LINE
  5
C2
330
20
100
AcDbEntity
  8
_0-0_
  6
Continuous
 62
     7
100
AcDbLine
 10
3799.348942197303
 20
1561.084794512692
 30
0.0
 11
3789.348753671725
 21
1571.084983038271
 31
0.0
  0
LINE
  5
C3
330
20
100
AcDbEntity
  8
_0-0_
  6
Continuous
 62
     7
100
AcDbLine
 10
5189.351350611578
 20
1571.084983038271
 30
0.0
 11
5179.351162085996
 21
1561.084794512692
 31
0.0
  0
LINE
  5
C4
330
20
100
AcDbEntity
  8
_0-0_
  6
Continuous
 62
     4
100
AcDbLine
 10
5189.351350611578
 20
3391.0849417983
 30
0.0
 11
3789.348753671725
 21
3391.0849417983
 31
0.0
  0
LINE
  5
C5
330
20
100
AcDbEntity
  8
_0-0_
  6
Continuous
 62
     4
100
AcDbLine
 10
3789.348753671725
 20
2981.0849417983
 30
0.0
 11
3789.348753671725
 21
3401.084941798301
 31
0.0
  0
LINE
  5
C6
330
20
100
AcDbEntity
  8
_0-0_
  6
Continuous
 62
     4
100
AcDbLine
 10
5189.351350611578
 20
2981.0849417983
 30
0.0
 11
5189.351350611578
 21
3401.084941798301
 31
0.0
  0
LINE
  5
C7
330
20
100
AcDbEntity
  8
_0-0_
  6
Continuous
 62
     4
100
AcDbLine
 10
5209.351350611577
 20
2651.084696715048
 30
0.0
 11
5349.351350611578
 21
2651.084696715048
 31
0.0
  0
LINE
  5
C8
330
20
100
AcDbEntity
  8
_0-0_
  6
Continuous
 62
     4
100
AcDbLine
 10
5339.351350611578
 20
1871.084689645338
 30
0.0
 11
5339.351350611578
 21
2651.084696715048
 31
0.0
  0
LINE
  5
C9
330
20
100
AcDbEntity
  8
_0-0_
  6
Continuous
 62
     4
100
AcDbLine
 10
5209.351350611577
 20
1871.084689645338
 30
0.0
 11
5349.351350611578
 21
1871.084689645338
 31
0.0
  0
LINE
  5
CA
330
20
100
AcDbEntity
  8
_0-0_
  6
Continuous
 62
     4
100
AcDbLine
 10
3359.348753671724
 20
1561.084794512692
 30
0.0
 11
3359.348753671724
 21
2961.0849417983
 31
0.0
  0
LINE
  5
CB
330
20
100
AcDbEntity
  8
_0-0_
  6
Continuous
 62
     4
100
AcDbLine
 10
3769.348753671725
 20
1561.084794512692
 30
0.0
 11
3349.348753671725
 21
1561.084794512692
 31
0.0
  0
LINE
  5
CC
330
20
100
AcDbEntity
  8
_0-0_
  6
Continuous
 62
     4
100
AcDbLine
 10
3769.348753671725
 20
2961.0849417983
 30
0.0
 11
3349.348753671725
 21
2961.0849417983
 31
0.0
  0
LINE
  5
CD
330
20
100
AcDbEntity
  8
_0-0_
  6
Continuous
 62
     4
100
AcDbLine
 10
3889.348753671725
 20
2981.0849417983
 30
0.0
 11
3889.348753671725
 21
3261.0849417983
 31
0.0
  0
LINE
  5
CE
330
20
100
AcDbEntity
  8
_0-0_
  6
Continuous
 62
     4
100
AcDbLine
 10
5089.351350611576
 20
2981.0849417983
 30
0.0
 11
5089.351350611576
 21
3261.0849417983
 31
0.0
  0
LINE
  5
CF
330
20
100
AcDbEntity
  8
_0-0_
  6
Continuous
 62
     4
100
AcDbLine
 10
3939.348753671725
 20
2981.0849417983
 30
0.0
 11
3939.348753671725
 21
3121.0849417983
 31
0.0
  0
LINE
  5
D0
330
20
100
AcDbEntity
  8
_0-0_
  6
Continuous
 62
     4
100
AcDbLine
 10
5039.351350611577
 20
2981.0849417983
 30
0.0
 11
5039.351350611577
 21
3121.0849417983
 31
0.0
  0
LINE
  5
D1
330
20
100
AcDbEntity
  8
_0-0_
  6
Continuous
 62
     4
100
AcDbLine
 10
3989.348753671725
 20
3111.0849417983
 30
0.0
 11
3939.348753671725
 21
3111.0849417983
 31
0.0
  0
LINE
  5
D2
330
20
100
AcDbEntity
  8
_0-0_
  6
Continuous
 62
     4
100
AcDbLine
 10
3889.348753671725
 20
3111.0849417983
 30
0.0
 11
3839.348753671725
 21
3111.0849417983
 31
0.0
  0
LINE
  5
D3
330
20
100
AcDbEntity
  8
_0-0_
  6
Continuous
 62
     4
100
AcDbLine
 10
5139.351350611578
 20
3111.0849417983
 30
0.0
 11
5089.351350611576
 21
3111.0849417983
 31
0.0
  0
LINE
  5
D4
330
20
100
AcDbEntity
  8
_0-0_
  6
Continuous
 62
     4
100
AcDbLine
 10
5039.351350611577
 20
3111.0849417983
 30
0.0
 11
4989.351350611577
 21
3111.0849417983
 31
0.0
  0
LINE
  5
D5
330
20
100
AcDbEntity
  8
_0-0_
  6
Continuous
 62
     4
100
AcDbLine
 10
5089.351350611576
 20
3111.0849417983
 30
0.0
 11
5039.351350611577
 21
3111.0849417983
 31
0.0
  0
LINE
  5
D6
330
20
100
AcDbEntity
  8
_0-0_
  6
Continuous
 62
     4
100
AcDbLine
 10
3939.348753671725
 20
3111.0849417983
 30
0.0
 11
3889.348753671725
 21
3111.0849417983
 31
0.0
  0
LINE
  5
D7
330
20
100
AcDbEntity
  8
_0-0_
  6
Continuous
 62
     4
100
AcDbLine
 10
5189.351350611578
 20
3251.0849417983
 30
0.0
 11
5089.351350611576
 21
3251.0849417983
 31
0.0
  0
LINE
  5
D8
330
20
100
AcDbEntity
  8
_0-0_
  6
Continuous
 62
     4
100
AcDbLine
 10
3889.348753671725
 20
3251.0849417983
 30
0.0
 11
3789.348753671725
 21
3251.0849417983
 31
0.0
  0
LINE
  5
D9
330
20
100
AcDbEntity
  8
_0-0_
  6
Continuous
 62
     4
100
AcDbLine
 10
5089.351350611576
 20
3251.0849417983
 30
0.0
 11
3889.348753671725
 21
3251.0849417983
 31
0.0
  0
LINE
  5
DA
330
20
100
AcDbEntity
  8
_0-0_
  6
Continuous
 62
     4
100
AcDbLine
 10
5189.351350611578
 20
3251.0849417983
 30
0.0
 11
5160.006922589563
 21
3244.847591073768
 31
0.0
  0
LINE
  5
DB
330
20
100
AcDbEntity
  8
_0-0_
  6
Continuous
 62
     4
100
AcDbLine
 10
5189.351350611578
 20
3251.0849417983
 30
0.0
 11
5160.006922589563
 21
3257.322292522834
 31
0.0
  0
LINE
  5
DC
330
20
100
AcDbEntity
  8
_0-0_
  6
Continuous
 62
     4
100
AcDbLine
 10
5089.351350611576
 20
3251.0849417983
 30
0.0
 11
5118.695778633592
 21
3257.322292522834
 31
0.0
  0
LINE
  5
DD
330
20
100
AcDbEntity
  8
_0-0_
  6
Continuous
 62
     4
100
AcDbLine
 10
5089.351350611576
 20
3251.0849417983
 30
0.0
 11
5118.695778633592
 21
3244.847591073768
 31
0.0
  0
LINE
  5
DE
330
20
100
AcDbEntity
  8
_0-0_
  6
Continuous
 62
     4
100
AcDbLine
 10
5189.351350611578
 20
3391.0849417983
 30
0.0
 11
5160.006922589563
 21
3384.847591073768
 31
0.0
  0
LINE
  5
DF
330
20
100
AcDbEntity
  8
_0-0_
  6
Continuous
 62
     4
100
AcDbLine
 10
5189.351350611578
 20
3391.0849417983
 30
0.0
 11
5160.006922589563
 21
3397.322292522833
 31
0.0
  0
LINE
  5
E0
330
20
100
AcDbEntity
  8
_0-0_
  6
Continuous
 62
     4
100
AcDbLine
 10
3789.348753671725
 20
3391.0849417983
 30
0.0
 11
3818.693181693739
 21
3397.322292522833
 31
0.0
  0
LINE
  5
E1
330
20
100
AcDbEntity
  8
_0-0_
  6
Continuous
 62
     4
100
AcDbLine
 10
3789.348753671725
 20
3391.0849417983
 30
0.0
 11
3818.693181693739
 21
3384.847591073768
 31
0.0
  0
LINE
  5
E2
330
20
100
AcDbEntity
  8
_0-0_
  6
Continuous
 62
     4
100
AcDbLine
 10
3789.348753671725
 20
3251.0849417983
 30
0.0
 11
3818.693181693739
 21
3257.322292522834
 31
0.0
  0
LINE
  5
E3
330
20
100
AcDbEntity
  8
_0-0_
  6
Continuous
 62
     4
100
AcDbLine
 10
3789.348753671725
 20
3251.0849417983
 30
0.0
 11
3818.693181693739
 21
3244.847591073768
 31
0.0
  0
LINE
  5
E4
330
20
100
AcDbEntity
  8
_0-0_
  6
Continuous
 62
     4
100
AcDbLine
 10
3889.348753671725
 20
3251.0849417983
 30
0.0
 11
3860.004325649711
 21
3244.847591073768
 31
0.0
  0
LINE
  5
E5
330
20
100
AcDbEntity
  8
_0-0_
  6
Continuous
 62
     4
100
AcDbLine
 10
3889.348753671725
 20
3251.0849417983
 30
0.0
 11
3860.004325649711
 21
3257.322292522834
 31
0.0
  0
LINE
  5
E6
330
20
100
AcDbEntity
  8
_0-0_
  6
Continuous
 62
     4
100
AcDbLine
 10
3889.348753671725
 20
3111.0849417983
 30
0.0
 11
3860.004325649711
 21
3104.847591073768
 31
0.0
  0
LINE
  5
E7
330
20
100
AcDbEntity
  8
_0-0_
  6
Continuous
 62
     4
100
AcDbLine
 10
3889.348753671725
 20
3111.0849417983
 30
0.0
 11
3860.004325649711
 21
3117.322292522834
 31
0.0
  0
LINE
  5
E8
330
20
100
AcDbEntity
  8
_0-0_
  6
Continuous
 62
     4
100
AcDbLine
 10
3939.348753671725
 20
3111.0849417983
 30
0.0
 11
3968.693181693739
 21
3117.322292522834
 31
0.0
  0
LINE
  5
E9
330
20
100
AcDbEntity
  8
_0-0_
  6
Continuous
 62
     4
100
AcDbLine
 10
3939.348753671725
 20
3111.0849417983
 30
0.0
 11
3968.693181693739
 21
3104.847591073768
 31
0.0
  0
LINE
  5
EA
330
20
100
AcDbEntity
  8
_0-0_
  6
Continuous
 62
     4
100
AcDbLine
 10
5039.351350611577
 20
3111.0849417983
 30
0.0
 11
5010.006922589563
 21
3104.847591073768
 31
0.0
  0
LINE
  5
EB
330
20
100
AcDbEntity
  8
_0-0_
  6
Continuous
 62
     4
100
AcDbLine
 10
5039.351350611577
 20
3111.0849417983
 30
0.0
 11
5010.006922589563
 21
3117.322292522834
 31
0.0
  0
LINE
  5
EC
330
20
100
AcDbEntity
  8
_0-0_
  6
Continuous
 62
     4
100
AcDbLine
 10
5089.351350611576
 20
3111.0849417983
 30
0.0
 11
5118.695778633592
 21
3117.322292522834
 31
0.0
  0
LINE
  5
ED
330
20
100
AcDbEntity
  8
_0-0_
  6
Continuous
 62
     4
100
AcDbLine
 10
5089.351350611576
 20
3111.0849417983
 30
0.0
 11
5118.695778633592
 21
3104.847591073768
 31
0.0
  0
LINE
  5
EE
330
20
100
AcDbEntity
  8
_0-0_
  6
Continuous
 62
     4
100
AcDbLine
 10
4489.35005214165
 20
3121.0849417983
 30
0.0
 11
4489.35005214165
 21
2981.0849417983
 31
0.0
  0
LINE
  5
EF
330
20
100
AcDbEntity
  8
_0-0_
  6
Continuous
 62
     4
100
AcDbLine
 10
4689.35005214165
 20
3121.0849417983
 30
0.0
 11
4689.35005214165
 21
2981.0849417983
 31
0.0
  0
LINE
  5
F0
330
20
100
AcDbEntity
  8
_0-0_
  6
Continuous
 62
     4
100
AcDbLine
 10
4289.350052141649
 20
3121.0849417983
 30
0.0
 11
4289.350052141649
 21
2981.0849417983
 31
0.0
  0
LINE
  5
F1
330
20
100
AcDbEntity
  8
_0-0_
  6
Continuous
 62
     4
100
AcDbLine
 10
4489.35005214165
 20
3111.0849417983
 30
0.0
 11
4289.350052141649
 21
3111.0849417983
 31
0.0
  0
LINE
  5
F2
330
20
100
AcDbEntity
  8
_0-0_
  6
Continuous
 62
     4
100
AcDbLine
 10
4689.35005214165
 20
3111.0849417983
 30
0.0
 11
4489.35005214165
 21
3111.0849417983
 31
0.0
  0
LINE
  5
F3
330
20
100
AcDbEntity
  8
_0-0_
  6
Continuous
 62
     4
100
AcDbLine
 10
4289.350052141649
 20
3111.0849417983
 30
0.0
 11
4318.694480163665
 21
3117.322292522834
 31
0.0
  0
LINE
  5
F4
330
20
100
AcDbEntity
  8
_0-0_
  6
Continuous
 62
     4
100
AcDbLine
 10
4289.350052141649
 20
3111.0849417983
 30
0.0
 11
4318.694480163665
 21
3104.847591073768
 31
0.0
  0
LINE
  5
F5
330
20
100
AcDbEntity
  8
_0-0_
  6
Continuous
 62
     4
100
AcDbLine
 10
4489.35005214165
 20
3111.0849417983
 30
0.0
 11
4460.005624119636
 21
3104.847591073768
 31
0.0
  0
LINE
  5
F6
330
20
100
AcDbEntity
  8
_0-0_
  6
Continuous
 62
     4
100
AcDbLine
 10
4489.35005214165
 20
3111.0849417983
 30
0.0
 11
4460.005624119636
 21
3117.322292522834
 31
0.0
  0
LINE
  5
F7
330
20
100
AcDbEntity
  8
_0-0_
  6
Continuous
 62
     4
100
AcDbLine
 10
4489.35005214165
 20
3111.0849417983
 30
0.0
 11
4518.694480163666
 21
3117.322292522834
 31
0.0
  0
LINE
  5
F8
330
20
100
AcDbEntity
  8
_0-0_
  6
Continuous
 62
     4
100
AcDbLine
 10
4489.35005214165
 20
3111.0849417983
 30
0.0
 11
4518.694480163666
 21
3104.847591073768
 31
0.0
  0
LINE
  5
F9
330
20
100
AcDbEntity
  8
_0-0_
  6
Continuous
 62
     4
100
AcDbLine
 10
4689.35005214165
 20
3111.0849417983
 30
0.0
 11
4660.005624119636
 21
3104.847591073768
 31
0.0
  0
LINE
  5
FA
330
20
100
AcDbEntity
  8
_0-0_
  6
Continuous
 62
     4
100
AcDbLine
 10
4689.35005214165
 20
3111.0849417983
 30
0.0
 11
4660.005624119636
 21
3117.322292522834
 31
0.0
  0
TEXT
  5
FB
330
20
100
AcDbEntity
  8
_0-0_
 62
     7
100
AcDbText
 10
4422.42944212024
 20
3404.080889379685
 30
0.0
 40
60.0
  1
1400
100
AcDbText
  0
TEXT
  5
FC
330
20
100
AcDbEntity
  8
_0-0_
 62
     7
100
AcDbText
 10
4422.994157031688
 20
3262.692410265173
 30
0.0
 40
60.0
  1
1200
100
AcDbText
  0
TEXT
  5
FD
330
20
100
AcDbEntity
  8
_0-0_
 62
     7
100
AcDbText
 10
4322.244619196236
 20
3120.061558345479
 30
0.0
 40
60.0
  1
200
100
AcDbText
  0
TEXT
  5
FE
330
20
100
AcDbEntity
  8
_0-0_
 62
     7
100
AcDbText
 10
4521.927811883811
 20
3121.739568368063
 30
0.0
 40
60.0
  1
200
100
AcDbText
  0
TEXT
  5
FF
330
20
100
AcDbEntity
  8
_0-0_
 62
     7
100
AcDbText
 10
3798.844096219733
 20
3261.746329439502
 30
0.0
 40
60.0
  1
100
100
AcDbText
  0
TEXT
  5
100
330
20
100
AcDbEntity
  8
_0-0_
 62
     7
100
AcDbText
 10
3902.820090218234
 20
3122.758010931305
 30
0.0
 40
60.0
  1
50
100
AcDbText
  0
TEXT
  5
101
330
20
100
AcDbEntity
  8
_0-0_
 62
     7
100
AcDbText
 10
5041.631024906052
 20
3263.762190547637
 30
0.0
 40
60.0
  1
100
100
AcDbText
  0
TEXT
  5
102
330
20
100
AcDbEntity
  8
_0-0_
 62
     7
100
AcDbText
 10
4975.107608337624
 20
3124.667774086379
 30
0.0
 40
60.0
  1
50
100
AcDbText
  0
LINE
  5
103
330
20
100
AcDbEntity
  8
_0-0_
  6
Continuous
 62
     4
100
AcDbLine
 10
5339.351350611578
 20
2651.084696715048
 30
0.0
 11
5345.58870133611
 21
2621.740268693033
 31
0.0
  0
LINE
  5
104
330
20
100
AcDbEntity
  8
_0-0_
  6
Continuous
 62
     4
100
AcDbLine
 10
5339.351350611578
 20
2651.084696715048
 30
0.0
 11
5333.113999887045
 21
2621.740268693033
 31
0.0
  0
LINE
  5
105
330
20
100
AcDbEntity
  8
_0-0_
  6
Continuous
 62
     4
100
AcDbLine
 10
5339.351350611578
 20
1871.084689645338
 30
0.0
 11
5333.113999887045
 21
1900.429117667352
 31
0.0
  0
LINE
  5
106
330
20
100
AcDbEntity
  8
_0-0_
  6
Continuous
 62
     4
100
AcDbLine
 10
5339.351350611578
 20
1871.084689645338
 30
0.0
 11
5345.58870133611
 21
1900.429117667352
 31
0.0
  0
TEXT
  5
107
330
20
100
AcDbEntity
  8
_0-0_
 62
     7
100
AcDbText
 10
5328.890351491527
 20
2210.960094508677
 30
0.0
 40
60.0
  1
780
 50
90.0
100
AcDbText
  0
LINE
  5
108
330
20
100
AcDbEntity
  8
_0-0_
  6
Continuous
 62
     4
100
AcDbLine
 10
3769.348753671725
 20
2861.0849417983
 30
0.0
 11
3489.348753671725
 21
2861.0849417983
 31
0.0
  0
LINE
  5
109
330
20
100
AcDbEntity
  8
_0-0_
  6
Continuous
 62
     4
100
AcDbLine
 10
3769.348753671725
 20
1661.084794512692
 30
0.0
 11
3489.348753671725
 21
1661.084794512692
 31
0.0
  0
LINE
  5
10A
330
20
100
AcDbEntity
  8
_0-0_
  6
Continuous
 62
     4
100
AcDbLine
 10
3499.348753671725
 20
1561.084794512692
 30
0.0
 11
3499.348753671725
 21
1661.084794512692
 31
0.0
  0
LINE
  5
10B
330
20
100
AcDbEntity
  8
_0-0_
  6
Continuous
 62
     4
100
AcDbLine
 10
3499.348753671725
 20
2861.0849417983
 30
0.0
 11
3499.348753671725
 21
2961.0849417983
 31
0.0
  0
LINE
  5
10C
330
20
100
AcDbEntity
  8
_0-0_
  6
Continuous
 62
     4
100
AcDbLine
 10
3499.348753671725
 20
2861.0849417983
 30
0.0
 11
3499.348753671725
 21
1661.084794512692
 31
0.0
  0
LINE
  5
10D
330
20
100
AcDbEntity
  8
_0-0_
  6
Continuous
 62
     4
100
AcDbLine
 10
3769.348753671725
 20
2811.0849417983
 30
0.0
 11
3629.348753671725
 21
2811.0849417983
 31
0.0
  0
LINE
  5
10E
330
20
100
AcDbEntity
  8
_0-0_
  6
Continuous
 62
     4
100
AcDbLine
 10
3769.348753671725
 20
1711.084794512691
 30
0.0
 11
3629.348753671725
 21
1711.084794512691
 31
0.0
  0
LINE
  5
10F
330
20
100
AcDbEntity
  8
_0-0_
  6
Continuous
 62
     4
100
AcDbLine
 10
3639.348753671725
 20
2761.0849417983
 30
0.0
 11
3639.348753671725
 21
2811.0849417983
 31
0.0
  0
LINE
  5
110
330
20
100
AcDbEntity
  8
_0-0_
  6
Continuous
 62
     4
100
AcDbLine
 10
3639.348753671725
 20
2861.0849417983
 30
0.0
 11
3639.348753671725
 21
2911.0849417983
 31
0.0
  0
LINE
  5
111
330
20
100
AcDbEntity
  8
_0-0_
  6
Continuous
 62
     4
100
AcDbLine
 10
3639.348753671725
 20
1611.084794512692
 30
0.0
 11
3639.348753671725
 21
1661.084794512692
 31
0.0
  0
LINE
  5
112
330
20
100
AcDbEntity
  8
_0-0_
  6
Continuous
 62
     4
100
AcDbLine
 10
3639.348753671725
 20
1711.084794512691
 30
0.0
 11
3639.348753671725
 21
1761.084794512691
 31
0.0
  0
LINE
  5
113
330
20
100
AcDbEntity
  8
_0-0_
  6
Continuous
 62
     4
100
AcDbLine
 10
3639.348753671725
 20
2861.0849417983
 30
0.0
 11
3639.348753671725
 21
2811.0849417983
 31
0.0
  0
LINE
  5
114
330
20
100
AcDbEntity
  8
_0-0_
  6
Continuous
 62
     4
100
AcDbLine
 10
3639.348753671725
 20
1711.084794512691
 30
0.0
 11
3639.348753671725
 21
1661.084794512692
 31
0.0
  0
LINE
  5
115
330
20
100
AcDbEntity
  8
_0-0_
  6
Continuous
 62
     4
100
AcDbLine
 10
3629.348753671725
 20
2261.084868155496
 30
0.0
 11
3769.348753671725
 21
2261.084868155496
 31
0.0
  0
LINE
  5
116
330
20
100
AcDbEntity
  8
_0-0_
  6
Continuous
 62
     4
100
AcDbLine
 10
3629.348753671725
 20
2461.084868155496
 30
0.0
 11
3769.348753671725
 21
2461.084868155496
 31
0.0
  0
LINE
  5
117
330
20
100
AcDbEntity
  8
_0-0_
  6
Continuous
 62
     4
100
AcDbLine
 10
3629.348753671725
 20
2061.084868155496
 30
0.0
 11
3769.348753671725
 21
2061.084868155496
 31
0.0
  0
LINE
  5
118
330
20
100
AcDbEntity
  8
_0-0_
  6
Continuous
 62
     4
100
AcDbLine
 10
3639.348753671725
 20
2061.084868155496
 30
0.0
 11
3639.348753671725
 21
2261.084868155496
 31
0.0
  0
LINE
  5
119
330
20
100
AcDbEntity
  8
_0-0_
  6
Continuous
 62
     4
100
AcDbLine
 10
3639.348753671725
 20
2461.084868155496
 30
0.0
 11
3639.348753671725
 21
2261.084868155496
 31
0.0
  0
LINE
  5
11A
330
20
100
AcDbEntity
  8
_0-0_
  6
Continuous
 62
     4
100
AcDbLine
 10
3639.348753671725
 20
2861.0849417983
 30
0.0
 11
3633.111402947192
 21
2890.429369820314
 31
0.0
  0
LINE
  5
11B
330
20
100
AcDbEntity
  8
_0-0_
  6
Continuous
 62
     4
100
AcDbLine
 10
3639.348753671725
 20
2861.0849417983
 30
0.0
 11
3645.586104396257
 21
2890.429369820314
 31
0.0
  0
LINE
  5
11C
330
20
100
AcDbEntity
  8
_0-0_
  6
Continuous
 62
     4
100
AcDbLine
 10
3639.348753671725
 20
2811.0849417983
 30
0.0
 11
3645.586104396257
 21
2781.740513776287
 31
0.0
  0
LINE
  5
11D
330
20
100
AcDbEntity
  8
_0-0_
  6
Continuous
 62
     4
100
AcDbLine
 10
3639.348753671725
 20
2811.0849417983
 30
0.0
 11
3633.111402947192
 21
2781.740513776287
 31
0.0
  0
LINE
  5
11E
330
20
100
AcDbEntity
  8
_0-0_
  6
Continuous
 62
     4
100
AcDbLine
 10
3499.348753671725
 20
2961.0849417983
 30
0.0
 11
3505.586104396257
 21
2931.740513776287
 31
0.0
  0
LINE
  5
11F
330
20
100
AcDbEntity
  8
_0-0_
  6
Continuous
 62
     4
100
AcDbLine
 10
3499.348753671725
 20
2961.0849417983
 30
0.0
 11
3493.111402947192
 21
2931.740513776287
 31
0.0
  0
LINE
  5
120
330
20
100
AcDbEntity
  8
_0-0_
  6
Continuous
 62
     4
100
AcDbLine
 10
3499.348753671725
 20
2861.0849417983
 30
0.0
 11
3493.111402947192
 21
2890.429369820314
 31
0.0
  0
LINE
  5
121
330
20
100
AcDbEntity
  8
_0-0_
  6
Continuous
 62
     4
100
AcDbLine
 10
3499.348753671725
 20
2861.0849417983
 30
0.0
 11
3505.586104396257
 21
2890.429369820314
 31
0.0
  0
LINE
  5
122
330
20
100
AcDbEntity
  8
_0-0_
  6
Continuous
 62
     4
100
AcDbLine
 10
3499.348753671725
 20
2861.0849417983
 30
0.0
 11
3505.586104396257
 21
2831.740513776287
 31
0.0
  0
LINE
  5
123
330
20
100
AcDbEntity
  8
_0-0_
  6
Continuous
 62
     4
100
AcDbLine
 10
3499.348753671725
 20
2861.0849417983
 30
0.0
 11
3493.111402947192
 21
2831.740513776287
 31
0.0
  0
LINE
  5
124
330
20
100
AcDbEntity
  8
_0-0_
  6
Continuous
 62
     4
100
AcDbLine
 10
3359.348753671724
 20
2961.0849417983
 30
0.0
 11
3365.586104396257
 21
2931.740513776287
 31
0.0
  0
LINE
  5
125
330
20
100
AcDbEntity
  8
_0-0_
  6
Continuous
 62
     4
100
AcDbLine
 10
3359.348753671724
 20
2961.0849417983
 30
0.0
 11
3353.111402947192
 21
2931.740513776287
 31
0.0
  0
LINE
  5
126
330
20
100
AcDbEntity
  8
_0-0_
  6
Continuous
 62
     4
100
AcDbLine
 10
3359.348753671724
 20
1561.084794512692
 30
0.0
 11
3353.111402947192
 21
1590.429222534706
 31
0.0
  0
LINE
  5
127
330
20
100
AcDbEntity
  8
_0-0_
  6
Continuous
 62
     4
100
AcDbLine
 10
3359.348753671724
 20
1561.084794512692
 30
0.0
 11
3365.586104396257
 21
1590.429222534706
 31
0.0
  0
LINE
  5
128
330
20
100
AcDbEntity
  8
_0-0_
  6
Continuous
 62
     4
100
AcDbLine
 10
3499.348753671725
 20
1661.084794512692
 30
0.0
 11
3505.586104396257
 21
1631.740366490677
 31
0.0
  0
LINE
  5
129
330
20
100
AcDbEntity
  8
_0-0_
  6
Continuous
 62
     4
100
AcDbLine
 10
3499.348753671725
 20
1661.084794512692
 30
0.0
 11
3493.111402947192
 21
1631.740366490677
 31
0.0
  0
LINE
  5
12A
330
20
100
AcDbEntity
  8
_0-0_
  6
Continuous
 62
     4
100
AcDbLine
 10
3499.348753671725
 20
1561.084794512692
 30
0.0
 11
3493.111402947192
 21
1590.429222534706
 31
0.0
  0
LINE
  5
12B
330
20
100
AcDbEntity
  8
_0-0_
  6
Continuous
 62
     4
100
AcDbLine
 10
3499.348753671725
 20
1561.084794512692
 30
0.0
 11
3505.586104396257
 21
1590.429222534706
 31
0.0
  0
LINE
  5
12C
330
20
100
AcDbEntity
  8
_0-0_
  6
Continuous
 62
     4
100
AcDbLine
 10
3499.348753671725
 20
1661.084794512692
 30
0.0
 11
3493.111402947192
 21
1690.429222534705
 31
0.0
  0
LINE
  5
12D
330
20
100
AcDbEntity
  8
_0-0_
  6
Continuous
 62
     4
100
AcDbLine
 10
3499.348753671725
 20
1661.084794512692
 30
0.0
 11
3505.586104396257
 21
1690.429222534705
 31
0.0
  0
LINE
  5
12E
330
20
100
AcDbEntity
  8
_0-0_
  6
Continuous
 62
     4
100
AcDbLine
 10
3639.348753671725
 20
1661.084794512692
 30
0.0
 11
3645.586104396257
 21
1631.740366490677
 31
0.0
  0
LINE
  5
12F
330
20
100
AcDbEntity
  8
_0-0_
  6
Continuous
 62
     4
100
AcDbLine
 10
3639.348753671725
 20
1661.084794512692
 30
0.0
 11
3633.111402947192
 21
1631.740366490677
 31
0.0
  0
LINE
  5
130
330
20
100
AcDbEntity
  8
_0-0_
  6
Continuous
 62
     4
100
AcDbLine
 10
3639.348753671725
 20
1711.084794512691
 30
0.0
 11
3633.111402947192
 21
1740.429222534706
 31
0.0
  0
LINE
  5
131
330
20
100
AcDbEntity
  8
_0-0_
  6
Continuous
 62
     4
100
AcDbLine
 10
3639.348753671725
 20
1711.084794512691
 30
0.0
 11
3645.586104396257
 21
1740.429222534706
 31
0.0
  0
LINE
  5
132
330
20
100
AcDbEntity
  8
_0-0_
  6
Continuous
 62
     4
100
AcDbLine
 10
3639.348753671725
 20
2061.084868155496
 30
0.0
 11
3633.111402947192
 21
2090.42929617751
 31
0.0
  0
LINE
  5
133
330
20
100
AcDbEntity
  8
_0-0_
  6
Continuous
 62
     4
100
AcDbLine
 10
3639.348753671725
 20
2061.084868155496
 30
0.0
 11
3645.586104396257
 21
2090.42929617751
 31
0.0
  0
LINE
  5
134
330
20
100
AcDbEntity
  8
_0-0_
  6
Continuous
 62
     4
100
AcDbLine
 10
3639.348753671725
 20
2261.084868155496
 30
0.0
 11
3645.586104396257
 21
2231.740440133481
 31
0.0
  0
LINE
  5
135
330
20
100
AcDbEntity
  8
_0-0_
  6
Continuous
 62
     4
100
AcDbLine
 10
3639.348753671725
 20
2261.084868155496
 30
0.0
 11
3633.111402947192
 21
2231.740440133481
 31
0.0
  0
LINE
  5
136
330
20
100
AcDbEntity
  8
_0-0_
  6
Continuous
 62
     4
100
AcDbLine
 10
3639.348753671725
 20
2261.084868155496
 30
0.0
 11
3633.111402947192
 21
2290.42929617751
 31
0.0
  0
LINE
  5
137
330
20
100
AcDbEntity
  8
_0-0_
  6
Continuous
 62
     4
100
AcDbLine
 10
3639.348753671725
 20
2261.084868155496
 30
0.0
 11
3645.586104396257
 21
2290.42929617751
 31
0.0
  0
LINE
  5
138
330
20
100
AcDbEntity
  8
_0-0_
  6
Continuous
 62
     4
100
AcDbLine
 10
3639.348753671725
 20
2461.084868155496
 30
0.0
 11
3645.586104396257
 21
2431.740440133482
 31
0.0
  0
LINE
  5
139
330
20
100
AcDbEntity
  8
_0-0_
  6
Continuous
 62
     4
100
AcDbLine
 10
3639.348753671725
 20
2461.084868155496
 30
0.0
 11
3633.111402947192
 21
2431.740440133482
 31
0.0
  0
LINE
  5
13A
330
20
100
AcDbEntity
  8
_0-0_
  6
Continuous
 62
     4
100
AcDbLine
 10
3889.348753671725
 20
3251.0849417983
 30
0.0
 11
3918.693181693739
 21
3257.322292522834
 31
0.0
  0
LINE
  5
13B
330
20
100
AcDbEntity
  8
_0-0_
  6
Continuous
 62
     4
100
AcDbLine
 10
3889.348753671725
 20
3251.0849417983
 30
0.0
 11
3918.693181693739
 21
3244.847591073768
 31
0.0
  0
LINE
  5
13C
330
20
100
AcDbEntity
  8
_0-0_
  6
Continuous
 62
     4
100
AcDbLine
 10
5089.351350611576
 20
3251.0849417983
 30
0.0
 11
5060.006922589563
 21
3244.847591073768
 31
0.0
  0
LINE
  5
13D
330
20
100
AcDbEntity
  8
_0-0_
  6
Continuous
 62
     4
100
AcDbLine
 10
5089.351350611576
 20
3251.0849417983
 30
0.0
 11
5060.006922589563
 21
3257.322292522834
 31
0.0
  0
TEXT
  5
13E
330
20
100
AcDbEntity
  8
_0-0_
 62
     7
100
AcDbText
 10
3349.044662328373
 20
2192.802934953007
 30
0.0
 40
60.0
  1
1400
 50
90.0
100
AcDbText
  0
TEXT
  5
13F
330
20
100
AcDbEntity
  8
_0-0_
 62
     7
100
AcDbText
 10
3489.005874392186
 20
2190.924260965573
 30
0.0
 40
60.0
  1
1200
 50
90.0
100
AcDbText
  0
TEXT
  5
140
330
20
100
AcDbEntity
  8
_0-0_
 62
     7
100
AcDbText
 10
3628.027749462282
 20
2091.695707014489
 30
0.0
 40
60.0
  1
200
 50
90.0
100
AcDbText
  0
TEXT
  5
141
330
20
100
AcDbEntity
  8
_0-0_
 62
     7
100
AcDbText
 10
3628.967086456
 20
2290.835149682465
 30
0.0
 40
60.0
  1
200
 50
90.0
100
AcDbText
  0
TEXT
  5
142
330
20
100
AcDbEntity
  8
_0-0_
 62
     7
100
AcDbText
 10
3487.996463401565
 20
2823.009531172798
 30
0.0
 40
60.0
  1
100
 50
90.0
100
AcDbText
  0
TEXT
  5
143
330
20
100
AcDbEntity
  8
_0-0_
 62
     7
100
AcDbText
 10
3627.578930446898
 20
2756.634651738654
 30
0.0
 40
60.0
  1
50
 50
90.0
100
AcDbText
  0
TEXT
  5
144
330
20
100
AcDbEntity
  8
_0-0_
 62
     7
100
AcDbText
 10
3486.919715857207
 20
1586.232653372365
 30
0.0
 40
60.0
  1
100
 50
90.0
100
AcDbText
  0
TEXT
  5
145
330
20
100
AcDbEntity
  8
_0-0_
 62
     7
100
AcDbText
 10
3628.358799294952
 20
1684.152018829265
 30
0.0
 40
60.0
  1
50
 50
90.0
100
AcDbText
  0
LINE
  5
146
330
20
100
AcDbEntity
  8
_0-0_
  6
Continuous
 62
     4
100
AcDbLine
 10
4879.350055676506
 20
1541.084794512691
 30
0.0
 11
4879.350055676506
 21
1401.084794512691
 31
0.0
  0
LINE
  5
147
330
20
100
AcDbEntity
  8
_0-0_
  6
Continuous
 62
     4
100
AcDbLine
 10
4099.350048606796
 20
1411.084794512692
 30
0.0
 11
4879.350055676506
 21
1411.084794512692
 31
0.0
  0
LINE
  5
148
330
20
100
AcDbEntity
  8
_0-0_
  6
Continuous
 62
     4
100
AcDbLine
 10
4099.350048606796
 20
1541.084794512691
 30
0.0
 11
4099.350048606796
 21
1401.084794512691
 31
0.0
  0
TEXT
  5
149
330
20
100
AcDbEntity
  8
_0-0_
 62
     7
100
AcDbText
 10
4410.74130779152
 20
1421.596276704383
 30
0.0
 40
60.0
  1
780
100
AcDbText
  0
LINE
  5
14A
330
20
100
AcDbEntity
  8
_0-0_
  6
Continuous
 62
     4
100
AcDbLine
 10
4879.350055676506
 20
1411.084794512692
 30
0.0
 11
4850.005627654491
 21
1404.847443788159
 31
0.0
  0
LINE
  5
14B
330
20
100
AcDbEntity
  8
_0-0_
  6
Continuous
 62
     4
100
AcDbLine
 10
4879.350055676506
 20
1411.084794512692
 30
0.0
 11
4850.005627654491
 21
1417.322145237224
 31
0.0
  0
LINE
  5
14C
330
20
100
AcDbEntity
  8
_0-0_
  6
Continuous
 62
     4
100
AcDbLine
 10
4099.350048606796
 20
1411.084794512692
 30
0.0
 11
4128.694476628811
 21
1417.322145237224
 31
0.0
  0
LINE
  5
14D
330
20
100
AcDbEntity
  8
_0-0_
  6
Continuous
 62
     4
100
AcDbLine
 10
4099.350048606796
 20
1411.084794512692
 30
0.0
 11
4128.694476628811
 21
1404.847443788159
 31
0.0
  0
LINE
  5
14E
330
20
100
AcDbEntity
  8
_0-0_
  6
Continuous
 62
     4
100
AcDbLine
 10
4279.349592610551
 20
1638.154083355825
 30
0.0
 11
3993.485577191965
 21
1411.084794512692
 31
0.0
  0
LINE
  5
14F
330
20
100
AcDbEntity
  8
_0-0_
  6
Continuous
 62
     4
100
AcDbLine
 10
4279.349592610551
 20
1638.154083355825
 30
0.0
 11
4260.251508888996
 21
1615.018327518498
 31
0.0
  0
LINE
  5
150
330
20
100
AcDbEntity
  8
_0-0_
  6
Continuous
 62
     4
100
AcDbLine
 10
4279.349592610551
 20
1638.154083355825
 30
0.0
 11
4252.492465312751
 21
1624.786409163592
 31
0.0
  0
TEXT
  5
151
330
20
100
AcDbEntity
  8
_0-0_
 62
     7
100
AcDbText
 10
3460.199068551101
 20
1419.526561404999
 30
0.0
 40
60.0
  1
インサート M12
100
AcDbText
  0
LINE
  5
152
330
20
100
AcDbEntity
  8
_0-0_
  6
Continuous
 62
     4
100
AcDbLine
 10
3993.485577191965
 20
1411.084794512692
 30
0.0
 11
3467.118169848585
 21
1411.084794512692
 31
0.0
  0
LINE
  5
153
330
20
100
AcDbEntity
  8
_0-0_
  6
DASHED1
 62
   136
100
AcDbLine
 10
1234.040041528162
 20
2675.814903766031
 30
0.0
 11
1234.040041528162
 21
2925.815067547628
 31
0.0
  0
LINE
  5
154
330
20
100
AcDbEntity
  8
_0-0_
  6
DASHED1
 62
   136
100
AcDbLine
 10
1834.038054939872
 20
2675.814903766031
 30
0.0
 11
1834.038054939872
 21
2925.815067547628
 31
0.0
  0
LINE
  5
155
330
20
100
AcDbEntity
  8
_0-0_
  6
DASHED1
 62
   136
100
AcDbLine
 10
1194.03290082728
 20
2074.967735208138
 30
0.0
 11
1184.200688592725
 21
2675.814903766031
 31
0.0
  0
LINE
  5
156
330
20
100
AcDbEntity
  8
_0-0_
  6
DASHED1
 62
   136
100
AcDbLine
 10
1143.040198181135
 20
2125.805059785087
 30
0.0
 11
1134.03981853775
 21
2675.814903766031
 31
0.0
  0
LINE
  5
157
330
20
100
AcDbEntity
  8
_0-0_
  6
DASHED1
 62
   136
100
AcDbLine
 10
1069.039992923911
 20
2485.814646310787
 30
0.0
 11
1069.039992923911
 21
2135.814696977036
 31
0.0
  0
LINE
  5
158
330
20
100
AcDbEntity
  8
_0-0_
  6
DASHED1
 62
   136
100
AcDbLine
 10
1069.039992923911
 20
2485.814646310787
 30
0.0
 11
1034.040032985597
 21
2495.81448488576
 31
0.0
  0
LINE
  5
159
330
20
100
AcDbEntity
  8
_0-0_
  6
DASHED1
 62
   136
100
AcDbLine
 10
1034.040032985597
 20
2125.814508451457
 30
0.0
 11
1069.039992923911
 21
2135.814696977036
 31
0.0
  0
LINE
  5
15A
330
20
100
AcDbEntity
  8
_0-0_
  6
DASHED1
 62
   136
100
AcDbLine
 10
1143.040198181135
 20
2125.805059785087
 30
0.0
 11
1194.03290082728
 21
2074.967735208138
 31
0.0
  0
LINE
  5
15B
330
20
100
AcDbEntity
  8
_0-0_
  6
DASHED1
 62
   136
100
AcDbLine
 10
1143.040198181135
 20
2125.805059785087
 30
0.0
 11
1334.038602253194
 21
2125.805059785087
 31
0.0
  0
LINE
  5
15C
330
20
100
AcDbEntity
  8
_0-0_
  6
DASHED1
 62
   136
100
AcDbLine
 10
1194.03290082728
 20
2074.967735208138
 30
0.0
 11
1734.038444363022
 21
2065.814777100408
 31
0.0
  0
LINE
  5
15D
330
20
100
AcDbEntity
  8
_0-0_
  6
DASHED1
 62
   136
100
AcDbLine
 10
1834.038579865781
 20
2035.814911424883
 30
0.0
 11
1634.038658810868
 21
2035.814911424883
 31
0.0
  0
LINE
  5
15E
330
20
100
AcDbEntity
  8
_0-0_
  6
DASHED1
 62
   136
100
AcDbLine
 10
1624.038470285288
 20
2067.679313930765
 30
0.0
 11
1634.038658810868
 21
2035.814911424883
 31
0.0
  0
LINE
  5
15F
330
20
100
AcDbEntity
  8
_0-0_
  6
DASHED1
 62
   136
100
AcDbLine
 10
2274.045475188839
 20
2074.967735208138
 30
0.0
 11
1734.038444363022
 21
2065.814777100408
 31
0.0
  0
LINE
  5
160
330
20
100
AcDbEntity
  8
_0-0_
  6
DASHED1
 62
   136
100
AcDbLine
 10
1834.038579865781
 20
2035.814911424883
 30
0.0
 11
1844.038418440754
 21
2067.679313930765
 31
0.0
  0
LINE
  5
161
330
20
100
AcDbEntity
  8
_0-0_
  6
DASHED1
 62
   136
100
AcDbLine
 10
2274.045475188839
 20
2074.967735208138
 30
0.0
 11
2325.038177834985
 21
2125.805059785087
 31
0.0
  0
LINE
  5
162
330
20
100
AcDbEntity
  8
_0-0_
  6
DASHED1
 62
   136
100
AcDbLine
 10
2134.038636423456
 20
2125.805059785087
 30
0.0
 11
2325.038177834985
 21
2125.805059785087
 31
0.0
  0
LINE
  5
163
330
20
100
AcDbEntity
  8
_0-0_
  6
DASHED1
 62
   136
100
AcDbLine
 10
2274.045475188839
 20
2074.967735208138
 30
0.0
 11
2283.877337472789
 21
2675.814903766031
 31
0.0
  0
LINE
  5
164
330
20
100
AcDbEntity
  8
_0-0_
  6
DASHED1
 62
   136
100
AcDbLine
 10
2325.038177834985
 20
2125.805059785087
 30
0.0
 11
2334.038207527763
 21
2675.814903766031
 31
0.0
  0
LINE
  5
165
330
20
100
AcDbEntity
  8
_0-0_
  6
DASHED1
 62
   136
100
AcDbLine
 10
2399.036633339177
 20
2485.814646310787
 30
0.0
 11
2399.036633339177
 21
2135.814696977036
 31
0.0
  0
LINE
  5
166
330
20
100
AcDbEntity
  8
_0-0_
  6
DASHED1
 62
   136
100
AcDbLine
 10
2434.036593277491
 20
2125.814508451457
 30
0.0
 11
2399.036633339177
 21
2135.814696977036
 31
0.0
  0
LINE
  5
167
330
20
100
AcDbEntity
  8
_0-0_
  6
DASHED1
 62
   136
100
AcDbLine
 10
2399.036633339177
 20
2485.814646310787
 30
0.0
 11
2434.036593277491
 21
2495.81448488576
 31
0.0
  0
LINE
  5
168
330
20
100
AcDbEntity
  8
_0-0_
  6
Continuous
 62
   136
100
AcDbLine
 10
1334.038602253194
 20
2495.81448488576
 30
0.0
 11
1334.038602253194
 21
2125.805059785087
 31
0.0
  0
LINE
  5
169
330
20
100
AcDbEntity
  8
_0-0_
  6
Continuous
 62
   136
100
AcDbLine
 10
1344.038440828167
 20
2485.814646310787
 30
0.0
 11
1344.038440828167
 21
2135.814696977036
 31
0.0
  0
LINE
  5
16A
330
20
100
AcDbEntity
  8
_0-0_
  6
Continuous
 62
   136
100
AcDbLine
 10
1344.038440828167
 20
2485.814646310787
 30
0.0
 11
2124.038447897877
 21
2485.814646310787
 31
0.0
  0
LINE
  5
16B
330
20
100
AcDbEntity
  8
_0-0_
  6
Continuous
 62
   136
100
AcDbLine
 10
1334.038602253194
 20
2495.81448488576
 30
0.0
 11
2134.038636423456
 21
2495.81448488576
 31
0.0
  0
LINE
  5
16C
330
20
100
AcDbEntity
  8
_0-0_
  6
Continuous
 62
   136
100
AcDbLine
 10
2124.038447897877
 20
2485.814646310787
 30
0.0
 11
2124.038447897877
 21
2135.814696977036
 31
0.0
  0
LINE
  5
16D
330
20
100
AcDbEntity
  8
_0-0_
  6
Continuous
 62
   136
100
AcDbLine
 10
2134.038636423456
 20
2495.81448488576
 30
0.0
 11
2134.038636423456
 21
2125.805059785087
 31
0.0
  0
LINE
  5
16E
330
20
100
AcDbEntity
  8
_0-0_
  6
Continuous
 62
   136
100
AcDbLine
 10
1344.038440828167
 20
2135.814696977036
 30
0.0
 11
2124.038447897877
 21
2135.814696977036
 31
0.0
  0
LINE
  5
16F
330
20
100
AcDbEntity
  8
_0-0_
  6
Continuous
 62
   136
100
AcDbLine
 10
1334.038602253194
 20
2125.805059785087
 30
0.0
 11
2134.038636423456
 21
2125.805059785087
 31
0.0
  0
LINE
  5
170
330
20
100
AcDbEntity
  8
_0-0_
  6
Continuous
 62
   136
100
AcDbLine
 10
1334.038602253194
 20
2495.81448488576
 30
0.0
 11
1344.038440828167
 21
2485.814646310787
 31
0.0
  0
LINE
  5
171
330
20
100
AcDbEntity
  8
_0-0_
  6
Continuous
 62
   136
100
AcDbLine
 10
1344.038440828167
 20
2135.814696977036
 30
0.0
 11
1334.038602253194
 21
2125.805059785087
 31
0.0
  0
LINE
  5
172
330
20
100
AcDbEntity
  8
_0-0_
  6
Continuous
 62
   136
100
AcDbLine
 10
2124.038447897877
 20
2135.814696977036
 30
0.0
 11
2134.038636423456
 21
2125.805059785087
 31
0.0
  0
LINE
  5
173
330
20
100
AcDbEntity
  8
_0-0_
  6
Continuous
 62
   136
100
AcDbLine
 10
2134.038636423456
 20
2495.81448488576
 30
0.0
 11
2124.038447897877
 21
2485.814646310787
 31
0.0
  0
LINE
  5
174
330
20
100
AcDbEntity
  8
_0-0_
  6
DASHED1
 62
     6
100
AcDbLine
 10
1099.040208550043
 20
2565.814929688299
 30
0.0
 11
1135.839876968897
 21
2565.814929688299
 31
0.0
  0
LINE
  5
175
330
20
100
AcDbEntity
  8
_0-0_
  6
DASHED1
 62
     6
100
AcDbLine
 10
1136.167168273438
 20
2545.814902587746
 30
0.0
 11
1099.040208550043
 21
2545.814902587746
 31
0.0
  0
LINE
  5
176
330
20
100
AcDbEntity
  8
_0-0_
  6
DASHED1
 62
     6
100
AcDbLine
 10
1099.040208550043
 20
2565.814929688299
 30
0.0
 11
1099.040208550043
 21
2545.814902587746
 31
0.0
  0
CIRCLE
  5
177
330
20
100
AcDbEntity
  8
_0-0_
  6
DASHED1
 62
     6
100
AcDbCircle
 10
1534.038523308107
 20
2555.814741162719
 30
0.0
 40
9.999999880330442
  0
CIRCLE
  5
178
330
20
100
AcDbEntity
  8
_0-0_
  6
DASHED1
 62
     6
100
AcDbCircle
 10
1734.038444363022
 20
2555.814741162719
 30
0.0
 40
9.999999880330442
  0
CIRCLE
  5
179
330
20
100
AcDbEntity
  8
_0-0_
  6
DASHED1
 62
     6
100
AcDbCircle
 10
1934.038365417935
 20
2555.814741162719
 30
0.0
 40
9.999999880330442
  0
LINE
  5
17A
330
20
100
AcDbEntity
  8
_0-0_
  6
DASHED1
 62
     6
100
AcDbLine
 10
2331.911032767379
 20
2545.814902587746
 30
0.0
 11
2369.036767663653
 21
2545.814902587746
 31
0.0
  0
LINE
  5
17B
330
20
100
AcDbEntity
  8
_0-0_
  6
DASHED1
 62
     6
100
AcDbLine
 10
2369.036767663653
 20
2565.814929688299
 30
0.0
 11
2332.238236584268
 21
2565.814929688299
 31
0.0
  0
LINE
  5
17C
330
20
100
AcDbEntity
  8
_0-0_
  6
DASHED1
 62
     6
100
AcDbLine
 10
2369.036767663653
 20
2565.814929688299
 30
0.0
 11
2369.036767663653
 21
2545.814902587746
 31
0.0
  0
LINE
  5
17D
330
20
100
AcDbEntity
  8
_0-0_
  6
Continuous
 62
     7
100
AcDbLine
 10
1954.038217543185
 20
2925.815067547628
 30
0.0
 11
1114.040053900153
 21
2925.815067547628
 31
0.0
  0
LINE
  5
17E
330
20
100
AcDbEntity
  8
_0-0_
  6
Continuous
 62
     7
100
AcDbLine
 10
1104.040040349878
 20
2915.815228972655
 30
0.0
 11
1099.040033574739
 21
2825.814932044869
 31
0.0
  0
ARC
  5
17F
330
20
100
AcDbEntity
  8
_0-0_
  6
Continuous
 62
     7
100
AcDbCircle
 10
1114.040053900153
 20
2915.815228972655
 30
0.0
 40
10.00000056382772
100
AcDbArc
 50
90.0
 51
180.0
  0
LINE
  5
180
330
20
100
AcDbEntity
  8
_0-0_
  6
Continuous
 62
     7
100
AcDbLine
 10
2424.038154504944
 20
2825.814932044869
 30
0.0
 11
1044.04048397413
 21
2825.814932044869
 31
0.0
  0
LINE
  5
181
330
20
100
AcDbEntity
  8
_0-0_
  6
Continuous
 62
     7
100
AcDbLine
 10
1034.039245596732
 20
2815.814743519289
 30
0.0
 11
1044.038734221099
 21
2825.814932044869
 31
0.0
  0
LINE
  5
182
330
20
100
AcDbEntity
  8
_0-0_
  6
Continuous
 62
     7
100
AcDbLine
 10
1034.040032985597
 20
2815.814743519289
 30
0.0
 11
1034.040032985597
 21
1985.814318747593
 31
0.0
  0
LINE
  5
183
330
20
100
AcDbEntity
  8
_0-0_
  6
Continuous
 62
     7
100
AcDbLine
 10
1034.040032985597
 20
2675.814903766031
 30
0.0
 11
2434.037993079916
 21
2675.814903766031
 31
0.0
  0
LINE
  5
184
330
20
100
AcDbEntity
  8
_0-0_
  6
Continuous
 62
     7
100
AcDbLine
 10
2434.037993079916
 20
2815.814743519289
 30
0.0
 11
2434.037993079916
 21
1985.814318747593
 31
0.0
  0
LINE
  5
185
330
20
100
AcDbEntity
  8
_0-0_
  6
Continuous
 62
     7
100
AcDbLine
 10
2424.038154504944
 20
2825.814932044869
 30
0.0
 11
2434.037993079916
 21
2815.814743519289
 31
0.0
  0
LINE
  5
186
330
20
100
AcDbEntity
  8
_0-0_
  6
Continuous
 62
     7
100
AcDbLine
 10
1964.03823109346
 20
2915.815228972655
 30
0.0
 11
1969.038150380947
 21
2825.814932044869
 31
0.0
  0
ARC
  5
187
330
20
100
AcDbEntity
  8
_0-0_
  6
Continuous
 62
     7
100
AcDbCircle
 10
1954.038217543185
 20
2915.815228972655
 30
0.0
 40
10.00000056382772
100
AcDbArc
 50
0.0
 51
90.0
  0
LINE
  5
188
330
20
100
AcDbEntity
  8
_0-0_
  6
Continuous
 62
     7
100
AcDbLine
 10
2424.036404751913
 20
1975.814830123226
 30
0.0
 11
1044.038821708751
 21
1975.814830123226
 31
0.0
  0
LINE
  5
189
330
20
100
AcDbEntity
  8
_0-0_
  6
Continuous
 62
     7
100
AcDbLine
 10
1034.039333084384
 20
1985.814318747593
 30
0.0
 11
1044.038821708751
 21
1975.814830123226
 31
0.0
  0
LINE
  5
18A
330
20
100
AcDbEntity
  8
_0-0_
  6
Continuous
 62
     7
100
AcDbLine
 10
2424.036404751913
 20
1975.814830123226
 30
0.0
 11
2434.036593277491
 21
1985.814318747593
 31
0.0
  0
LINE
  5
18B
330
20
100
AcDbEntity
  8
_0-0_
  6
Continuous
 62
     4
100
AcDbLine
 10
2454.037993079916
 20
2675.814903766031
 30
0.0
 11
2594.037993079917
 21
2675.814903766031
 31
0.0
  0
LINE
  5
18C
330
20
100
AcDbEntity
  8
_0-0_
  6
Continuous
 62
     4
100
AcDbLine
 10
2584.037993079917
 20
2675.814903766031
 30
0.0
 11
2584.037993079917
 21
2555.814903766031
 31
0.0
  0
LINE
  5
18D
330
20
100
AcDbEntity
  8
_0-0_
  6
Continuous
 62
     4
100
AcDbLine
 10
2454.037993079916
 20
2555.814903766031
 30
0.0
 11
2594.037993079917
 21
2555.814903766031
 31
0.0
  0
LINE
  5
18E
330
20
100
AcDbEntity
  8
_0-0_
  6
Continuous
 62
     4
100
AcDbLine
 10
2584.037993079917
 20
2675.814903766031
 30
0.0
 11
2590.275343804449
 21
2646.470475744017
 31
0.0
  0
LINE
  5
18F
330
20
100
AcDbEntity
  8
_0-0_
  6
Continuous
 62
     4
100
AcDbLine
 10
2584.037993079917
 20
2675.814903766031
 30
0.0
 11
2577.800642355383
 21
2646.470475744017
 31
0.0
  0
LINE
  5
190
330
20
100
AcDbEntity
  8
_0-0_
  6
Continuous
 62
     4
100
AcDbLine
 10
2584.037993079917
 20
2555.814903766031
 30
0.0
 11
2577.800642355383
 21
2585.159331788045
 31
0.0
  0
LINE
  5
191
330
20
100
AcDbEntity
  8
_0-0_
  6
Continuous
 62
     4
100
AcDbLine
 10
2584.037993079917
 20
2555.814903766031
 30
0.0
 11
2590.275343804449
 21
2585.159331788045
 31
0.0
  0
TEXT
  5
192
330
20
100
AcDbEntity
  8
_0-0_
 62
     7
100
AcDbText
 10
2575.866743697591
 20
2564.76589608559
 30
0.0
 40
60.0
  1
120
 50
90.0
100
AcDbText
  0
TEXT
  5
193
330
20
100
AcDbEntity
  8
_0-0_
 62
     7
100
AcDbText
 10
2701.247069954807
 20
2290.552187905571
 30
0.0
 40
70.0
  1
B1-600
 41
0.6400000000000001
100
AcDbText
  0
TEXT
  5
194
330
20
100
AcDbEntity
  8
_0-0_
 62
     7
100
AcDbText
 10
2696.152289520065
 20
2841.545240764712
 30
0.0
 40
70.0
  1
CR-600
 41
0.6400000000000001
100
AcDbText
  0
TEXT
  5
195
330
20
100
AcDbEntity
  8
_0-0_
 62
     7
100
AcDbText
 10
2721.999807923755
 20
2716.054606136857
 30
0.0
 40
70.0
  1
BS
100
AcDbText
  0
LINE
  5
196
330
20
100
AcDbEntity
  8
_0-0_
  6
Continuous
 62
     7
100
AcDbLine
 10
2694.037993079917
 20
2915.814999796248
 30
0.0
 11
2944.037993079917
 21
2915.814999796248
 31
0.0
  0
LINE
  5
197
330
20
100
AcDbEntity
  8
_0-0_
  6
Continuous
 62
     7
100
AcDbLine
 10
2694.037993079917
 20
2915.814999796248
 30
0.0
 11
2634.037993079918
 21
2875.814999796249
 31
0.0
  0
LINE
  5
198
330
20
100
AcDbEntity
  8
_0-0_
  6
Continuous
 62
     7
100
AcDbLine
 10
2634.037993079918
 20
2875.814999796249
 30
0.0
 11
2694.037993079917
 21
2835.814999796248
 31
0.0
  0
LINE
  5
199
330
20
100
AcDbEntity
  8
_0-0_
  6
Continuous
 62
     7
100
AcDbLine
 10
2694.037993079917
 20
2835.814999796248
 30
0.0
 11
2944.037993079917
 21
2835.814999796248
 31
0.0
  0
LINE
  5
19A
330
20
100
AcDbEntity
  8
_0-0_
  6
Continuous
 62
     7
100
AcDbLine
 10
2944.037993079917
 20
2915.814999796248
 30
0.0
 11
2944.037993079917
 21
2835.814999796248
 31
0.0
  0
LINE
  5
19B
330
20
100
AcDbEntity
  8
_0-0_
  6
Continuous
 62
     7
100
AcDbLine
 10
2694.037993079917
 20
2790.814917905449
 30
0.0
 11
2944.037993079917
 21
2790.814917905449
 31
0.0
  0
LINE
  5
19C
330
20
100
AcDbEntity
  8
_0-0_
  6
Continuous
 62
     7
100
AcDbLine
 10
2944.037993079917
 20
2790.814917905449
 30
0.0
 11
2944.037993079917
 21
2710.814917905449
 31
0.0
  0
LINE
  5
19D
330
20
100
AcDbEntity
  8
_0-0_
  6
Continuous
 62
     7
100
AcDbLine
 10
2694.037993079917
 20
2710.814917905449
 30
0.0
 11
2944.037993079917
 21
2710.814917905449
 31
0.0
  0
LINE
  5
19E
330
20
100
AcDbEntity
  8
_0-0_
  6
Continuous
 62
     7
100
AcDbLine
 10
2634.037993079918
 20
2750.814917905449
 30
0.0
 11
2694.037993079917
 21
2710.814917905449
 31
0.0
  0
LINE
  5
19F
330
20
100
AcDbEntity
  8
_0-0_
  6
Continuous
 62
     7
100
AcDbLine
 10
2694.037993079917
 20
2790.814917905449
 30
0.0
 11
2634.037993079918
 21
2750.814917905449
 31
0.0
  0
LINE
  5
1A0
330
20
100
AcDbEntity
  8
_0-0_
  6
Continuous
 62
     7
100
AcDbLine
 10
2694.037993079917
 20
2365.814866944629
 30
0.0
 11
2634.037993079918
 21
2325.814866944629
 31
0.0
  0
LINE
  5
1A1
330
20
100
AcDbEntity
  8
_0-0_
  6
Continuous
 62
     7
100
AcDbLine
 10
2634.037993079918
 20
2325.814866944629
 30
0.0
 11
2694.037993079917
 21
2285.814866944629
 31
0.0
  0
LINE
  5
1A2
330
20
100
AcDbEntity
  8
_0-0_
  6
Continuous
 62
     7
100
AcDbLine
 10
2694.037993079917
 20
2285.814866944629
 30
0.0
 11
2944.037993079917
 21
2285.814866944629
 31
0.0
  0
LINE
  5
1A3
330
20
100
AcDbEntity
  8
_0-0_
  6
Continuous
 62
     7
100
AcDbLine
 10
2944.037993079917
 20
2365.814866944629
 30
0.0
 11
2944.037993079917
 21
2285.814866944629
 31
0.0
  0
LINE
  5
1A4
330
20
100
AcDbEntity
  8
_0-0_
  6
Continuous
 62
     7
100
AcDbLine
 10
2694.037993079917
 20
2365.814866944629
 30
0.0
 11
2944.037993079917
 21
2365.814866944629
 31
0.0
  0
LINE
  5
1A5
330
20
100
AcDbEntity
  8
_0-0_
  6
Continuous
 62
     4
100
AcDbLine
 10
1969.038150380947
 20
3215.815067547628
 30
0.0
 11
1099.040033574739
 21
3215.815067547628
 31
0.0
  0
LINE
  5
1A6
330
20
100
AcDbEntity
  8
_0-0_
  6
Continuous
 62
     4
100
AcDbLine
 10
1099.040033574739
 20
2945.815067547628
 30
0.0
 11
1099.040033574739
 21
3225.815067547628
 31
0.0
  0
LINE
  5
1A7
330
20
100
AcDbEntity
  8
_0-0_
  6
Continuous
 62
     4
100
AcDbLine
 10
1969.038150380947
 20
2945.815067547628
 30
0.0
 11
1969.038150380947
 21
3225.815067547628
 31
0.0
  0
LINE
  5
1A8
330
20
100
AcDbEntity
  8
_0-0_
  6
Continuous
 62
     4
100
AcDbLine
 10
1234.040033574739
 20
2945.815067547628
 30
0.0
 11
1234.040033574739
 21
3085.815067547628
 31
0.0
  0
LINE
  5
1A9
330
20
100
AcDbEntity
  8
_0-0_
  6
Continuous
 62
     4
100
AcDbLine
 10
1834.038150380947
 20
2945.815067547628
 30
0.0
 11
1834.038150380947
 21
3085.815067547628
 31
0.0
  0
LINE
  5
1AA
330
20
100
AcDbEntity
  8
_0-0_
  6
Continuous
 62
     4
100
AcDbLine
 10
1969.038150380947
 20
3075.815067547628
 30
0.0
 11
1834.038150380947
 21
3075.815067547628
 31
0.0
  0
LINE
  5
1AB
330
20
100
AcDbEntity
  8
_0-0_
  6
Continuous
 62
     4
100
AcDbLine
 10
1234.040033574739
 20
3075.815067547628
 30
0.0
 11
1099.040033574739
 21
3075.815067547628
 31
0.0
  0
LINE
  5
1AC
330
20
100
AcDbEntity
  8
_0-0_
  6
Continuous
 62
     4
100
AcDbLine
 10
1834.038150380947
 20
3075.815067547628
 30
0.0
 11
1234.040033574739
 21
3075.815067547628
 31
0.0
  0
LINE
  5
1AD
330
20
100
AcDbEntity
  8
_0-0_
  6
Continuous
 62
     4
100
AcDbLine
 10
1969.038150380947
 20
3215.815067547628
 30
0.0
 11
1939.693722358933
 21
3209.577716823095
 31
0.0
  0
LINE
  5
1AE
330
20
100
AcDbEntity
  8
_0-0_
  6
Continuous
 62
     4
100
AcDbLine
 10
1969.038150380947
 20
3215.815067547628
 30
0.0
 11
1939.693722358933
 21
3222.052418272161
 31
0.0
  0
LINE
  5
1AF
330
20
100
AcDbEntity
  8
_0-0_
  6
Continuous
 62
     4
100
AcDbLine
 10
1099.040033574739
 20
3215.815067547628
 30
0.0
 11
1128.384461596753
 21
3222.052418272161
 31
0.0
  0
LINE
  5
1B0
330
20
100
AcDbEntity
  8
_0-0_
  6
Continuous
 62
     4
100
AcDbLine
 10
1099.040033574739
 20
3215.815067547628
 30
0.0
 11
1128.384461596753
 21
3209.577716823095
 31
0.0
  0
LINE
  5
1B1
330
20
100
AcDbEntity
  8
_0-0_
  6
Continuous
 62
     4
100
AcDbLine
 10
1099.040033574739
 20
3075.815067547628
 30
0.0
 11
1128.384461596753
 21
3082.05241827216
 31
0.0
  0
LINE
  5
1B2
330
20
100
AcDbEntity
  8
_0-0_
  6
Continuous
 62
     4
100
AcDbLine
 10
1099.040033574739
 20
3075.815067547628
 30
0.0
 11
1128.384461596753
 21
3069.577716823096
 31
0.0
  0
LINE
  5
1B3
330
20
100
AcDbEntity
  8
_0-0_
  6
Continuous
 62
     4
100
AcDbLine
 10
1234.040033574739
 20
3075.815067547628
 30
0.0
 11
1204.695605552725
 21
3069.577716823096
 31
0.0
  0
LINE
  5
1B4
330
20
100
AcDbEntity
  8
_0-0_
  6
Continuous
 62
     4
100
AcDbLine
 10
1234.040033574739
 20
3075.815067547628
 30
0.0
 11
1204.695605552725
 21
3082.05241827216
 31
0.0
  0
LINE
  5
1B5
330
20
100
AcDbEntity
  8
_0-0_
  6
Continuous
 62
     4
100
AcDbLine
 10
1234.040033574739
 20
3075.815067547628
 30
0.0
 11
1263.384461596753
 21
3082.05241827216
 31
0.0
  0
LINE
  5
1B6
330
20
100
AcDbEntity
  8
_0-0_
  6
Continuous
 62
     4
100
AcDbLine
 10
1234.040033574739
 20
3075.815067547628
 30
0.0
 11
1263.384461596753
 21
3069.577716823096
 31
0.0
  0
LINE
  5
1B7
330
20
100
AcDbEntity
  8
_0-0_
  6
Continuous
 62
     4
100
AcDbLine
 10
1834.038150380947
 20
3075.815067547628
 30
0.0
 11
1804.693722358933
 21
3069.577716823096
 31
0.0
  0
LINE
  5
1B8
330
20
100
AcDbEntity
  8
_0-0_
  6
Continuous
 62
     4
100
AcDbLine
 10
1834.038150380947
 20
3075.815067547628
 30
0.0
 11
1804.693722358933
 21
3082.05241827216
 31
0.0
  0
LINE
  5
1B9
330
20
100
AcDbEntity
  8
_0-0_
  6
Continuous
 62
     4
100
AcDbLine
 10
1834.038150380947
 20
3075.815067547628
 30
0.0
 11
1863.382578402961
 21
3082.05241827216
 31
0.0
  0
LINE
  5
1BA
330
20
100
AcDbEntity
  8
_0-0_
  6
Continuous
 62
     4
100
AcDbLine
 10
1834.038150380947
 20
3075.815067547628
 30
0.0
 11
1863.382578402961
 21
3069.577716823096
 31
0.0
  0
LINE
  5
1BB
330
20
100
AcDbEntity
  8
_0-0_
  6
Continuous
 62
     4
100
AcDbLine
 10
1969.038150380947
 20
3075.815067547628
 30
0.0
 11
1939.693722358933
 21
3069.577716823096
 31
0.0
  0
LINE
  5
1BC
330
20
100
AcDbEntity
  8
_0-0_
  6
Continuous
 62
     4
100
AcDbLine
 10
1969.038150380947
 20
3075.815067547628
 30
0.0
 11
1939.693722358933
 21
3082.05241827216
 31
0.0
  0
TEXT
  5
1BD
330
20
100
AcDbEntity
  8
_0-0_
 62
     7
100
AcDbText
 10
1413.862986929697
 20
3088.019483877029
 30
0.0
 40
60.0
  1
φ600
100
AcDbText
  0
TEXT
  5
1BE
330
20
100
AcDbEntity
  8
_0-0_
 62
     7
100
AcDbText
 10
1448.814149759648
 20
3226.023218270142
 30
0.0
 40
60.0
  1
φ870
100
AcDbText
  0
TEXT
  5
1BF
330
20
100
AcDbEntity
  8
_0-0_
 62
     7
100
AcDbText
 10
1818.076019697435
 20
3084.250928588109
 30
0.0
 40
60.0
  1
135
100
AcDbText
  0
TEXT
  5
1C0
330
20
100
AcDbEntity
  8
_0-0_
 62
     7
100
AcDbText
 10
1117.034727369488
 20
3085.606977771569
 30
0.0
 40
60.0
  1
135
100
AcDbText
  0
LINE
  5
1C1
330
20
100
AcDbEntity
  8
_0-0_
  6
Continuous
 62
     4
100
AcDbLine
 10
2434.037993079916
 20
1405.814830123226
 30
0.0
 11
1034.039333084384
 21
1405.814830123226
 31
0.0
  0
LINE
  5
1C2
330
20
100
AcDbEntity
  8
_0-0_
  6
Continuous
 62
     4
100
AcDbLine
 10
1034.039333084384
 20
1955.814830123226
 30
0.0
 11
1034.039333084384
 21
1395.814830123226
 31
0.0
  0
LINE
  5
1C3
330
20
100
AcDbEntity
  8
_0-0_
  6
Continuous
 62
     4
100
AcDbLine
 10
2434.037993079916
 20
1955.814830123226
 30
0.0
 11
2434.037993079916
 21
1395.814830123226
 31
0.0
  0
LINE
  5
1C4
330
20
100
AcDbEntity
  8
_0-0_
  6
Continuous
 62
     4
100
AcDbLine
 10
1624.038490775929
 20
1955.814830123226
 30
0.0
 11
1624.038490775929
 21
1815.814830123226
 31
0.0
  0
LINE
  5
1C5
330
20
100
AcDbEntity
  8
_0-0_
  6
Continuous
 62
     4
100
AcDbLine
 10
1634.038658810868
 20
1955.814830123226
 30
0.0
 11
1634.038658810868
 21
1815.814830123226
 31
0.0
  0
LINE
  5
1C6
330
20
100
AcDbEntity
  8
_0-0_
  6
Continuous
 62
     4
100
AcDbLine
 10
1834.038579865781
 20
1955.814830123226
 30
0.0
 11
1834.038579865781
 21
1815.814830123226
 31
0.0
  0
LINE
  5
1C7
330
20
100
AcDbEntity
  8
_0-0_
  6
Continuous
 62
     4
100
AcDbLine
 10
1844.038396330685
 20
1955.814830123226
 30
0.0
 11
1844.038396330685
 21
1815.814830123226
 31
0.0
  0
LINE
  5
1C8
330
20
100
AcDbEntity
  8
_0-0_
  6
Continuous
 62
     4
100
AcDbLine
 10
1344.038440828167
 20
1955.814830123226
 30
0.0
 11
1344.038440828167
 21
1675.814830123226
 31
0.0
  0
LINE
  5
1C9
330
20
100
AcDbEntity
  8
_0-0_
  6
Continuous
 62
     4
100
AcDbLine
 10
2124.038447897877
 20
1955.814830123226
 30
0.0
 11
2124.038447897877
 21
1675.814830123226
 31
0.0
  0
LINE
  5
1CA
330
20
100
AcDbEntity
  8
_0-0_
  6
Continuous
 62
     4
100
AcDbLine
 10
2124.038447897877
 20
1685.814830123226
 30
0.0
 11
1344.038440828167
 21
1685.814830123226
 31
0.0
  0
LINE
  5
1CB
330
20
100
AcDbEntity
  8
_0-0_
  6
Continuous
 62
     4
100
AcDbLine
 10
1624.038490775929
 20
1825.814830123226
 30
0.0
 11
1574.038490775929
 21
1825.814830123226
 31
0.0
  0
LINE
  5
1CC
330
20
100
AcDbEntity
  8
_0-0_
  6
Continuous
 62
     4
100
AcDbLine
 10
1894.038396330685
 20
1825.814830123226
 30
0.0
 11
1844.038396330685
 21
1825.814830123226
 31
0.0
  0
LINE
  5
1CD
330
20
100
AcDbEntity
  8
_0-0_
  6
Continuous
 62
     4
100
AcDbLine
 10
1834.038579865781
 20
1825.814830123226
 30
0.0
 11
1634.038658810868
 21
1825.814830123226
 31
0.0
  0
LINE
  5
1CE
330
20
100
AcDbEntity
  8
_0-0_
  6
Continuous
 62
     4
100
AcDbLine
 10
1634.038658810868
 20
1825.814830123226
 30
0.0
 11
1624.038490775929
 21
1825.814830123226
 31
0.0
  0
LINE
  5
1CF
330
20
100
AcDbEntity
  8
_0-0_
  6
Continuous
 62
     4
100
AcDbLine
 10
1844.038396330685
 20
1825.814830123226
 30
0.0
 11
1834.038579865781
 21
1825.814830123226
 31
0.0
  0
LINE
  5
1D0
330
20
100
AcDbEntity
  8
_0-0_
  6
Continuous
 62
     4
100
AcDbLine
 10
1134.039333084384
 20
1955.814830123226
 30
0.0
 11
1134.039333084384
 21
1535.814830123226
 31
0.0
  0
LINE
  5
1D1
330
20
100
AcDbEntity
  8
_0-0_
  6
Continuous
 62
     4
100
AcDbLine
 10
2334.037993079916
 20
1955.814830123226
 30
0.0
 11
2334.037993079916
 21
1535.814830123226
 31
0.0
  0
LINE
  5
1D2
330
20
100
AcDbEntity
  8
_0-0_
  6
Continuous
 62
     4
100
AcDbLine
 10
2434.037993079916
 20
1545.814830123226
 30
0.0
 11
2334.037993079916
 21
1545.814830123226
 31
0.0
  0
LINE
  5
1D3
330
20
100
AcDbEntity
  8
_0-0_
  6
Continuous
 62
     4
100
AcDbLine
 10
1134.039333084384
 20
1545.814830123226
 30
0.0
 11
1034.039333084384
 21
1545.814830123226
 31
0.0
  0
LINE
  5
1D4
330
20
100
AcDbEntity
  8
_0-0_
  6
Continuous
 62
     4
100
AcDbLine
 10
2334.037993079916
 20
1545.814830123226
 30
0.0
 11
1134.039333084384
 21
1545.814830123226
 31
0.0
  0
LINE
  5
1D5
330
20
100
AcDbEntity
  8
_0-0_
  6
Continuous
 62
     4
100
AcDbLine
 10
1634.038658810868
 20
1825.814830123226
 30
0.0
 11
1663.383086832882
 21
1832.052180847759
 31
0.0
  0
LINE
  5
1D6
330
20
100
AcDbEntity
  8
_0-0_
  6
Continuous
 62
     4
100
AcDbLine
 10
1634.038658810868
 20
1825.814830123226
 30
0.0
 11
1663.383086832882
 21
1819.577479398694
 31
0.0
  0
LINE
  5
1D7
330
20
100
AcDbEntity
  8
_0-0_
  6
Continuous
 62
     4
100
AcDbLine
 10
1834.038579865781
 20
1825.814830123226
 30
0.0
 11
1804.694151843768
 21
1819.577479398694
 31
0.0
  0
LINE
  5
1D8
330
20
100
AcDbEntity
  8
_0-0_
  6
Continuous
 62
     4
100
AcDbLine
 10
1834.038579865781
 20
1825.814830123226
 30
0.0
 11
1804.694151843768
 21
1832.052180847759
 31
0.0
  0
LINE
  5
1D9
330
20
100
AcDbEntity
  8
_0-0_
  6
Continuous
 62
     4
100
AcDbLine
 10
1844.038396330685
 20
1825.814830123226
 30
0.0
 11
1873.382824352699
 21
1832.052180847759
 31
0.0
  0
LINE
  5
1DA
330
20
100
AcDbEntity
  8
_0-0_
  6
Continuous
 62
     4
100
AcDbLine
 10
1844.038396330685
 20
1825.814830123226
 30
0.0
 11
1873.382824352699
 21
1819.577479398694
 31
0.0
  0
LINE
  5
1DB
330
20
100
AcDbEntity
  8
_0-0_
  6
Continuous
 62
     4
100
AcDbLine
 10
1624.038490775929
 20
1825.814830123226
 30
0.0
 11
1594.694062753914
 21
1819.577479398694
 31
0.0
  0
LINE
  5
1DC
330
20
100
AcDbEntity
  8
_0-0_
  6
Continuous
 62
     4
100
AcDbLine
 10
1624.038490775929
 20
1825.814830123226
 30
0.0
 11
1594.694062753914
 21
1832.052180847759
 31
0.0
  0
LINE
  5
1DD
330
20
100
AcDbEntity
  8
_0-0_
  6
Continuous
 62
     4
100
AcDbLine
 10
1344.038440828167
 20
1685.814830123226
 30
0.0
 11
1373.382868850181
 21
1692.052180847759
 31
0.0
  0
LINE
  5
1DE
330
20
100
AcDbEntity
  8
_0-0_
  6
Continuous
 62
     4
100
AcDbLine
 10
1344.038440828167
 20
1685.814830123226
 30
0.0
 11
1373.382868850181
 21
1679.577479398694
 31
0.0
  0
LINE
  5
1DF
330
20
100
AcDbEntity
  8
_0-0_
  6
Continuous
 62
     4
100
AcDbLine
 10
2124.038447897877
 20
1685.814830123226
 30
0.0
 11
2094.694019875862
 21
1679.577479398694
 31
0.0
  0
LINE
  5
1E0
330
20
100
AcDbEntity
  8
_0-0_
  6
Continuous
 62
     4
100
AcDbLine
 10
2124.038447897877
 20
1685.814830123226
 30
0.0
 11
2094.694019875862
 21
1692.052180847759
 31
0.0
  0
LINE
  5
1E1
330
20
100
AcDbEntity
  8
_0-0_
  6
Continuous
 62
     4
100
AcDbLine
 10
2434.037993079916
 20
1545.814830123226
 30
0.0
 11
2404.693565057903
 21
1539.577479398694
 31
0.0
  0
LINE
  5
1E2
330
20
100
AcDbEntity
  8
_0-0_
  6
Continuous
 62
     4
100
AcDbLine
 10
2434.037993079916
 20
1545.814830123226
 30
0.0
 11
2404.693565057903
 21
1552.052180847759
 31
0.0
  0
LINE
  5
1E3
330
20
100
AcDbEntity
  8
_0-0_
  6
Continuous
 62
     4
100
AcDbLine
 10
2334.037993079916
 20
1545.814830123226
 30
0.0
 11
2363.382421101931
 21
1552.052180847759
 31
0.0
  0
LINE
  5
1E4
330
20
100
AcDbEntity
  8
_0-0_
  6
Continuous
 62
     4
100
AcDbLine
 10
2334.037993079916
 20
1545.814830123226
 30
0.0
 11
2363.382421101931
 21
1539.577479398694
 31
0.0
  0
LINE
  5
1E5
330
20
100
AcDbEntity
  8
_0-0_
  6
Continuous
 62
     4
100
AcDbLine
 10
2334.037993079916
 20
1545.814830123226
 30
0.0
 11
2304.693565057903
 21
1539.577479398694
 31
0.0
  0
LINE
  5
1E6
330
20
100
AcDbEntity
  8
_0-0_
  6
Continuous
 62
     4
100
AcDbLine
 10
2334.037993079916
 20
1545.814830123226
 30
0.0
 11
2304.693565057903
 21
1552.052180847759
 31
0.0
  0
LINE
  5
1E7
330
20
100
AcDbEntity
  8
_0-0_
  6
Continuous
 62
     4
100
AcDbLine
 10
1134.039333084384
 20
1545.814830123226
 30
0.0
 11
1163.383761106398
 21
1552.052180847759
 31
0.0
  0
LINE
  5
1E8
330
20
100
AcDbEntity
  8
_0-0_
  6
Continuous
 62
     4
100
AcDbLine
 10
1134.039333084384
 20
1545.814830123226
 30
0.0
 11
1163.383761106398
 21
1539.577479398694
 31
0.0
  0
LINE
  5
1E9
330
20
100
AcDbEntity
  8
_0-0_
  6
Continuous
 62
     4
100
AcDbLine
 10
1134.039333084384
 20
1545.814830123226
 30
0.0
 11
1104.69490506237
 21
1539.577479398694
 31
0.0
  0
LINE
  5
1EA
330
20
100
AcDbEntity
  8
_0-0_
  6
Continuous
 62
     4
100
AcDbLine
 10
1134.039333084384
 20
1545.814830123226
 30
0.0
 11
1104.69490506237
 21
1552.052180847759
 31
0.0
  0
LINE
  5
1EB
330
20
100
AcDbEntity
  8
_0-0_
  6
Continuous
 62
     4
100
AcDbLine
 10
1034.039333084384
 20
1545.814830123226
 30
0.0
 11
1063.383761106398
 21
1552.052180847759
 31
0.0
  0
LINE
  5
1EC
330
20
100
AcDbEntity
  8
_0-0_
  6
Continuous
 62
     4
100
AcDbLine
 10
1034.039333084384
 20
1545.814830123226
 30
0.0
 11
1063.383761106398
 21
1539.577479398694
 31
0.0
  0
LINE
  5
1ED
330
20
100
AcDbEntity
  8
_0-0_
  6
Continuous
 62
     4
100
AcDbLine
 10
1034.039333084384
 20
1405.814830123226
 30
0.0
 11
1063.383761106398
 21
1412.052180847759
 31
0.0
  0
LINE
  5
1EE
330
20
100
AcDbEntity
  8
_0-0_
  6
Continuous
 62
     4
100
AcDbLine
 10
1034.039333084384
 20
1405.814830123226
 30
0.0
 11
1063.383761106398
 21
1399.577479398694
 31
0.0
  0
LINE
  5
1EF
330
20
100
AcDbEntity
  8
_0-0_
  6
Continuous
 62
     4
100
AcDbLine
 10
2434.037993079916
 20
1405.814830123226
 30
0.0
 11
2404.693565057903
 21
1399.577479398694
 31
0.0
  0
LINE
  5
1F0
330
20
100
AcDbEntity
  8
_0-0_
  6
Continuous
 62
     4
100
AcDbLine
 10
2434.037993079916
 20
1405.814830123226
 30
0.0
 11
2404.693565057903
 21
1412.052180847759
 31
0.0
  0
TEXT
  5
1F1
330
20
100
AcDbEntity
  8
_0-0_
 62
     7
100
AcDbText
 10
1627.360801693993
 20
1834.193897647678
 30
0.0
 40
60.0
  1
φ200
 41
0.95
100
AcDbText
  0
TEXT
  5
1F2
330
20
100
AcDbEntity
  8
_0-0_
 62
     7
100
AcDbText
 10
1850.527267674332
 20
1833.111790454445
 30
0.0
 40
60.0
  1
10
100
AcDbText
  0
TEXT
  5
1F3
330
20
100
AcDbEntity
  8
_0-0_
 62
     7
100
AcDbText
 10
1544.331551323296
 20
1834.193897647678
 30
0.0
 40
60.0
  1
10
100
AcDbText
  0
TEXT
  5
1F4
330
20
100
AcDbEntity
  8
_0-0_
 62
     7
100
AcDbText
 10
1684.964867109776
 20
1696.766284107165
 30
0.0
 40
60.0
  1
780
100
AcDbText
  0
TEXT
  5
1F5
330
20
100
AcDbEntity
  8
_0-0_
 62
     7
100
AcDbText
 10
1666.849599207922
 20
1555.802166669189
 30
0.0
 40
60.0
  1
1200
100
AcDbText
  0
TEXT
  5
1F6
330
20
100
AcDbEntity
  8
_0-0_
 62
     7
100
AcDbText
 10
1666.849599207922
 20
1414.694211520428
 30
0.0
 40
60.0
  1
1400
100
AcDbText
  0
TEXT
  5
1F7
330
20
100
AcDbEntity
  8
_0-0_
 62
     7
100
AcDbText
 10
2334.073199298202
 20
1553.92128709281
 30
0.0
 40
60.0
  1
100
100
AcDbText
  0
TEXT
  5
1F8
330
20
100
AcDbEntity
  8
_0-0_
 62
     7
100
AcDbText
 10
1034.394493907568
 20
1553.422626713429
 30
0.0
 40
60.0
  1
100
100
AcDbText
  0
LINE
  5
1F9
330
20
100
AcDbEntity
  8
_0-0_
  6
Continuous
 62
     4
100
AcDbLine
 10
604.040032985597
 20
2925.815229536483
 30
0.0
 11
604.040032985597
 21
1975.814830123226
 31
0.0
  0
LINE
  5
1FA
330
20
100
AcDbEntity
  8
_0-0_
  6
Continuous
 62
     4
100
AcDbLine
 10
1014.040032985597
 20
1975.814830123226
 30
0.0
 11
594.040032985597
 21
1975.814830123226
 31
0.0
  0
LINE
  5
1FB
330
20
100
AcDbEntity
  8
_0-0_
  6
Continuous
 62
     4
100
AcDbLine
 10
1014.040032985597
 20
2825.815229536483
 30
0.0
 11
734.0400329855969
 21
2825.815229536483
 31
0.0
  0
LINE
  5
1FC
330
20
100
AcDbEntity
  8
_0-0_
  6
Continuous
 62
     4
100
AcDbLine
 10
1079.040033574739
 20
2925.815229536483
 30
0.0
 11
594.040032985597
 21
2925.815229536483
 31
0.0
  0
LINE
  5
1FD
330
20
100
AcDbEntity
  8
_0-0_
  6
Continuous
 62
     4
100
AcDbLine
 10
1014.040032985597
 20
2075.814830123227
 30
0.0
 11
734.0400329855969
 21
2075.814830123227
 31
0.0
  0
LINE
  5
1FE
330
20
100
AcDbEntity
  8
_0-0_
  6
Continuous
 62
     4
100
AcDbLine
 10
1014.040032985597
 20
2675.815229536483
 30
0.0
 11
734.0400329855969
 21
2675.815229536483
 31
0.0
  0
LINE
  5
1FF
330
20
100
AcDbEntity
  8
_0-0_
  6
Continuous
 62
     4
100
AcDbLine
 10
1014.040032985597
 20
2485.815229536483
 30
0.0
 11
874.0400329855969
 21
2485.815229536483
 31
0.0
  0
LINE
  5
200
330
20
100
AcDbEntity
  8
_0-0_
  6
Continuous
 62
     4
100
AcDbLine
 10
1014.040032985597
 20
2135.815229536483
 30
0.0
 11
874.0400329855969
 21
2135.815229536483
 31
0.0
  0
LINE
  5
201
330
20
100
AcDbEntity
  8
_0-0_
  6
Continuous
 62
     4
100
AcDbLine
 10
884.0400329855969
 20
2675.815229536483
 30
0.0
 11
884.0400329855969
 21
2485.815229536483
 31
0.0
  0
LINE
  5
202
330
20
100
AcDbEntity
  8
_0-0_
  6
Continuous
 62
     4
100
AcDbLine
 10
884.0400329855969
 20
2485.815229536483
 30
0.0
 11
884.0400329855969
 21
2135.815229536483
 31
0.0
  0
LINE
  5
203
330
20
100
AcDbEntity
  8
_0-0_
  6
Continuous
 62
     4
100
AcDbLine
 10
744.0400329855968
 20
2075.814830123227
 30
0.0
 11
744.0400329855968
 21
1975.814830123226
 31
0.0
  0
LINE
  5
204
330
20
100
AcDbEntity
  8
_0-0_
  6
Continuous
 62
     4
100
AcDbLine
 10
744.0400329855968
 20
2675.815229536483
 30
0.0
 11
744.0400329855968
 21
2075.814830123227
 31
0.0
  0
LINE
  5
205
330
20
100
AcDbEntity
  8
_0-0_
  6
Continuous
 62
     4
100
AcDbLine
 10
744.0400329855968
 20
2925.815229536483
 30
0.0
 11
744.0400329855968
 21
2825.815229536483
 31
0.0
  0
LINE
  5
206
330
20
100
AcDbEntity
  8
_0-0_
  6
Continuous
 62
     4
100
AcDbLine
 10
744.0400329855968
 20
2825.815229536483
 30
0.0
 11
744.0400329855968
 21
2675.815229536483
 31
0.0
  0
LINE
  5
207
330
20
100
AcDbEntity
  8
_0-0_
  6
Continuous
 62
     4
100
AcDbLine
 10
744.0400329855968
 20
2925.815229536483
 30
0.0
 11
750.2773837101301
 21
2896.470801514469
 31
0.0
  0
LINE
  5
208
330
20
100
AcDbEntity
  8
_0-0_
  6
Continuous
 62
     4
100
AcDbLine
 10
744.0400329855968
 20
2925.815229536483
 30
0.0
 11
737.8026822610642
 21
2896.470801514469
 31
0.0
  0
LINE
  5
209
330
20
100
AcDbEntity
  8
_0-0_
  6
Continuous
 62
     4
100
AcDbLine
 10
744.0400329855968
 20
2825.815229536483
 30
0.0
 11
737.8026822610642
 21
2855.159657558497
 31
0.0
  0
LINE
  5
20A
330
20
100
AcDbEntity
  8
_0-0_
  6
Continuous
 62
     4
100
AcDbLine
 10
744.0400329855968
 20
2825.815229536483
 30
0.0
 11
750.2773837101301
 21
2855.159657558497
 31
0.0
  0
LINE
  5
20B
330
20
100
AcDbEntity
  8
_0-0_
  6
Continuous
 62
     4
100
AcDbLine
 10
744.0400329855968
 20
2825.815229536483
 30
0.0
 11
750.2773837101301
 21
2796.470801514469
 31
0.0
  0
LINE
  5
20C
330
20
100
AcDbEntity
  8
_0-0_
  6
Continuous
 62
     4
100
AcDbLine
 10
744.0400329855968
 20
2825.815229536483
 30
0.0
 11
737.8026822610642
 21
2796.470801514469
 31
0.0
  0
LINE
  5
20D
330
20
100
AcDbEntity
  8
_0-0_
  6
Continuous
 62
     4
100
AcDbLine
 10
744.0400329855968
 20
2675.815229536483
 30
0.0
 11
737.8026822610642
 21
2705.159657558497
 31
0.0
  0
LINE
  5
20E
330
20
100
AcDbEntity
  8
_0-0_
  6
Continuous
 62
     4
100
AcDbLine
 10
744.0400329855968
 20
2675.815229536483
 30
0.0
 11
750.2773837101301
 21
2705.159657558497
 31
0.0
  0
LINE
  5
20F
330
20
100
AcDbEntity
  8
_0-0_
  6
Continuous
 62
     4
100
AcDbLine
 10
604.040032985597
 20
2925.815229536483
 30
0.0
 11
610.2773837101302
 21
2896.470801514469
 31
0.0
  0
LINE
  5
210
330
20
100
AcDbEntity
  8
_0-0_
  6
Continuous
 62
     4
100
AcDbLine
 10
604.040032985597
 20
2925.815229536483
 30
0.0
 11
597.8026822610644
 21
2896.470801514469
 31
0.0
  0
LINE
  5
211
330
20
100
AcDbEntity
  8
_0-0_
  6
Continuous
 62
     4
100
AcDbLine
 10
884.0400329855969
 20
2675.815229536483
 30
0.0
 11
890.2773837101301
 21
2646.470801514469
 31
0.0
  0
LINE
  5
212
330
20
100
AcDbEntity
  8
_0-0_
  6
Continuous
 62
     4
100
AcDbLine
 10
884.0400329855969
 20
2675.815229536483
 30
0.0
 11
877.8026822610643
 21
2646.470801514469
 31
0.0
  0
LINE
  5
213
330
20
100
AcDbEntity
  8
_0-0_
  6
Continuous
 62
     4
100
AcDbLine
 10
884.0400329855969
 20
2485.815229536483
 30
0.0
 11
877.8026822610643
 21
2515.159657558497
 31
0.0
  0
LINE
  5
214
330
20
100
AcDbEntity
  8
_0-0_
  6
Continuous
 62
     4
100
AcDbLine
 10
884.0400329855969
 20
2485.815229536483
 30
0.0
 11
890.2773837101301
 21
2515.159657558497
 31
0.0
  0
LINE
  5
215
330
20
100
AcDbEntity
  8
_0-0_
  6
Continuous
 62
     4
100
AcDbLine
 10
884.0400329855969
 20
2485.815229536483
 30
0.0
 11
890.2773837101301
 21
2456.470801514469
 31
0.0
  0
LINE
  5
216
330
20
100
AcDbEntity
  8
_0-0_
  6
Continuous
 62
     4
100
AcDbLine
 10
884.0400329855969
 20
2485.815229536483
 30
0.0
 11
877.8026822610643
 21
2456.470801514469
 31
0.0
  0
LINE
  5
217
330
20
100
AcDbEntity
  8
_0-0_
  6
Continuous
 62
     4
100
AcDbLine
 10
884.0400329855969
 20
2135.815229536483
 30
0.0
 11
877.8026822610643
 21
2165.159657558497
 31
0.0
  0
LINE
  5
218
330
20
100
AcDbEntity
  8
_0-0_
  6
Continuous
 62
     4
100
AcDbLine
 10
884.0400329855969
 20
2135.815229536483
 30
0.0
 11
890.2773837101301
 21
2165.159657558497
 31
0.0
  0
LINE
  5
219
330
20
100
AcDbEntity
  8
_0-0_
  6
Continuous
 62
     4
100
AcDbLine
 10
744.0400329855968
 20
2075.814830123227
 30
0.0
 11
737.8026822610642
 21
2105.159258145241
 31
0.0
  0
LINE
  5
21A
330
20
100
AcDbEntity
  8
_0-0_
  6
Continuous
 62
     4
100
AcDbLine
 10
744.0400329855968
 20
2075.814830123227
 30
0.0
 11
750.2773837101301
 21
2105.159258145241
 31
0.0
  0
LINE
  5
21B
330
20
100
AcDbEntity
  8
_0-0_
  6
Continuous
 62
     4
100
AcDbLine
 10
744.0400329855968
 20
2675.815229536483
 30
0.0
 11
750.2773837101301
 21
2646.470801514469
 31
0.0
  0
LINE
  5
21C
330
20
100
AcDbEntity
  8
_0-0_
  6
Continuous
 62
     4
100
AcDbLine
 10
744.0400329855968
 20
2675.815229536483
 30
0.0
 11
737.8026822610642
 21
2646.470801514469
 31
0.0
  0
LINE
  5
21D
330
20
100
AcDbEntity
  8
_0-0_
  6
Continuous
 62
     4
100
AcDbLine
 10
744.0400329855968
 20
2075.814830123227
 30
0.0
 11
750.2773837101301
 21
2046.470402101213
 31
0.0
  0
LINE
  5
21E
330
20
100
AcDbEntity
  8
_0-0_
  6
Continuous
 62
     4
100
AcDbLine
 10
744.0400329855968
 20
2075.814830123227
 30
0.0
 11
737.8026822610642
 21
2046.470402101213
 31
0.0
  0
LINE
  5
21F
330
20
100
AcDbEntity
  8
_0-0_
  6
Continuous
 62
     4
100
AcDbLine
 10
744.0400329855968
 20
1975.814830123226
 30
0.0
 11
737.8026822610642
 21
2005.159258145241
 31
0.0
  0
LINE
  5
220
330
20
100
AcDbEntity
  8
_0-0_
  6
Continuous
 62
     4
100
AcDbLine
 10
744.0400329855968
 20
1975.814830123226
 30
0.0
 11
750.2773837101301
 21
2005.159258145241
 31
0.0
  0
LINE
  5
221
330
20
100
AcDbEntity
  8
_0-0_
  6
Continuous
 62
     4
100
AcDbLine
 10
604.040032985597
 20
1975.814830123226
 30
0.0
 11
597.8026822610644
 21
2005.159258145241
 31
0.0
  0
LINE
  5
222
330
20
100
AcDbEntity
  8
_0-0_
  6
Continuous
 62
     4
100
AcDbLine
 10
604.040032985597
 20
1975.814830123226
 30
0.0
 11
610.2773837101302
 21
2005.159258145241
 31
0.0
  0
TEXT
  5
223
330
20
100
AcDbEntity
  8
_0-0_
 62
     7
100
AcDbText
 10
732.4968170614083
 20
2823.23845247026
 30
0.0
 40
60.0
  1
100
 50
90.0
100
AcDbText
  0
TEXT
  5
224
330
20
100
AcDbEntity
  8
_0-0_
 62
     7
100
AcDbText
 10
732.4968170614083
 20
2663.608668733303
 30
0.0
 40
60.0
  1
150
 50
90.0
100
AcDbText
  0
TEXT
  5
225
330
20
100
AcDbEntity
  8
_0-0_
 62
     7
100
AcDbText
 10
876.7348622870004
 20
2516.363833076033
 30
0.0
 40
60.0
  1
190
 50
90.0
100
AcDbText
  0
TEXT
  5
226
330
20
100
AcDbEntity
  8
_0-0_
 62
     7
100
AcDbText
 10
875.3237595113063
 20
2261.513449791019
 30
0.0
 40
60.0
  1
350
 50
90.0
100
AcDbText
  0
TEXT
  5
227
330
20
100
AcDbEntity
  8
_0-0_
 62
     7
100
AcDbText
 10
734.2134819419141
 20
2326.42417747294
 30
0.0
 40
60.0
  1
600
 50
90.0
100
AcDbText
  0
TEXT
  5
228
330
20
100
AcDbEntity
  8
_0-0_
 62
     7
100
AcDbText
 10
594.5143071482155
 20
2401.212624584718
 30
0.0
 40
60.0
  1
950
 50
90.0
100
AcDbText
  0
TEXT
  5
229
330
20
100
AcDbEntity
  8
_0-0_
 62
     7
100
AcDbText
 10
731.3912763905261
 20
2003.658218904142
 30
0.0
 40
60.0
  1
100
 50
90.0
100
AcDbText
  0
LINE
  5
22A
330
20
100
AcDbEntity
  8
_0-0_
  6
Continuous
 62
     4
100
AcDbLine
 10
1536.637243631293
 20
2546.158310647851
 30
0.0
 11
1604.792555700371
 21
2355.814646310787
 31
0.0
  0
LINE
  5
22B
330
20
100
AcDbEntity
  8
_0-0_
  6
Continuous
 62
     4
100
AcDbLine
 10
1536.637243631293
 20
2546.158310647851
 30
0.0
 11
1552.401680003996
 21
2520.634154523681
 31
0.0
  0
LINE
  5
22C
330
20
100
AcDbEntity
  8
_0-0_
  6
Continuous
 62
     4
100
AcDbLine
 10
1536.637243631293
 20
2546.158310647851
 30
0.0
 11
1540.657163292584
 21
2516.42885983024
 31
0.0
  0
TEXT
  5
22D
330
20
100
AcDbEntity
  8
_0-0_
 62
     7
100
AcDbText
 10
1608.753530548536
 20
2361.215995243052
 30
0.0
 40
60.0
  1
インサート M12
100
AcDbText
  0
LINE
  5
22E
330
20
100
AcDbEntity
  8
_0-0_
  6
Continuous
 62
     4
100
AcDbLine
 10
1604.792555700371
 20
2355.814646310787
 30
0.0
 11
2152.018762437298
 21
2355.814646310787
 31
0.0
  0
ENDSEC
  0
SECTION
  2
OBJECTS
  0
DICTIONARY
  5
C
330
0
100
AcDbDictionary
281
     1
  3
ACAD_COLOR
350
1B
  3
ACAD_GROUP
350
D
  3
ACAD_LAYOUT
350
19
  3
ACAD_MATERIAL
350
1A
  3
ACAD_MLINESTYLE
350
16
  3
ACAD_PLOTSETTINGS
350
18
  3
ACAD_PLOTSTYLENAME
350
E
  3
ACDBHEADERROUNDTRIPXREC
350
235
  3
AcDbVariableDictionary
350
231
  0
DICTIONARY
  5
1B
102
{ACAD_REACTORS
330
C
102
}
330
C
100
AcDbDictionary
281
     1
  0
DICTIONARY
  5
D
102
{ACAD_REACTORS
330
C
102
}
330
C
100
AcDbDictionary
281
     1
  0
DICTIONARY
  5
19
102
{ACAD_REACTORS
330
C
102
}
330
C
100
AcDbDictionary
281
     1
  3
Model
350
23
  3
レイアウト1
350
1F
  0
DICTIONARY
  5
1A
102
{ACAD_REACTORS
330
C
102
}
330
C
100
AcDbDictionary
281
     1
  0
DICTIONARY
  5
16
102
{ACAD_REACTORS
330
C
102
}
330
C
100
AcDbDictionary
281
     1
  3
Standard
350
17
  0
DICTIONARY
  5
18
102
{ACAD_REACTORS
330
C
102
}
330
C
100
AcDbDictionary
281
     1
  0
ACDBDICTIONARYWDFLT
  5
E
102
{ACAD_REACTORS
330
C
102
}
330
C
100
AcDbDictionary
281
     1
  3
Normal
350
F
100
AcDbDictionaryWithDefault
340
F
  0
DICTIONARY
  5
235
102
{ACAD_REACTORS
330
C
102
}
330
C
100
AcDbDictionary
281
     1
  3
COLORDICT
350
237
  3
MATERIALDICT
350
236
  0
DICTIONARY
  5
231
102
{ACAD_REACTORS
330
C
102
}
330
C
100
AcDbDictionary
281
     1
  3
DIMASSOC
350
232
  3
PROJECTNAME
350
233
  0
LAYOUT
  5
23
102
{ACAD_XDICTIONARY
360
23A
102
}
102
{ACAD_REACTORS
330
19
102
}
330
19
100
AcDbPlotSettings
  1

  2
RICOH imagio MP C3300 RPCS
  4

  6

 40
0.0
 41
0.0
 42
0.0
 43
0.0
 44
0.0
 45
0.0
 46
0.0
 47
0.0
 48
0.0
 49
0.0
140
0.0
141
0.0
142
1.0
143
1.0
 70
  1712
 72
     0
 73
     0
 74
     0
  7

 75
     0
147
1.0
148
0.0
149
0.0
100
AcDbLayout
  1
Model
 70
     1
 71
     0
 10
0.0
 20
0.0
 11
12.0
 21
9.0
 12
0.0
 22
0.0
 32
0.0
 14
0.0
 24
0.0
 34
0.0
 15
0.0
 25
0.0
 35
0.0
146
0.0
 13
0.0
 23
0.0
 33
0.0
 16
1.0
 26
0.0
 36
0.0
 17
0.0
 27
1.0
 37
0.0
 76
     0
330
20
  0
LAYOUT
  5
1F
102
{ACAD_XDICTIONARY
360
238
102
}
102
{ACAD_REACTORS
330
19
102
}
330
19
100
AcDbPlotSettings
  1

  2
RICOH imagio MP C3300 RPCS
  4

  6

 40
0.0
 41
0.0
 42
0.0
 43
0.0
 44
0.0
 45
0.0
 46
0.0
 47
0.0
 48
0.0
 49
0.0
140
0.0
141
0.0
142
1.0
143
1.0
 70
   688
 72
     0
 73
     0
 74
     5
  7

 75
    16
147
1.0
148
0.0
149
0.0
100
AcDbLayout
  1
レイアウト1
 70
     1
 71
     1
 10
0.0
 20
0.0
 11
12.0
 21
9.0
 12
0.0
 22
0.0
 32
0.0
 14
1.000000000000000E+20
 24
1.000000000000000E+20
 34
1.000000000000000E+20
 15
-1.000000000000000E+20
 25
-1.000000000000000E+20
 35
-1.000000000000000E+20
146
0.0
 13
0.0
 23
0.0
 33
0.0
 16
1.0
 26
0.0
 36
0.0
 17
0.0
 27
1.0
 37
0.0
 76
     0
330
1C
  0
MLINESTYLE
  5
17
102
{ACAD_REACTORS
330
16
102
}
330
16
100
AcDbMlineStyle
  2
STANDARD
 70
     0
  3

 62
   256
 51
90.0
 52
90.0
 71
     2
 49
0.5
 62
   256
  6
BYLAYER
 49
-0.5
 62
   256
  6
BYLAYER
  0
ACDBPLACEHOLDER
  5
F
102
{ACAD_REACTORS
330
E
102
}
330
E
  0
XRECORD
  5
237
102
{ACAD_REACTORS
330
235
102
}
330
235
100
AcDbXrecord
280
     1
340
1B
  0
XRECORD
  5
236
102
{ACAD_REACTORS
330
235
102
}
330
235
100
AcDbXrecord
280
     1
340
1A
  0
DICTIONARYVAR
  5
232
102
{ACAD_REACTORS
330
231
102
}
330
231
100
DictionaryVariables
280
     0
  1
1
  0
DICTIONARYVAR
  5
233
102
{ACAD_REACTORS
330
231
102
}
330
231
100
DictionaryVariables
280
     0
  1

  0
DICTIONARY
  5
23A
330
23
100
AcDbDictionary
280
     1
281
     1
  3
ACAD_XREC_ROUNDTRIP
360
23B
  0
DICTIONARY
  5
238
330
1F
100
AcDbDictionary
280
     1
281
     1
  3
ACAD_XREC_ROUNDTRIP
360
239
  0
XRECORD
  5
23B
102
{ACAD_REACTORS
330
23A
102
}
330
23A
100
AcDbXrecord
280
     1
102
SHADEPLOT
 70
     0
102
SHADEPLOTRESLEVEL
 70
     2
102
SHADEPLOTCUSTOMDPI
 70
   300
  0
XRECORD
  5
239
102
{ACAD_REACTORS
330
238
102
}
330
238
100
AcDbXrecord
280
     1
102
SHADEPLOT
 70
     0
102
SHADEPLOTRESLEVEL
 70
     2
102
SHADEPLOTCUSTOMDPI
 70
   300
  0
ENDSEC
  0
EOF
