  0
SECTION
  2
HEADER
  9
$ACADVER
  1
AC1015
  9
$ACADMAINTVER
 70
    20
  9
$DWGCODEPAGE
  3
ANSI_932
  9
$INSBASE
 10
0.0
 20
0.0
 30
0.0
  9
$EXTMIN
 10
189.70368836739
 20
179.9560646758837
 30
-0.0015258207003583
  9
$EXTMAX
 10
5956.949171564713
 20
4020.043954881891
 30
0.0000000349246037
  9
$LIMMIN
 10
0.0
 20
0.0
  9
$LIMMAX
 10
5940.0
 20
4200.0
  9
$ORTHOMODE
 70
     1
  9
$REGENMODE
 70
     1
  9
$FILLMODE
 70
     1
  9
$QTEXTMODE
 70
     0
  9
$MIRRTEXT
 70
     0
  9
$LTSCALE
 40
20.0
  9
$ATTMODE
 70
     1
  9
$TEXTSIZE
 40
0.2
  9
$TRACEWID
 40
0.05
  9
$TEXTSTYLE
  7
STANDARD
  9
$CLAYER
  8
0
  9
$CELTYPE
  6
CONTINUOUS
  9
$CECOLOR
 62
   256
  9
$CELTSCALE
 40
1.0
  9
$DISPSILH
 70
     0
  9
$DIMSCALE
 40
1.0
  9
$DIMASZ
 40
0.18
  9
$DIMEXO
 40
0.0625
  9
$DIMDLI
 40
0.38
  9
$DIMRND
 40
0.0
  9
$DIMDLE
 40
0.0
  9
$DIMEXE
 40
0.18
  9
$DIMTP
 40
0.0
  9
$DIMTM
 40
0.0
  9
$DIMTXT
 40
0.18
  9
$DIMCEN
 40
0.09
  9
$DIMTSZ
 40
0.0
  9
$DIMTOL
 70
     0
  9
$DIMLIM
 70
     0
  9
$DIMTIH
 70
     1
  9
$DIMTOH
 70
     1
  9
$DIMSE1
 70
     0
  9
$DIMSE2
 70
     0
  9
$DIMTAD
 70
     0
  9
$DIMZIN
 70
     0
  9
$DIMBLK
  1

  9
$DIMASO
 70
     1
  9
$DIMSHO
 70
     1
  9
$DIMPOST
  1

  9
$DIMAPOST
  1

  9
$DIMALT
 70
     0
  9
$DIMALTD
 70
     2
  9
$DIMALTF
 40
25.4
  9
$DIMLFAC
 40
1.0
  9
$DIMTOFL
 70
     0
  9
$DIMTVP
 40
0.0
  9
$DIMTIX
 70
     0
  9
$DIMSOXD
 70
     0
  9
$DIMSAH
 70
     0
  9
$DIMBLK1
  1

  9
$DIMBLK2
  1

  9
$DIMSTYLE
  2
Standard
  9
$DIMCLRD
 70
     0
  9
$DIMCLRE
 70
     0
  9
$DIMCLRT
 70
     0
  9
$DIMTFAC
 40
1.0
  9
$DIMGAP
 40
0.09
  9
$DIMJUST
 70
     0
  9
$DIMSD1
 70
     0
  9
$DIMSD2
 70
     0
  9
$DIMTOLJ
 70
     1
  9
$DIMTZIN
 70
     0
  9
$DIMALTZ
 70
     0
  9
$DIMALTTZ
 70
     0
  9
$DIMUPT
 70
     0
  9
$DIMDEC
 70
     4
  9
$DIMTDEC
 70
     4
  9
$DIMALTU
 70
     2
  9
$DIMALTTD
 70
     2
  9
$DIMTXSTY
  7
STANDARD
  9
$DIMAUNIT
 70
     0
  9
$DIMADEC
 70
     0
  9
$DIMALTRND
 40
0.0
  9
$DIMAZIN
 70
     0
  9
$DIMDSEP
 70
    46
  9
$DIMATFIT
 70
     3
  9
$DIMFRAC
 70
     0
  9
$DIMLDRBLK
  1

  9
$DIMLUNIT
 70
     2
  9
$DIMLWD
 70
    -2
  9
$DIMLWE
 70
    -2
  9
$DIMTMOVE
 70
     0
  9
$LUNITS
 70
     2
  9
$LUPREC
 70
     4
  9
$SKETCHINC
 40
0.1
  9
$FILLETRAD
 40
0.0
  9
$AUNITS
 70
     0
  9
$AUPREC
 70
     0
  9
$MENU
  1
.
  9
$ELEVATION
 40
0.0
  9
$PELEVATION
 40
0.0
  9
$THICKNESS
 40
0.0
  9
$LIMCHECK
 70
     0
  9
$CHAMFERA
 40
0.0
  9
$CHAMFERB
 40
0.0
  9
$CHAMFERC
 40
0.0
  9
$CHAMFERD
 40
0.0
  9
$SKPOLY
 70
     0
  9
$TDCREATE
 40
2457254.409190370
  9
$TDUCREATE
 40
2457254.034190370
  9
$TDUPDATE
 40
2457254.412723310
  9
$TDUUPDATE
 40
2457254.037723310
  9
$TDINDWG
 40
0.0035332986
  9
$TDUSRTIMER
 40
0.0035332986
  9
$USRTIMER
 70
     1
  9
$ANGBASE
 50
0.0
  9
$ANGDIR
 70
     0
  9
$PDMODE
 70
     0
  9
$PDSIZE
 40
0.0
  9
$PLINEWID
 40
0.0
  9
$SPLFRAME
 70
     0
  9
$SPLINETYPE
 70
     6
  9
$SPLINESEGS
 70
     8
  9
$HANDSEED
  5
272
  9
$SURFTAB1
 70
     6
  9
$SURFTAB2
 70
     6
  9
$SURFTYPE
 70
     6
  9
$SURFU
 70
     6
  9
$SURFV
 70
     6
  9
$UCSBASE
  2

  9
$UCSNAME
  2

  9
$UCSORG
 10
0.0
 20
0.0
 30
0.0
  9
$UCSXDIR
 10
1.0
 20
0.0
 30
0.0
  9
$UCSYDIR
 10
0.0
 20
1.0
 30
0.0
  9
$UCSORTHOREF
  2

  9
$UCSORTHOVIEW
 70
     0
  9
$UCSORGTOP
 10
0.0
 20
0.0
 30
0.0
  9
$UCSORGBOTTOM
 10
0.0
 20
0.0
 30
0.0
  9
$UCSORGLEFT
 10
0.0
 20
0.0
 30
0.0
  9
$UCSORGRIGHT
 10
0.0
 20
0.0
 30
0.0
  9
$UCSORGFRONT
 10
0.0
 20
0.0
 30
0.0
  9
$UCSORGBACK
 10
0.0
 20
0.0
 30
0.0
  9
$PUCSBASE
  2

  9
$PUCSNAME
  2

  9
$PUCSORG
 10
0.0
 20
0.0
 30
0.0
  9
$PUCSXDIR
 10
1.0
 20
0.0
 30
0.0
  9
$PUCSYDIR
 10
0.0
 20
1.0
 30
0.0
  9
$PUCSORTHOREF
  2

  9
$PUCSORTHOVIEW
 70
     0
  9
$PUCSORGTOP
 10
0.0
 20
0.0
 30
0.0
  9
$PUCSORGBOTTOM
 10
0.0
 20
0.0
 30
0.0
  9
$PUCSORGLEFT
 10
0.0
 20
0.0
 30
0.0
  9
$PUCSORGRIGHT
 10
0.0
 20
0.0
 30
0.0
  9
$PUCSORGFRONT
 10
0.0
 20
0.0
 30
0.0
  9
$PUCSORGBACK
 10
0.0
 20
0.0
 30
0.0
  9
$USERI1
 70
     0
  9
$USERI2
 70
     0
  9
$USERI3
 70
     0
  9
$USERI4
 70
     0
  9
$USERI5
 70
     0
  9
$USERR1
 40
0.0
  9
$USERR2
 40
0.0
  9
$USERR3
 40
0.0
  9
$USERR4
 40
0.0
  9
$USERR5
 40
0.0
  9
$WORLDVIEW
 70
     1
  9
$SHADEDGE
 70
     3
  9
$SHADEDIF
 70
    70
  9
$TILEMODE
 70
     1
  9
$MAXACTVP
 70
    64
  9
$PINSBASE
 10
0.0
 20
0.0
 30
0.0
  9
$PLIMCHECK
 70
     0
  9
$PEXTMIN
 10
1.000000000000000E+20
 20
1.000000000000000E+20
 30
1.000000000000000E+20
  9
$PEXTMAX
 10
-1.000000000000000E+20
 20
-1.000000000000000E+20
 30
-1.000000000000000E+20
  9
$PLIMMIN
 10
0.0
 20
0.0
  9
$PLIMMAX
 10
12.0
 20
9.0
  9
$UNITMODE
 70
     0
  9
$VISRETAIN
 70
     1
  9
$PLINEGEN
 70
     0
  9
$PSLTSCALE
 70
     1
  9
$TREEDEPTH
 70
  3020
  9
$CMLSTYLE
  2
Standard
  9
$CMLJUST
 70
     0
  9
$CMLSCALE
 40
1.0
  9
$PROXYGRAPHICS
 70
     1
  9
$MEASUREMENT
 70
     0
  9
$CELWEIGHT
370
    -1
  9
$ENDCAPS
280
     0
  9
$JOINSTYLE
280
     0
  9
$LWDISPLAY
290
     0
  9
$INSUNITS
 70
     0
  9
$HYPERLINKBASE
  1

  9
$STYLESHEET
  1

  9
$XEDIT
290
     1
  9
$CEPSNTYPE
380
     0
  9
$PSTYLEMODE
290
     1
  9
$FINGERPRINTGUID
  2
{DC5CCB1F-1D78-4264-A712-EDF8B9D5318A}
  9
$VERSIONGUID
  2
{8BD09F0E-0C94-4E2F-8403-7A4A8BCA971F}
  9
$EXTNAMES
290
     1
  9
$PSVPSCALE
 40
0.0
  9
$OLESTARTUP
290
     0
  0
ENDSEC
  0
SECTION
  2
CLASSES
  0
CLASS
  1
ACDBDICTIONARYWDFLT
  2
AcDbDictionaryWithDefault
  3
ObjectDBX Classes
 90
        0
280
     0
281
     0
  0
CLASS
  1
DICTIONARYVAR
  2
AcDbDictionaryVar
  3
ObjectDBX Classes
 90
        0
280
     0
281
     0
  0
CLASS
  1
ACDBPLACEHOLDER
  2
AcDbPlaceHolder
  3
ObjectDBX Classes
 90
        0
280
     0
281
     0
  0
CLASS
  1
LAYOUT
  2
AcDbLayout
  3
ObjectDBX Classes
 90
        0
280
     0
281
     0
  0
ENDSEC
  0
SECTION
  2
TABLES
  0
TABLE
  2
VPORT
  5
8
330
0
100
AcDbSymbolTable
 70
     2
  0
VPORT
  5
26A
330
8
100
AcDbSymbolTableRecord
100
AcDbViewportTableRecord
  2
*Active
 70
     0
 10
0.0
 20
0.0
 11
1.0
 21
1.0
 12
4021.725970851131
 22
1888.136379694981
 13
0.0
 23
0.0
 14
1.0
 24
1.0
 15
0.0
 25
0.0
 16
0.0
 26
0.0
 36
1.0
 17
0.0
 27
0.0
 37
0.0
 40
5361.268926196783
 41
1.609333333333333
 42
50.0
 43
0.0
 44
0.0
 50
0.0
 51
0.0
 71
     0
 72
   100
 73
     1
 74
     1
 75
     0
 76
     0
 77
     0
 78
     0
281
     0
 65
     1
110
0.0
120
0.0
130
0.0
111
1.0
121
0.0
131
0.0
112
0.0
122
1.0
132
0.0
 79
     0
146
0.0
  0
ENDTAB
  0
TABLE
  2
LTYPE
  5
5
330
0
100
AcDbSymbolTable
 70
    35
  0
LTYPE
  5
13
330
5
100
AcDbSymbolTableRecord
100
AcDbLinetypeTableRecord
  2
ByBlock
 70
     0
  3

 72
    65
 73
     0
 40
0.0
  0
LTYPE
  5
14
330
5
100
AcDbSymbolTableRecord
100
AcDbLinetypeTableRecord
  2
ByLayer
 70
     0
  3

 72
    65
 73
     0
 40
0.0
  0
LTYPE
  5
15
330
5
100
AcDbSymbolTableRecord
100
AcDbLinetypeTableRecord
  2
CONTINUOUS
 70
     0
  3
実線
 72
    65
 73
     0
 40
0.0
  0
LTYPE
  5
24
330
5
100
AcDbSymbolTableRecord
100
AcDbLinetypeTableRecord
  2
DASHED1
 70
     0
  3
--  --  --  --  --  --  --  --  
 72
    65
 73
     2
 40
2.5
 49
1.25
 74
     0
 49
-1.25
 74
     0
  0
LTYPE
  5
25
330
5
100
AcDbSymbolTableRecord
100
AcDbLinetypeTableRecord
  2
DASHED2
 70
     0
  3
----    ----    ----    ----    
 72
    65
 73
     2
 40
5.0
 49
2.5
 74
     0
 49
-2.5
 74
     0
  0
LTYPE
  5
26
330
5
100
AcDbSymbolTableRecord
100
AcDbLinetypeTableRecord
  2
DASHED3
 70
     0
  3
------  ------  ------  ------  
 72
    65
 73
     2
 40
5.0
 49
3.75
 74
     0
 49
-1.25
 74
     0
  0
LTYPE
  5
27
330
5
100
AcDbSymbolTableRecord
100
AcDbLinetypeTableRecord
  2
CENTER1
 70
     0
  3
----- - ----- - ----- - ----- - 
 72
    65
 73
     4
 40
10.0
 49
6.25
 74
     0
 49
-1.25
 74
     0
 49
1.25
 74
     0
 49
-1.25
 74
     0
  0
LTYPE
  5
28
330
5
100
AcDbSymbolTableRecord
100
AcDbLinetypeTableRecord
  2
CENTER2
 70
     0
  3
----------  --  ----------  --  
 72
    65
 73
     4
 40
20.0
 49
12.5
 74
     0
 49
-2.5
 74
     0
 49
2.5
 74
     0
 49
-2.5
 74
     0
  0
LTYPE
  5
29
330
5
100
AcDbSymbolTableRecord
100
AcDbLinetypeTableRecord
  2
PHANTOM1
 70
     0
  3
--- - - --- - - --- - - --- - - 
 72
    65
 73
     6
 40
10.0
 49
3.25
 74
     0
 49
-1.25
 74
     0
 49
1.25
 74
     0
 49
-1.25
 74
     0
 49
1.25
 74
     0
 49
-1.25
 74
     0
  0
LTYPE
  5
2A
330
5
100
AcDbSymbolTableRecord
100
AcDbLinetypeTableRecord
  2
PHANTOM2
 70
     0
  3
--------  -  -  --------  -  -  
 72
    65
 73
     6
 40
20.0
 49
10.0
 74
     0
 49
-2.5
 74
     0
 49
1.25
 74
     0
 49
-2.5
 74
     0
 49
1.25
 74
     0
 49
-2.5
 74
     0
  0
LTYPE
  5
2B
330
5
100
AcDbSymbolTableRecord
100
AcDbLinetypeTableRecord
  2
DOT
 70
     0
  3
-   -   -   -   -   -   -   -   
 72
    65
 73
     2
 40
2.5
 49
0.625
 74
     0
 49
-1.875
 74
     0
  0
LTYPE
  5
2C
330
5
100
AcDbSymbolTableRecord
100
AcDbLinetypeTableRecord
  2
DUMMY
 70
     0
  3
ダミー
 72
    65
 73
     0
 40
0.0
  0
LTYPE
  5
2D
330
5
100
AcDbSymbolTableRecord
100
AcDbLinetypeTableRecord
  2
RAND1
 70
     0
  3
ランダム線1
 72
    65
 73
     4
 40
10.0
 49
1.0
 74
     0
 49
-2.0
 74
     0
 49
3.0
 74
     0
 49
-4.0
 74
     0
  0
LTYPE
  5
2E
330
5
100
AcDbSymbolTableRecord
100
AcDbLinetypeTableRecord
  2
RAND2
 70
     0
  3
ランダム線2
 72
    65
 73
     4
 40
14.0
 49
2.0
 74
     0
 49
-3.0
 74
     0
 49
4.0
 74
     0
 49
-5.0
 74
     0
  0
LTYPE
  5
2F
330
5
100
AcDbSymbolTableRecord
100
AcDbLinetypeTableRecord
  2
RAND3
 70
     0
  3
ランダム線3
 72
    65
 73
     4
 40
18.0
 49
3.0
 74
     0
 49
-4.0
 74
     0
 49
5.0
 74
     0
 49
-6.0
 74
     0
  0
LTYPE
  5
30
330
5
100
AcDbSymbolTableRecord
100
AcDbLinetypeTableRecord
  2
RAND4
 70
     0
  3
ランダム線4
 72
    65
 73
     4
 40
22.0
 49
4.0
 74
     0
 49
-5.0
 74
     0
 49
6.0
 74
     0
 49
-7.0
 74
     0
  0
LTYPE
  5
31
330
5
100
AcDbSymbolTableRecord
100
AcDbLinetypeTableRecord
  2
RAND5
 70
     0
  3
ランダム線5
 72
    65
 73
     4
 40
26.0
 49
5.0
 74
     0
 49
-6.0
 74
     0
 49
7.0
 74
     0
 49
-8.0
 74
     0
  0
LTYPE
  5
32
330
5
100
AcDbSymbolTableRecord
100
AcDbLinetypeTableRecord
  2
LONG1
 70
     0
  3
----------  --  ----------  --  
 72
    65
 73
     4
 40
40.0
 49
32.5
 74
     0
 49
-2.5
 74
     0
 49
2.5
 74
     0
 49
-2.5
 74
     0
  0
LTYPE
  5
33
330
5
100
AcDbSymbolTableRecord
100
AcDbLinetypeTableRecord
  2
LONG2
 70
     0
  3
--------  -  -  --------  -  -  
 72
    65
 73
     6
 40
40.0
 49
30.0
 74
     0
 49
-2.5
 74
     0
 49
1.25
 74
     0
 49
-2.5
 74
     0
 49
1.25
 74
     0
 49
-2.5
 74
     0
  0
LTYPE
  5
34
330
5
100
AcDbSymbolTableRecord
100
AcDbLinetypeTableRecord
  2
LONG3
 70
     0
  3
+++++++++++++++..+++++++++++++++
 72
    65
 73
     2
 40
40.0
 49
37.5
 74
     0
 49
-2.5
 74
     0
  0
LTYPE
  5
35
330
5
100
AcDbSymbolTableRecord
100
AcDbLinetypeTableRecord
  2
LONG4
 70
     0
  3
+++++++++++++++..+++++++++++++++
 72
    65
 73
     2
 40
80.0
 49
75.0
 74
     0
 49
-5.0
 74
     0
  0
LTYPE
  5
36
330
5
100
AcDbSymbolTableRecord
100
AcDbLinetypeTableRecord
  2
LONG5
 70
     0
  3
----------  --  ----------  --  
 72
    65
 73
     4
 40
60.0
 49
37.5
 74
     0
 49
-7.5
 74
     0
 49
7.5
 74
     0
 49
-7.5
 74
     0
  0
LTYPE
  5
37
330
5
100
AcDbSymbolTableRecord
100
AcDbLinetypeTableRecord
  2
DASHED
 70
     0
  3
-------   -------------   ------
 72
    65
 73
     2
 40
7.5
 49
6.0
 74
     0
 49
-1.5
 74
     0
  0
LTYPE
  5
38
330
5
100
AcDbSymbolTableRecord
100
AcDbLinetypeTableRecord
  2
DASHED_SPACED
 70
     0
  3
----        --------        ----
 72
    65
 73
     2
 40
12.0
 49
6.0
 74
     0
 49
-6.0
 74
     0
  0
LTYPE
  5
39
330
5
100
AcDbSymbolTableRecord
100
AcDbLinetypeTableRecord
  2
LONG_DASHED_DOTTED
 70
     0
  3
------------- --- --------------
 72
    65
 73
     4
 40
15.25
 49
12.0
 74
     0
 49
-1.5
 74
     0
 49
0.25
 74
     0
 49
-1.5
 74
     0
  0
LTYPE
  5
3A
330
5
100
AcDbSymbolTableRecord
100
AcDbLinetypeTableRecord
  2
LONG_DASHED_DOUBLE-DOTTED
 70
     0
  3
----------- --- --- ------------
 72
    65
 73
     6
 40
17.0
 49
12.0
 74
     0
 49
-1.5
 74
     0
 49
0.25
 74
     0
 49
-1.5
 74
     0
 49
0.25
 74
     0
 49
-1.5
 74
     0
  0
LTYPE
  5
3B
330
5
100
AcDbSymbolTableRecord
100
AcDbLinetypeTableRecord
  2
LONG_DASHED_TRIPLICATE-DOTTED
 70
     0
  3
--------- --- --- --- ----------
 72
    65
 73
     8
 40
18.75
 49
12.0
 74
     0
 49
-1.5
 74
     0
 49
0.25
 74
     0
 49
-1.5
 74
     0
 49
0.25
 74
     0
 49
-1.5
 74
     0
 49
0.25
 74
     0
 49
-1.5
 74
     0
  0
LTYPE
  5
3C
330
5
100
AcDbSymbolTableRecord
100
AcDbLinetypeTableRecord
  2
DOTTED
 70
     0
  3
   -       -       -       -    
 72
    65
 73
     2
 40
1.75
 49
0.25
 74
     0
 49
-1.5
 74
     0
  0
LTYPE
  5
3D
330
5
100
AcDbSymbolTableRecord
100
AcDbLinetypeTableRecord
  2
CHAIN
 70
     0
  3
-------------- -- --------------
 72
    65
 73
     4
 40
18.5
 49
12.0
 74
     0
 49
-1.5
 74
     0
 49
3.5
 74
     0
 49
-1.5
 74
     0
  0
LTYPE
  5
3E
330
5
100
AcDbSymbolTableRecord
100
AcDbLinetypeTableRecord
  2
CHAIN_DOUBLE_DASH
 70
     0
  3
------------ -- -- -------------
 72
    65
 73
     6
 40
23.5
 49
12.0
 74
     0
 49
-1.5
 74
     0
 49
3.5
 74
     0
 49
-1.5
 74
     0
 49
3.5
 74
     0
 49
-1.5
 74
     0
  0
LTYPE
  5
3F
330
5
100
AcDbSymbolTableRecord
100
AcDbLinetypeTableRecord
  2
DASHED_DOTTED
 70
     0
  3
-----------     -     ----------
 72
    65
 73
     4
 40
9.25
 49
6.0
 74
     0
 49
-1.5
 74
     0
 49
0.25
 74
     0
 49
-1.5
 74
     0
  0
LTYPE
  5
40
330
5
100
AcDbSymbolTableRecord
100
AcDbLinetypeTableRecord
  2
DOUBLE-DASHED_DOTTED
 70
     0
  3
------   -----------   -   -----
 72
    65
 73
     6
 40
16.75
 49
6.0
 74
     0
 49
-1.5
 74
     0
 49
6.0
 74
     0
 49
-1.5
 74
     0
 49
0.25
 74
     0
 49
-1.5
 74
     0
  0
LTYPE
  5
41
330
5
100
AcDbSymbolTableRecord
100
AcDbLinetypeTableRecord
  2
DASHED_DOUBLE-DOTTED
 70
     0
  3
---------    -    -    ---------
 72
    65
 73
     6
 40
11.0
 49
6.0
 74
     0
 49
-1.5
 74
     0
 49
0.25
 74
     0
 49
-1.5
 74
     0
 49
0.25
 74
     0
 49
-1.5
 74
     0
  0
LTYPE
  5
42
330
5
100
AcDbSymbolTableRecord
100
AcDbLinetypeTableRecord
  2
DOUBLE-DASHED_DOUBLE-DOTTED
 70
     0
  3
-----   ---------   -   -   ----
 72
    65
 73
     8
 40
18.5
 49
6.0
 74
     0
 49
-1.5
 74
     0
 49
6.0
 74
     0
 49
-1.5
 74
     0
 49
0.25
 74
     0
 49
-1.5
 74
     0
 49
0.25
 74
     0
 49
-1.5
 74
     0
  0
LTYPE
  5
43
330
5
100
AcDbSymbolTableRecord
100
AcDbLinetypeTableRecord
  2
DASHED_TRIPLICATE-DOTTED
 70
     0
  3
-------    -    -    -    ------
 72
    65
 73
     8
 40
12.75
 49
6.0
 74
     0
 49
-1.5
 74
     0
 49
0.25
 74
     0
 49
-1.5
 74
     0
 49
0.25
 74
     0
 49
-1.5
 74
     0
 49
0.25
 74
     0
 49
-1.5
 74
     0
  0
LTYPE
  5
44
330
5
100
AcDbSymbolTableRecord
100
AcDbLinetypeTableRecord
  2
DOUBLE-DASHED_TRIPLICATE-DOTTED
 70
     0
  3
-----  ---------  -  -  -  -----
 72
    65
 73
    10
 40
20.25
 49
6.0
 74
     0
 49
-1.5
 74
     0
 49
6.0
 74
     0
 49
-1.5
 74
     0
 49
0.25
 74
     0
 49
-1.5
 74
     0
 49
0.25
 74
     0
 49
-1.5
 74
     0
 49
0.25
 74
     0
 49
-1.5
 74
     0
  0
LTYPE
  5
45
330
5
100
AcDbSymbolTableRecord
100
AcDbLinetypeTableRecord
  2
UNDEFINED
 70
     0
  3
--------------------------------
 72
    65
 73
     0
 40
0.0
  0
ENDTAB
  0
TABLE
  2
LAYER
  5
2
330
0
100
AcDbSymbolTable
 70
     3
  0
LAYER
  5
10
330
2
100
AcDbSymbolTableRecord
100
AcDbLayerTableRecord
  2
0
 70
     0
 62
     7
  6
CONTINUOUS
370
    -3
390
F
  0
LAYER
  5
47
330
2
100
AcDbSymbolTableRecord
100
AcDbLayerTableRecord
  2
_0-0_
 70
     0
 62
     7
  6
CONTINUOUS
370
    -3
390
F
  0
LAYER
  5
48
330
2
100
AcDbSymbolTableRecord
100
AcDbLayerTableRecord
  2
ADD_LINE
 70
     0
 62
     7
  6
CONTINUOUS
370
    -3
390
F
  0
ENDTAB
  0
TABLE
  2
STYLE
  5
3
330
0
100
AcDbSymbolTable
 70
     2
  0
STYLE
  5
11
330
3
100
AcDbSymbolTableRecord
100
AcDbTextStyleTableRecord
  2
STANDARD
 70
     0
 40
0.0
 41
1.0
 50
0.0
 71
     0
 42
0.2
  3
txt
  4
bigfont.shx
  0
STYLE
  5
46
330
3
100
AcDbSymbolTableRecord
100
AcDbTextStyleTableRecord
  2
TATEGAKI
 70
     4
 40
0.0
 41
1.0
 50
0.0
 71
     0
 42
1.0
  3
txt
  4
bigfont.shx
  0
ENDTAB
  0
TABLE
  2
VIEW
  5
6
330
0
100
AcDbSymbolTable
 70
     0
  0
ENDTAB
  0
TABLE
  2
UCS
  5
7
330
0
100
AcDbSymbolTable
 70
     0
  0
ENDTAB
  0
TABLE
  2
APPID
  5
9
330
0
100
AcDbSymbolTable
 70
     1
  0
APPID
  5
12
330
9
100
AcDbSymbolTableRecord
100
AcDbRegAppTableRecord
  2
ACAD
 70
     0
  0
ENDTAB
  0
TABLE
  2
DIMSTYLE
  5
A
330
0
100
AcDbSymbolTable
 70
     1
100
AcDbDimStyleTable
 71
     0
  0
DIMSTYLE
105
265
330
A
100
AcDbSymbolTableRecord
100
AcDbDimStyleTableRecord
  2
Standard
 70
     0
340
11
  0
ENDTAB
  0
TABLE
  2
BLOCK_RECORD
  5
1
330
0
100
AcDbSymbolTable
 70
     0
  0
BLOCK_RECORD
  5
20
330
1
100
AcDbSymbolTableRecord
100
AcDbBlockTableRecord
  2
*Model_Space
340
23
  0
BLOCK_RECORD
  5
1C
330
1
100
AcDbSymbolTableRecord
100
AcDbBlockTableRecord
  2
*Paper_Space
340
1F
  0
ENDTAB
  0
ENDSEC
  0
SECTION
  2
BLOCKS
  0
BLOCK
  5
21
330
20
100
AcDbEntity
  8
0
100
AcDbBlockBegin
  2
*Model_Space
 70
     0
 10
0.0
 20
0.0
 30
0.0
  3
*Model_Space
  1

  0
ENDBLK
  5
22
330
20
100
AcDbEntity
  8
0
100
AcDbBlockEnd
  0
BLOCK
  5
1D
330
1C
100
AcDbEntity
 67
     1
  8
0
100
AcDbBlockBegin
  2
*Paper_Space
 70
     0
 10
0.0
 20
0.0
 30
0.0
  3
*Paper_Space
  1

  0
ENDBLK
  5
1E
330
1C
100
AcDbEntity
 67
     1
  8
0
100
AcDbBlockEnd
  0
ENDSEC
  0
SECTION
  2
ENTITIES
  0
LINE
  5
4C
330
20
100
AcDbEntity
  8
_0-0_
  6
Continuous
 62
     7
100
AcDbLine
 10
5750.0
 20
4020.0
 30
0.0
 11
190.0
 21
4020.0
 31
0.0
  0
LINE
  5
4D
330
20
100
AcDbEntity
  8
_0-0_
  6
Continuous
 62
     7
100
AcDbLine
 10
5750.0
 20
180.0
 30
0.0
 11
5750.0
 21
4020.0
 31
0.0
  0
LINE
  5
4E
330
20
100
AcDbEntity
  8
_0-0_
  6
Continuous
 62
     7
100
AcDbLine
 10
190.0
 20
180.0
 30
0.0
 11
5750.0
 21
180.0
 31
0.0
  0
LINE
  5
4F
330
20
100
AcDbEntity
  8
_0-0_
  6
Continuous
 62
     7
100
AcDbLine
 10
190.0
 20
4020.0
 30
0.0
 11
190.0
 21
180.0
 31
0.0
  0
LINE
  5
50
330
20
100
AcDbEntity
  8
_0-0_
  6
Continuous
 62
     7
100
AcDbLine
 10
4550.0
 20
180.0
 30
0.0
 11
4550.0
 21
720.0
 31
0.0
  0
LINE
  5
51
330
20
100
AcDbEntity
  8
_0-0_
  6
Continuous
 62
     7
100
AcDbLine
 10
4870.0
 20
270.0
 30
0.0
 11
4870.0
 21
720.0
 31
0.0
  0
LINE
  5
52
330
20
100
AcDbEntity
  8
_0-0_
  6
Continuous
 62
     7
100
AcDbLine
 10
3590.0
 20
180.0
 30
0.0
 11
3590.0
 21
720.0
 31
0.0
  0
LINE
  5
53
330
20
100
AcDbEntity
  8
_0-0_
  6
Continuous
 62
     7
100
AcDbLine
 10
3270.0
 20
180.0
 30
0.0
 11
3270.0
 21
720.0
 31
0.0
  0
LINE
  5
54
330
20
100
AcDbEntity
  8
_0-0_
  6
Continuous
 62
     7
100
AcDbLine
 10
3270.0
 20
720.0
 30
0.0
 11
5750.0
 21
720.0
 31
0.0
  0
LINE
  5
55
330
20
100
AcDbEntity
  8
_0-0_
  6
Continuous
 62
     7
100
AcDbLine
 10
3270.0
 20
630.0
 30
0.0
 11
5750.0
 21
630.0
 31
0.0
  0
LINE
  5
56
330
20
100
AcDbEntity
  8
_0-0_
  6
Continuous
 62
     7
100
AcDbLine
 10
3270.0
 20
540.0
 30
0.0
 11
5750.0
 21
540.0
 31
0.0
  0
LINE
  5
57
330
20
100
AcDbEntity
  8
_0-0_
  6
Continuous
 62
     7
100
AcDbLine
 10
3270.0
 20
450.0
 30
0.0
 11
5750.0
 21
450.0
 31
0.0
  0
LINE
  5
58
330
20
100
AcDbEntity
  8
_0-0_
  6
Continuous
 62
     7
100
AcDbLine
 10
3270.0
 20
360.0
 30
0.0
 11
5750.0
 21
360.0
 31
0.0
  0
LINE
  5
59
330
20
100
AcDbEntity
  8
_0-0_
  6
Continuous
 62
     7
100
AcDbLine
 10
3270.0
 20
270.0
 30
0.0
 11
5750.0
 21
270.0
 31
0.0
  0
LINE
  5
5A
330
20
100
AcDbEntity
  8
_0-0_
  6
Continuous
 62
     7
100
AcDbLine
 10
3910.0
 20
180.0
 30
0.0
 11
3910.0
 21
270.0
 31
0.0
  0
LINE
  5
5B
330
20
100
AcDbEntity
  8
_0-0_
  6
Continuous
 62
     7
100
AcDbLine
 10
4230.0
 20
180.0
 30
0.0
 11
4230.0
 21
270.0
 31
0.0
  0
TEXT
  5
5C
330
20
100
AcDbEntity
  8
_0-0_
 62
     7
100
AcDbText
 10
221.6728960054365
 20
3917.857965766952
 30
0.0
 40
80.0
  1
組立構造図
100
AcDbText
  0
LINE
  5
5D
330
20
100
AcDbEntity
  8
_0-0_
  6
Continuous
 62
     7
100
AcDbLine
 10
690.0
 20
3900.0
 30
0.0
 11
190.0
 21
3900.0
 31
0.0
  0
LINE
  5
5E
330
20
100
AcDbEntity
  8
_0-0_
  6
Continuous
 62
     7
100
AcDbLine
 10
690.0
 20
4020.0
 30
0.0
 11
690.0
 21
3900.0
 31
0.0
  0
TEXT
  5
5F
330
20
100
AcDbEntity
  8
_0-0_
 62
     7
100
AcDbText
 10
3294.527649769585
 20
643.3303159973667
 30
0.0
 40
60.0
  1
製 品 名
100
AcDbText
  0
TEXT
  5
60
330
20
100
AcDbEntity
  8
_0-0_
 62
     7
100
AcDbText
 10
3295.749670836077
 20
554.1227781435154
 30
0.0
 40
60.0
  1
型　　式
100
AcDbText
  0
TEXT
  5
61
330
20
100
AcDbEntity
  8
_0-0_
 62
     7
100
AcDbText
 10
3295.749670836077
 20
463.6932192231731
 30
0.0
 40
60.0
  1
呼 び 名
100
AcDbText
  0
TEXT
  5
62
330
20
100
AcDbEntity
  8
_0-0_
 62
     7
100
AcDbText
 10
3294.527649769585
 20
374.4856813693218
 30
0.0
 40
60.0
  1
寸　　法
100
AcDbText
  0
TEXT
  5
63
330
20
100
AcDbEntity
  8
_0-0_
 62
     7
100
AcDbText
 10
3295.749670836077
 20
285.2781435154705
 30
0.0
 40
60.0
  1
特記事項
100
AcDbText
  0
TEXT
  5
64
330
20
100
AcDbEntity
  8
_0-0_
 62
     7
100
AcDbText
 10
3295.749670836077
 20
196.0706056616194
 30
0.0
 40
60.0
  1
検　　図
100
AcDbText
  0
TEXT
  5
65
330
20
100
AcDbEntity
  8
_0-0_
 62
     7
100
AcDbText
 10
3936.08870967742
 20
196.0706056616194
 30
0.0
 40
60.0
  1
製　　図
100
AcDbText
  0
TEXT
  5
66
330
20
100
AcDbEntity
  8
_0-0_
 62
     7
100
AcDbText
 10
4574.061189672007
 20
554.9779912061622
 30
0.0
 40
60.0
  1
参考重量
100
AcDbText
  0
TEXT
  5
67
330
20
100
AcDbEntity
  8
_0-0_
 62
     7
100
AcDbText
 10
4595.648957293636
 20
195.9759975790527
 30
0.0
 40
60.0
  1
株式会社　丸治コンクリート工業所
100
AcDbText
  0
TEXT
  5
68
330
20
100
AcDbEntity
  8
_0-0_
 62
     7
100
AcDbText
 10
4572.641946200836
 20
645.8694673668417
 30
0.0
 40
60.0
  1
縮　　尺
100
AcDbText
  0
TEXT
  5
69
330
20
100
AcDbEntity
  8
_0-0_
 62
     7
100
AcDbText
 10
4575.10341871182
 20
464.9512378094525
 30
0.0
 40
60.0
  1
設計Ｎｏ
100
AcDbText
  0
TEXT
  5
6A
330
20
100
AcDbEntity
  8
_0-0_
 62
     7
100
AcDbText
 10
4575.10341871182
 20
373.8767549030118
 30
0.0
 40
60.0
  1
図面Ｎｏ
100
AcDbText
  0
TEXT
  5
6B
330
20
100
AcDbEntity
  8
_0-0_
 62
     7
100
AcDbText
 10
4573.872682456328
 20
282.8022719965708
 30
0.0
 40
60.0
  1
製 図 日
100
AcDbText
  0
TEXT
  5
6C
330
20
100
AcDbEntity
  8
_0-0_
 62
     7
100
AcDbText
 10
3770.72954936397
 20
641.9584988001446
 30
0.0
 40
60.0
  1
ＦＫ式ハンドホール
100
AcDbText
  0
TEXT
  5
6D
330
20
100
AcDbEntity
  8
_0-0_
 62
     7
100
AcDbText
 10
3967.656273227293
 20
554.9111788315745
 30
0.0
 40
60.0
  1
1200型
100
AcDbText
  0
TEXT
  5
6E
330
20
100
AcDbEntity
  8
_0-0_
 62
     7
100
AcDbText
 10
3714.137863718923
 20
465.0098483722313
 30
0.0
 40
60.0
  1
H-12135(CR-600)
100
AcDbText
  0
TEXT
  5
6F
330
20
100
AcDbEntity
  8
_0-0_
 62
     7
100
AcDbText
 10
3691.305779792739
 20
375.1085179128884
 30
0.0
 40
60.0
  1
1200×1200×1350
100
AcDbText
  0
TEXT
  5
70
330
20
100
AcDbEntity
  8
_0-0_
 62
     7
100
AcDbText
 10
5241.664481089001
 20
645.088449531738
 30
0.0
 40
60.0
  1
1/20
100
AcDbText
  0
TEXT
  5
71
330
20
100
AcDbEntity
  8
_0-0_
 62
     7
100
AcDbText
 10
5206.801402663042
 20
554.7613827008431
 30
0.0
 40
60.0
  1
2800kg
100
AcDbText
  0
TEXT
  5
72
330
20
100
AcDbEntity
  8
_0-0_
 62
     7
100
AcDbText
 10
4886.083440737966
 20
374.1072490390539
 30
0.0
 40
60.0
  1
FKHH-H12135-CR600
 41
0.9
100
AcDbText
  0
TEXT
  5
73
330
20
100
AcDbEntity
  8
_0-0_
 62
     7
100
AcDbText
 10
4932.650831404362
 20
283.7801822081591
 30
0.0
 40
60.0
  1
平成　　年　　月　　日
100
AcDbText
  0
LINE
  5
74
330
20
100
AcDbEntity
  8
_0-0_
  6
DASHED1
 62
   136
100
AcDbLine
 10
1393.697550401732
 20
3025.809449415505
 30
0.0
 11
1393.697550401732
 21
3125.809584918265
 31
0.0
  0
LINE
  5
75
330
20
100
AcDbEntity
  8
_0-0_
  6
DASHED1
 62
   136
100
AcDbLine
 10
1388.69736865129
 20
2905.809286812192
 30
0.0
 11
2478.69525863766
 21
2905.809286812192
 31
0.0
  0
LINE
  5
76
330
20
100
AcDbEntity
  8
_0-0_
  6
DASHED1
 62
   136
100
AcDbLine
 10
2528.695151413737
 20
2855.809743986722
 30
0.0
 11
1338.697213412259
 21
2855.809743986722
 31
0.0
  0
LINE
  5
77
330
20
100
AcDbEntity
  8
_0-0_
  6
DASHED1
 62
   136
100
AcDbLine
 10
1383.857726741489
 20
2305.809173696845
 30
0.0
 11
1388.857733516627
 21
2905.809286812192
 31
0.0
  0
LINE
  5
78
330
20
100
AcDbEntity
  8
_0-0_
  6
DASHED1
 62
   136
100
AcDbLine
 10
1333.696856686515
 20
2305.809173696845
 30
0.0
 11
1338.697213412259
 21
2855.809743986722
 31
0.0
  0
LINE
  5
79
330
20
100
AcDbEntity
  8
_0-0_
  6
DASHED1
 62
   136
100
AcDbLine
 10
1388.697456138942
 20
2905.809286812192
 30
0.0
 11
1338.697213412259
 21
2855.809743986722
 31
0.0
  0
LINE
  5
7A
330
20
100
AcDbEntity
  8
_0-0_
  6
DASHED1
 62
   136
100
AcDbLine
 10
1393.697550401732
 20
3025.809449415505
 30
0.0
 11
1388.697456138942
 21
2905.809286812192
 31
0.0
  0
LINE
  5
7B
330
20
100
AcDbEntity
  8
_0-0_
  6
DASHED1
 62
   136
100
AcDbLine
 10
1993.695563813441
 20
3025.809449415505
 30
0.0
 11
1998.695658076231
 21
2905.809286812192
 31
0.0
  0
LINE
  5
7C
330
20
100
AcDbEntity
  8
_0-0_
  6
DASHED1
 62
   136
100
AcDbLine
 10
1993.695563813441
 20
3025.809449415505
 30
0.0
 11
1993.695563813441
 21
3125.809584918265
 31
0.0
  0
LINE
  5
7D
330
20
100
AcDbEntity
  8
_0-0_
  6
DASHED1
 62
   136
100
AcDbLine
 10
2483.534375621553
 20
2305.809173696845
 30
0.0
 11
2478.534281358764
 21
2905.809286812192
 31
0.0
  0
LINE
  5
7E
330
20
100
AcDbEntity
  8
_0-0_
  6
DASHED1
 62
   136
100
AcDbLine
 10
2528.695151413737
 20
2855.809743986722
 30
0.0
 11
2478.69525863766
 21
2905.809286812192
 31
0.0
  0
LINE
  5
7F
330
20
100
AcDbEntity
  8
_0-0_
  6
DASHED1
 62
   136
100
AcDbLine
 10
2533.695245676527
 20
2305.809173696845
 30
0.0
 11
2528.695151413737
 21
2855.809743986722
 31
0.0
  0
LINE
  5
80
330
20
100
AcDbEntity
  8
_0-0_
  6
DASHED1
 62
   136
100
AcDbLine
 10
1393.689938976044
 20
1554.961976860115
 30
0.0
 11
1383.857726741489
 21
2305.809173696845
 31
0.0
  0
LINE
  5
81
330
20
100
AcDbEntity
  8
_0-0_
  6
DASHED1
 62
   136
100
AcDbLine
 10
1342.6972363299
 20
1605.799301437064
 30
0.0
 11
1333.696856686515
 21
2305.809173696845
 31
0.0
  0
LINE
  5
82
330
20
100
AcDbEntity
  8
_0-0_
  6
DASHED1
 62
   136
100
AcDbLine
 10
1268.697031072675
 20
1965.808887962764
 30
0.0
 11
1268.697031072675
 21
1615.808938629013
 31
0.0
  0
LINE
  5
83
330
20
100
AcDbEntity
  8
_0-0_
  6
DASHED1
 62
   136
100
AcDbLine
 10
1268.697031072675
 20
1965.808887962764
 30
0.0
 11
1233.697071134361
 21
1975.808726537737
 31
0.0
  0
LINE
  5
84
330
20
100
AcDbEntity
  8
_0-0_
  6
DASHED1
 62
   136
100
AcDbLine
 10
1233.697071134361
 20
1605.808750103434
 30
0.0
 11
1268.697031072675
 21
1615.808938629013
 31
0.0
  0
LINE
  5
85
330
20
100
AcDbEntity
  8
_0-0_
  6
DASHED1
 62
   136
100
AcDbLine
 10
1342.6972363299
 20
1605.799301437064
 30
0.0
 11
1533.695640401958
 21
1605.799301437064
 31
0.0
  0
LINE
  5
86
330
20
100
AcDbEntity
  8
_0-0_
  6
DASHED1
 62
   136
100
AcDbLine
 10
1393.689938976044
 20
1554.961976860115
 30
0.0
 11
1933.695482511785
 21
1545.809018752384
 31
0.0
  0
LINE
  5
87
330
20
100
AcDbEntity
  8
_0-0_
  6
DASHED1
 62
   136
100
AcDbLine
 10
1342.6972363299
 20
1605.799301437064
 30
0.0
 11
1393.689938976044
 21
1554.961976860115
 31
0.0
  0
LINE
  5
88
330
20
100
AcDbEntity
  8
_0-0_
  6
DASHED1
 62
   136
100
AcDbLine
 10
2033.695618014546
 20
1515.809153076859
 30
0.0
 11
1833.695696959632
 21
1515.809153076859
 31
0.0
  0
LINE
  5
89
330
20
100
AcDbEntity
  8
_0-0_
  6
DASHED1
 62
   136
100
AcDbLine
 10
1823.695508434053
 20
1547.673555582742
 30
0.0
 11
1833.695696959632
 21
1515.809153076859
 31
0.0
  0
LINE
  5
8A
330
20
100
AcDbEntity
  8
_0-0_
  6
DASHED1
 62
   136
100
AcDbLine
 10
2473.702513337603
 20
1554.961976860115
 30
0.0
 11
1933.695482511785
 21
1545.809018752384
 31
0.0
  0
LINE
  5
8B
330
20
100
AcDbEntity
  8
_0-0_
  6
DASHED1
 62
   136
100
AcDbLine
 10
2033.695618014546
 20
1515.809153076859
 30
0.0
 11
2043.695456589519
 21
1547.673555582742
 31
0.0
  0
LINE
  5
8C
330
20
100
AcDbEntity
  8
_0-0_
  6
DASHED1
 62
   136
100
AcDbLine
 10
2473.702513337603
 20
1554.961976860115
 30
0.0
 11
2483.534375621553
 21
2305.809173696845
 31
0.0
  0
LINE
  5
8D
330
20
100
AcDbEntity
  8
_0-0_
  6
DASHED1
 62
   136
100
AcDbLine
 10
2473.702513337603
 20
1554.961976860115
 30
0.0
 11
2524.695215983748
 21
1605.799301437064
 31
0.0
  0
LINE
  5
8E
330
20
100
AcDbEntity
  8
_0-0_
  6
DASHED1
 62
   136
100
AcDbLine
 10
2333.695674572219
 20
1605.799301437064
 30
0.0
 11
2524.695215983748
 21
1605.799301437064
 31
0.0
  0
LINE
  5
8F
330
20
100
AcDbEntity
  8
_0-0_
  6
DASHED1
 62
   136
100
AcDbLine
 10
2524.695215983748
 20
1605.799301437064
 30
0.0
 11
2533.695245676527
 21
2305.809173696845
 31
0.0
  0
LINE
  5
90
330
20
100
AcDbEntity
  8
_0-0_
  6
DASHED1
 62
   136
100
AcDbLine
 10
2633.693631426255
 20
1605.808750103434
 30
0.0
 11
2598.693671487942
 21
1615.808938629013
 31
0.0
  0
LINE
  5
91
330
20
100
AcDbEntity
  8
_0-0_
  6
DASHED1
 62
   136
100
AcDbLine
 10
2598.693671487942
 20
1965.808887962764
 30
0.0
 11
2598.693671487942
 21
1615.808938629013
 31
0.0
  0
LINE
  5
92
330
20
100
AcDbEntity
  8
_0-0_
  6
DASHED1
 62
   136
100
AcDbLine
 10
2598.693671487942
 20
1965.808887962764
 30
0.0
 11
2633.693631426255
 21
1975.808726537737
 31
0.0
  0
LINE
  5
93
330
20
100
AcDbEntity
  8
_0-0_
  6
Continuous
 62
   136
100
AcDbLine
 10
1533.695640401958
 20
1975.808726537737
 30
0.0
 11
1533.695640401958
 21
1605.799301437064
 31
0.0
  0
LINE
  5
94
330
20
100
AcDbEntity
  8
_0-0_
  6
Continuous
 62
   136
100
AcDbLine
 10
1543.695478976931
 20
1965.808887962764
 30
0.0
 11
1543.695478976931
 21
1615.808938629013
 31
0.0
  0
LINE
  5
95
330
20
100
AcDbEntity
  8
_0-0_
  6
Continuous
 62
   136
100
AcDbLine
 10
1543.695478976931
 20
1965.808887962764
 30
0.0
 11
2323.69548604664
 21
1965.808887962764
 31
0.0
  0
LINE
  5
96
330
20
100
AcDbEntity
  8
_0-0_
  6
Continuous
 62
   136
100
AcDbLine
 10
1533.695640401958
 20
1975.808726537737
 30
0.0
 11
2333.695674572219
 21
1975.808726537737
 31
0.0
  0
LINE
  5
97
330
20
100
AcDbEntity
  8
_0-0_
  6
Continuous
 62
   136
100
AcDbLine
 10
2323.69548604664
 20
1965.808887962764
 30
0.0
 11
2323.69548604664
 21
1615.808938629013
 31
0.0
  0
LINE
  5
98
330
20
100
AcDbEntity
  8
_0-0_
  6
Continuous
 62
   136
100
AcDbLine
 10
2333.695674572219
 20
1975.808726537737
 30
0.0
 11
2333.695674572219
 21
1605.799301437064
 31
0.0
  0
LINE
  5
99
330
20
100
AcDbEntity
  8
_0-0_
  6
Continuous
 62
   136
100
AcDbLine
 10
1543.695478976931
 20
1615.808938629013
 30
0.0
 11
2323.69548604664
 21
1615.808938629013
 31
0.0
  0
LINE
  5
9A
330
20
100
AcDbEntity
  8
_0-0_
  6
Continuous
 62
   136
100
AcDbLine
 10
1533.695640401958
 20
1605.799301437064
 30
0.0
 11
2333.695674572219
 21
1605.799301437064
 31
0.0
  0
LINE
  5
9B
330
20
100
AcDbEntity
  8
_0-0_
  6
Continuous
 62
   136
100
AcDbLine
 10
1533.695640401958
 20
1975.808726537737
 30
0.0
 11
1543.695478976931
 21
1965.808887962764
 31
0.0
  0
LINE
  5
9C
330
20
100
AcDbEntity
  8
_0-0_
  6
Continuous
 62
   136
100
AcDbLine
 10
1543.695478976931
 20
1615.808938629013
 30
0.0
 11
1533.695640401958
 21
1605.799301437064
 31
0.0
  0
LINE
  5
9D
330
20
100
AcDbEntity
  8
_0-0_
  6
Continuous
 62
   136
100
AcDbLine
 10
2333.695674572219
 20
1975.808726537737
 30
0.0
 11
2323.69548604664
 21
1965.808887962764
 31
0.0
  0
LINE
  5
9E
330
20
100
AcDbEntity
  8
_0-0_
  6
Continuous
 62
   136
100
AcDbLine
 10
2323.69548604664
 20
1615.808938629013
 30
0.0
 11
2333.695674572219
 21
1605.799301437064
 31
0.0
  0
LINE
  5
9F
330
20
100
AcDbEntity
  8
_0-0_
  6
DASHED1
 62
     6
100
AcDbLine
 10
1336.333384554366
 20
2595.809041728939
 30
0.0
 11
1301.497114012147
 21
2595.809041728939
 31
0.0
  0
LINE
  5
A0
330
20
100
AcDbEntity
  8
_0-0_
  6
DASHED1
 62
     6
100
AcDbLine
 10
1301.497114012147
 20
2615.809418780098
 30
0.0
 11
1336.515271381989
 21
2615.809418780098
 31
0.0
  0
LINE
  5
A1
330
20
100
AcDbEntity
  8
_0-0_
  6
DASHED1
 62
     6
100
AcDbLine
 10
1301.497114012147
 20
2615.809418780098
 30
0.0
 11
1301.497114012147
 21
2595.809041728939
 31
0.0
  0
CIRCLE
  5
A2
330
20
100
AcDbEntity
  8
_0-0_
  6
DASHED1
 62
     6
100
AcDbCircle
 10
1733.695561456872
 20
2605.809230254518
 30
0.0
 40
9.999999880330442
  0
CIRCLE
  5
A3
330
20
100
AcDbEntity
  8
_0-0_
  6
DASHED1
 62
     6
100
AcDbCircle
 10
1933.695132561179
 20
2605.809230254518
 30
0.0
 40
9.999999880330442
  0
CIRCLE
  5
A4
330
20
100
AcDbEntity
  8
_0-0_
  6
DASHED1
 62
     6
100
AcDbCircle
 10
2133.695403566699
 20
2605.809230254518
 30
0.0
 40
9.999999880330442
  0
LINE
  5
A5
330
20
100
AcDbEntity
  8
_0-0_
  6
DASHED1
 62
     6
100
AcDbLine
 10
2531.058892783978
 20
2595.809041728939
 30
0.0
 11
2566.093497832317
 21
2595.809041728939
 31
0.0
  0
LINE
  5
A6
330
20
100
AcDbEntity
  8
_0-0_
  6
DASHED1
 62
     6
100
AcDbLine
 10
2566.093497832317
 20
2615.809418780098
 30
0.0
 11
2530.877093444007
 21
2615.809418780098
 31
0.0
  0
LINE
  5
A7
330
20
100
AcDbEntity
  8
_0-0_
  6
DASHED1
 62
     6
100
AcDbLine
 10
2566.093497832317
 20
2615.809418780098
 30
0.0
 11
2566.093497832317
 21
2595.809041728939
 31
0.0
  0
LINE
  5
A8
330
20
100
AcDbEntity
  8
_0-0_
  6
DASHED1
 62
     6
100
AcDbLine
 10
1298.697246698807
 20
2065.809198440827
 30
0.0
 11
1335.495602802888
 21
2065.809198440827
 31
0.0
  0
LINE
  5
A9
330
20
100
AcDbEntity
  8
_0-0_
  6
DASHED1
 62
     6
100
AcDbLine
 10
1335.822806619777
 20
2045.809171340275
 30
0.0
 11
1298.697246698807
 21
2045.809171340275
 31
0.0
  0
LINE
  5
AA
330
20
100
AcDbEntity
  8
_0-0_
  6
DASHED1
 62
     6
100
AcDbLine
 10
1298.697246698807
 20
2065.809198440827
 30
0.0
 11
1298.697246698807
 21
2045.809171340275
 31
0.0
  0
CIRCLE
  5
AB
330
20
100
AcDbEntity
  8
_0-0_
  6
DASHED1
 62
     6
100
AcDbCircle
 10
1733.695561456872
 20
2055.809009915249
 30
0.0
 40
9.999999880330442
  0
CIRCLE
  5
AC
330
20
100
AcDbEntity
  8
_0-0_
  6
DASHED1
 62
     6
100
AcDbCircle
 10
1933.695482511785
 20
2055.809009915249
 30
0.0
 40
9.999999880330442
  0
CIRCLE
  5
AD
330
20
100
AcDbEntity
  8
_0-0_
  6
DASHED1
 62
     6
100
AcDbCircle
 10
2133.695403566699
 20
2055.809009915249
 30
0.0
 40
9.999999880330442
  0
LINE
  5
AE
330
20
100
AcDbEntity
  8
_0-0_
  6
DASHED1
 62
     6
100
AcDbLine
 10
2531.567545990233
 20
2045.809171340275
 30
0.0
 11
2568.693805812416
 21
2045.809171340275
 31
0.0
  0
LINE
  5
AF
330
20
100
AcDbEntity
  8
_0-0_
  6
DASHED1
 62
     6
100
AcDbLine
 10
2568.693805812416
 20
2065.809198440827
 30
0.0
 11
2531.895099757729
 21
2065.809198440827
 31
0.0
  0
LINE
  5
B0
330
20
100
AcDbEntity
  8
_0-0_
  6
DASHED1
 62
     6
100
AcDbLine
 10
2568.693805812416
 20
2065.809198440827
 30
0.0
 11
2568.693805812416
 21
2045.809171340275
 31
0.0
  0
LINE
  5
B1
330
20
100
AcDbEntity
  8
_0-0_
  6
Continuous
 62
     7
100
AcDbLine
 10
2113.695726416754
 20
3125.809584918265
 30
0.0
 11
1273.697562773723
 21
3125.809584918265
 31
0.0
  0
LINE
  5
B2
330
20
100
AcDbEntity
  8
_0-0_
  6
Continuous
 62
     7
100
AcDbLine
 10
1263.697549223447
 20
3115.809746343292
 30
0.0
 11
1258.697542448309
 21
3025.809449415505
 31
0.0
  0
ARC
  5
B3
330
20
100
AcDbEntity
  8
_0-0_
  6
Continuous
 62
     7
100
AcDbCircle
 10
1273.697562773723
 20
3115.809746343292
 30
0.0
 40
10.00000056382772
100
AcDbArc
 50
90.0
 51
180.0
  0
LINE
  5
B4
330
20
100
AcDbEntity
  8
_0-0_
  6
Continuous
 62
     7
100
AcDbLine
 10
2623.695192653708
 20
3025.809449415505
 30
0.0
 11
1243.697522122895
 21
3025.809449415505
 31
0.0
  0
LINE
  5
B5
330
20
100
AcDbEntity
  8
_0-0_
  6
Continuous
 62
     7
100
AcDbLine
 10
1233.697071134361
 20
3015.809260889926
 30
0.0
 11
1233.697071134361
 21
1465.80856039957
 31
0.0
  0
LINE
  5
B6
330
20
100
AcDbEntity
  8
_0-0_
  6
Continuous
 62
     7
100
AcDbLine
 10
1233.696283745497
 20
3015.809260889926
 30
0.0
 11
1243.695772369863
 21
3025.809449415505
 31
0.0
  0
LINE
  5
B7
330
20
100
AcDbEntity
  8
_0-0_
  6
Continuous
 62
     7
100
AcDbLine
 10
2123.695739967029
 20
3115.809746343292
 30
0.0
 11
2128.695659254516
 21
3025.809449415505
 31
0.0
  0
ARC
  5
B8
330
20
100
AcDbEntity
  8
_0-0_
  6
Continuous
 62
     7
100
AcDbCircle
 10
2113.695726416754
 20
3115.809746343292
 30
0.0
 40
10.00000056382772
100
AcDbArc
 50
0.0
 51
90.0
  0
LINE
  5
B9
330
20
100
AcDbEntity
  8
_0-0_
  6
Continuous
 62
     7
100
AcDbLine
 10
2633.69503122868
 20
3015.809260889926
 30
0.0
 11
2633.69503122868
 21
1465.80856039957
 31
0.0
  0
LINE
  5
BA
330
20
100
AcDbEntity
  8
_0-0_
  6
Continuous
 62
     7
100
AcDbLine
 10
2623.695192653708
 20
3025.809449415505
 30
0.0
 11
2633.69503122868
 21
3015.809260889926
 31
0.0
  0
LINE
  5
BB
330
20
100
AcDbEntity
  8
_0-0_
  6
Continuous
 62
     7
100
AcDbLine
 10
1233.697071134361
 20
2305.809173696845
 30
0.0
 11
2633.69503122868
 21
2305.809173696845
 31
0.0
  0
LINE
  5
BC
330
20
100
AcDbEntity
  8
_0-0_
  6
Continuous
 62
     7
100
AcDbLine
 10
2623.693442900676
 20
1455.809071775204
 30
0.0
 11
1243.695859857515
 21
1455.809071775204
 31
0.0
  0
LINE
  5
BD
330
20
100
AcDbEntity
  8
_0-0_
  6
Continuous
 62
     7
100
AcDbLine
 10
2623.693442900676
 20
1455.809071775204
 30
0.0
 11
2633.693631426255
 21
1465.80856039957
 31
0.0
  0
LINE
  5
BE
330
20
100
AcDbEntity
  8
_0-0_
  6
Continuous
 62
     7
100
AcDbLine
 10
1233.696371233148
 20
1465.80856039957
 30
0.0
 11
1243.695859857515
 21
1455.809071775204
 31
0.0
  0
LINE
  5
BF
330
20
100
AcDbEntity
  8
_0-0_
  6
Continuous
 62
     4
100
AcDbLine
 10
2653.695031228681
 20
2305.809173696845
 30
0.0
 11
2793.695031228681
 21
2305.809173696845
 31
0.0
  0
LINE
  5
C0
330
20
100
AcDbEntity
  8
_0-0_
  6
Continuous
 62
     4
100
AcDbLine
 10
2653.695031228681
 20
2605.809173696845
 30
0.0
 11
2793.695031228681
 21
2605.809173696845
 31
0.0
  0
LINE
  5
C1
330
20
100
AcDbEntity
  8
_0-0_
  6
Continuous
 62
     4
100
AcDbLine
 10
2653.695031228681
 20
2055.809173696845
 30
0.0
 11
2793.695031228681
 21
2055.809173696845
 31
0.0
  0
LINE
  5
C2
330
20
100
AcDbEntity
  8
_0-0_
  6
Continuous
 62
     4
100
AcDbLine
 10
2783.69503122868
 20
2305.809173696845
 30
0.0
 11
2783.69503122868
 21
2055.809173696845
 31
0.0
  0
LINE
  5
C3
330
20
100
AcDbEntity
  8
_0-0_
  6
Continuous
 62
     4
100
AcDbLine
 10
2783.69503122868
 20
2605.809173696845
 30
0.0
 11
2783.69503122868
 21
2305.809173696845
 31
0.0
  0
LINE
  5
C4
330
20
100
AcDbEntity
  8
_0-0_
  6
Continuous
 62
     4
100
AcDbLine
 10
2783.69503122868
 20
2605.809173696845
 30
0.0
 11
2791.459602581756
 21
2576.831398908173
 31
0.0
  0
LINE
  5
C5
330
20
100
AcDbEntity
  8
_0-0_
  6
Continuous
 62
     4
100
AcDbLine
 10
2783.69503122868
 20
2605.809173696845
 30
0.0
 11
2775.930459875605
 21
2576.831398908173
 31
0.0
  0
LINE
  5
C6
330
20
100
AcDbEntity
  8
_0-0_
  6
Continuous
 62
     4
100
AcDbLine
 10
2783.69503122868
 20
2305.809173696845
 30
0.0
 11
2775.930459875605
 21
2334.786948485517
 31
0.0
  0
LINE
  5
C7
330
20
100
AcDbEntity
  8
_0-0_
  6
Continuous
 62
     4
100
AcDbLine
 10
2783.69503122868
 20
2305.809173696845
 30
0.0
 11
2791.459602581756
 21
2334.786948485517
 31
0.0
  0
LINE
  5
C8
330
20
100
AcDbEntity
  8
_0-0_
  6
Continuous
 62
     4
100
AcDbLine
 10
2783.69503122868
 20
2305.809173696845
 30
0.0
 11
2791.459602581756
 21
2276.831398908173
 31
0.0
  0
LINE
  5
C9
330
20
100
AcDbEntity
  8
_0-0_
  6
Continuous
 62
     4
100
AcDbLine
 10
2783.69503122868
 20
2305.809173696845
 30
0.0
 11
2775.930459875605
 21
2276.831398908173
 31
0.0
  0
LINE
  5
CA
330
20
100
AcDbEntity
  8
_0-0_
  6
Continuous
 62
     4
100
AcDbLine
 10
2783.69503122868
 20
2055.809173696845
 30
0.0
 11
2775.930459875605
 21
2084.786948485517
 31
0.0
  0
LINE
  5
CB
330
20
100
AcDbEntity
  8
_0-0_
  6
Continuous
 62
     4
100
AcDbLine
 10
2783.69503122868
 20
2055.809173696845
 30
0.0
 11
2791.459602581756
 21
2084.786948485517
 31
0.0
  0
TEXT
  5
CC
330
20
100
AcDbEntity
  8
_0-0_
 62
     7
100
AcDbText
 10
2906.372566643965
 20
1846.168958138152
 30
0.0
 40
70.0
  1
B1-750
 41
0.6600000000000001
100
AcDbText
  0
TEXT
  5
CD
330
20
100
AcDbEntity
  8
_0-0_
 62
     7
100
AcDbText
 10
2895.84675069914
 20
2630.508001424319
 30
0.0
 40
70.0
  1
B2-600
 41
0.6600000000000001
100
AcDbText
  0
TEXT
  5
CE
330
20
100
AcDbEntity
  8
_0-0_
 62
     7
100
AcDbText
 10
2894.275083094944
 20
3040.486260060736
 30
0.0
 40
70.0
  1
CR-600
 41
0.6600000000000001
100
AcDbText
  0
LINE
  5
CF
330
20
100
AcDbEntity
  8
_0-0_
  6
Continuous
 62
     7
100
AcDbLine
 10
2833.69503122868
 20
3075.809517166885
 30
0.0
 11
2893.695031228681
 21
3035.809517166885
 31
0.0
  0
LINE
  5
D0
330
20
100
AcDbEntity
  8
_0-0_
  6
Continuous
 62
     7
100
AcDbLine
 10
2893.695031228681
 20
3115.809517166885
 30
0.0
 11
2833.69503122868
 21
3075.809517166885
 31
0.0
  0
LINE
  5
D1
330
20
100
AcDbEntity
  8
_0-0_
  6
Continuous
 62
     7
100
AcDbLine
 10
2893.695031228681
 20
3115.809517166885
 30
0.0
 11
3153.695031228681
 21
3115.809517166885
 31
0.0
  0
LINE
  5
D2
330
20
100
AcDbEntity
  8
_0-0_
  6
Continuous
 62
     7
100
AcDbLine
 10
2893.695031228681
 20
3035.809517166885
 30
0.0
 11
3153.695031228681
 21
3035.809517166885
 31
0.0
  0
LINE
  5
D3
330
20
100
AcDbEntity
  8
_0-0_
  6
Continuous
 62
     7
100
AcDbLine
 10
3153.695031228681
 20
3115.809517166885
 30
0.0
 11
3153.695031228681
 21
3035.809517166885
 31
0.0
  0
LINE
  5
D4
330
20
100
AcDbEntity
  8
_0-0_
  6
Continuous
 62
     7
100
AcDbLine
 10
2893.695031228681
 20
2705.809311556175
 30
0.0
 11
3153.695031228681
 21
2705.809311556175
 31
0.0
  0
LINE
  5
D5
330
20
100
AcDbEntity
  8
_0-0_
  6
Continuous
 62
     7
100
AcDbLine
 10
3153.695031228681
 20
2705.809311556175
 30
0.0
 11
3153.695031228681
 21
2625.809311556175
 31
0.0
  0
LINE
  5
D6
330
20
100
AcDbEntity
  8
_0-0_
  6
Continuous
 62
     7
100
AcDbLine
 10
2893.695031228681
 20
2625.809311556175
 30
0.0
 11
3153.695031228681
 21
2625.809311556175
 31
0.0
  0
LINE
  5
D7
330
20
100
AcDbEntity
  8
_0-0_
  6
Continuous
 62
     7
100
AcDbLine
 10
2833.69503122868
 20
2665.809311556175
 30
0.0
 11
2893.695031228681
 21
2625.809311556175
 31
0.0
  0
LINE
  5
D8
330
20
100
AcDbEntity
  8
_0-0_
  6
Continuous
 62
     7
100
AcDbLine
 10
2893.695031228681
 20
2705.809311556175
 30
0.0
 11
2833.69503122868
 21
2665.809311556175
 31
0.0
  0
LINE
  5
D9
330
20
100
AcDbEntity
  8
_0-0_
  6
Continuous
 62
     7
100
AcDbLine
 10
2893.695031228681
 20
1920.809122736025
 30
0.0
 11
3153.695031228681
 21
1920.809122736025
 31
0.0
  0
LINE
  5
DA
330
20
100
AcDbEntity
  8
_0-0_
  6
Continuous
 62
     7
100
AcDbLine
 10
2893.695031228681
 20
1920.809122736025
 30
0.0
 11
2833.69503122868
 21
1880.809122736025
 31
0.0
  0
LINE
  5
DB
330
20
100
AcDbEntity
  8
_0-0_
  6
Continuous
 62
     7
100
AcDbLine
 10
2833.69503122868
 20
1880.809122736025
 30
0.0
 11
2893.695031228681
 21
1840.809122736025
 31
0.0
  0
LINE
  5
DC
330
20
100
AcDbEntity
  8
_0-0_
  6
Continuous
 62
     7
100
AcDbLine
 10
2893.695031228681
 20
1840.809122736025
 30
0.0
 11
3153.695031228681
 21
1840.809122736025
 31
0.0
  0
LINE
  5
DD
330
20
100
AcDbEntity
  8
_0-0_
  6
Continuous
 62
     7
100
AcDbLine
 10
3153.695031228681
 20
1920.809122736025
 30
0.0
 11
3153.695031228681
 21
1840.809122736025
 31
0.0
  0
LINE
  5
DE
330
20
100
AcDbEntity
  8
_0-0_
  6
Continuous
 62
     4
100
AcDbLine
 10
2128.695659254516
 20
3415.809584918264
 30
0.0
 11
1258.697542448309
 21
3415.809584918264
 31
0.0
  0
LINE
  5
DF
330
20
100
AcDbEntity
  8
_0-0_
  6
Continuous
 62
     4
100
AcDbLine
 10
1258.697542448309
 20
3145.809584918265
 30
0.0
 11
1258.697542448309
 21
3425.809584918265
 31
0.0
  0
LINE
  5
E0
330
20
100
AcDbEntity
  8
_0-0_
  6
Continuous
 62
     4
100
AcDbLine
 10
2128.695659254516
 20
3145.809584918265
 30
0.0
 11
2128.695659254516
 21
3425.809584918265
 31
0.0
  0
LINE
  5
E1
330
20
100
AcDbEntity
  8
_0-0_
  6
Continuous
 62
     4
100
AcDbLine
 10
1393.697542448309
 20
3145.809584918265
 30
0.0
 11
1393.697542448309
 21
3285.809584918265
 31
0.0
  0
LINE
  5
E2
330
20
100
AcDbEntity
  8
_0-0_
  6
Continuous
 62
     4
100
AcDbLine
 10
1993.695659254516
 20
3145.809584918265
 30
0.0
 11
1993.695659254516
 21
3285.809584918265
 31
0.0
  0
LINE
  5
E3
330
20
100
AcDbEntity
  8
_0-0_
  6
Continuous
 62
     4
100
AcDbLine
 10
2128.695659254516
 20
3275.809584918265
 30
0.0
 11
1993.695659254516
 21
3275.809584918265
 31
0.0
  0
LINE
  5
E4
330
20
100
AcDbEntity
  8
_0-0_
  6
Continuous
 62
     4
100
AcDbLine
 10
1393.697542448309
 20
3275.809584918265
 30
0.0
 11
1258.697542448309
 21
3275.809584918265
 31
0.0
  0
LINE
  5
E5
330
20
100
AcDbEntity
  8
_0-0_
  6
Continuous
 62
     4
100
AcDbLine
 10
1993.695659254516
 20
3275.809584918265
 30
0.0
 11
1393.697542448309
 21
3275.809584918265
 31
0.0
  0
LINE
  5
E6
330
20
100
AcDbEntity
  8
_0-0_
  6
Continuous
 62
     4
100
AcDbLine
 10
2128.695659254516
 20
3415.809584918264
 30
0.0
 11
2099.717884465844
 21
3408.045013565189
 31
0.0
  0
LINE
  5
E7
330
20
100
AcDbEntity
  8
_0-0_
  6
Continuous
 62
     4
100
AcDbLine
 10
2128.695659254516
 20
3415.809584918264
 30
0.0
 11
2099.717884465844
 21
3423.57415627134
 31
0.0
  0
LINE
  5
E8
330
20
100
AcDbEntity
  8
_0-0_
  6
Continuous
 62
     4
100
AcDbLine
 10
2128.695659254516
 20
3275.809584918265
 30
0.0
 11
2099.717884465844
 21
3268.045013565189
 31
0.0
  0
LINE
  5
E9
330
20
100
AcDbEntity
  8
_0-0_
  6
Continuous
 62
     4
100
AcDbLine
 10
2128.695659254516
 20
3275.809584918265
 30
0.0
 11
2099.717884465844
 21
3283.57415627134
 31
0.0
  0
LINE
  5
EA
330
20
100
AcDbEntity
  8
_0-0_
  6
Continuous
 62
     4
100
AcDbLine
 10
1993.695659254516
 20
3275.809584918265
 30
0.0
 11
2022.673434043188
 21
3283.57415627134
 31
0.0
  0
LINE
  5
EB
330
20
100
AcDbEntity
  8
_0-0_
  6
Continuous
 62
     4
100
AcDbLine
 10
1993.695659254516
 20
3275.809584918265
 30
0.0
 11
2022.673434043188
 21
3268.045013565189
 31
0.0
  0
LINE
  5
EC
330
20
100
AcDbEntity
  8
_0-0_
  6
Continuous
 62
     4
100
AcDbLine
 10
1993.695659254516
 20
3275.809584918265
 30
0.0
 11
1964.717884465844
 21
3268.045013565189
 31
0.0
  0
LINE
  5
ED
330
20
100
AcDbEntity
  8
_0-0_
  6
Continuous
 62
     4
100
AcDbLine
 10
1993.695659254516
 20
3275.809584918265
 30
0.0
 11
1964.717884465844
 21
3283.57415627134
 31
0.0
  0
LINE
  5
EE
330
20
100
AcDbEntity
  8
_0-0_
  6
Continuous
 62
     4
100
AcDbLine
 10
1393.697542448309
 20
3275.809584918265
 30
0.0
 11
1422.675317236981
 21
3283.57415627134
 31
0.0
  0
LINE
  5
EF
330
20
100
AcDbEntity
  8
_0-0_
  6
Continuous
 62
     4
100
AcDbLine
 10
1393.697542448309
 20
3275.809584918265
 30
0.0
 11
1422.675317236981
 21
3268.045013565189
 31
0.0
  0
LINE
  5
F0
330
20
100
AcDbEntity
  8
_0-0_
  6
Continuous
 62
     4
100
AcDbLine
 10
1393.697542448309
 20
3275.809584918265
 30
0.0
 11
1364.719767659637
 21
3268.045013565189
 31
0.0
  0
LINE
  5
F1
330
20
100
AcDbEntity
  8
_0-0_
  6
Continuous
 62
     4
100
AcDbLine
 10
1393.697542448309
 20
3275.809584918265
 30
0.0
 11
1364.719767659637
 21
3283.57415627134
 31
0.0
  0
LINE
  5
F2
330
20
100
AcDbEntity
  8
_0-0_
  6
Continuous
 62
     4
100
AcDbLine
 10
1258.697542448309
 20
3275.809584918265
 30
0.0
 11
1287.675317236981
 21
3283.57415627134
 31
0.0
  0
LINE
  5
F3
330
20
100
AcDbEntity
  8
_0-0_
  6
Continuous
 62
     4
100
AcDbLine
 10
1258.697542448309
 20
3275.809584918265
 30
0.0
 11
1287.675317236981
 21
3268.045013565189
 31
0.0
  0
LINE
  5
F4
330
20
100
AcDbEntity
  8
_0-0_
  6
Continuous
 62
     4
100
AcDbLine
 10
1258.697542448309
 20
3415.809584918264
 30
0.0
 11
1287.675317236981
 21
3423.57415627134
 31
0.0
  0
LINE
  5
F5
330
20
100
AcDbEntity
  8
_0-0_
  6
Continuous
 62
     4
100
AcDbLine
 10
1258.697542448309
 20
3415.809584918264
 30
0.0
 11
1287.675317236981
 21
3408.045013565189
 31
0.0
  0
TEXT
  5
F6
330
20
100
AcDbEntity
  8
_0-0_
 62
     7
100
AcDbText
 10
1581.201452557479
 20
3289.77041929524
 30
0.0
 40
60.0
  1
φ600
100
AcDbText
  0
TEXT
  5
F7
330
20
100
AcDbEntity
  8
_0-0_
 62
     7
100
AcDbText
 10
1572.403157142042
 20
3427.610199269194
 30
0.0
 40
60.0
  1
φ870
100
AcDbText
  0
TEXT
  5
F8
330
20
100
AcDbEntity
  8
_0-0_
 62
     7
100
AcDbText
 10
1278.256343598498
 20
3285.507333316664
 30
0.0
 40
60.0
  1
135
100
AcDbText
  0
TEXT
  5
F9
330
20
100
AcDbEntity
  8
_0-0_
 62
     7
100
AcDbText
 10
1981.592898724432
 20
3285.507333316664
 30
0.0
 40
60.0
  1
135
100
AcDbText
  0
LINE
  5
FA
330
20
100
AcDbEntity
  8
_0-0_
  6
DASHED1
 62
   136
100
AcDbLine
 10
4992.029888159224
 20
2977.300010186601
 30
0.0
 11
4212.029881089516
 21
2977.300010186601
 31
0.0
  0
LINE
  5
FB
330
20
100
AcDbEntity
  8
_0-0_
  6
DASHED1
 62
   136
100
AcDbLine
 10
4212.029881089516
 20
2977.300010186601
 30
0.0
 11
4202.030042514542
 21
3012.299970124916
 31
0.0
  0
LINE
  5
FC
330
20
100
AcDbEntity
  8
_0-0_
  6
DASHED1
 62
   136
100
AcDbLine
 10
5002.029726734199
 20
3012.299970124916
 30
0.0
 11
4992.029888159224
 21
2977.300010186601
 31
0.0
  0
LINE
  5
FD
330
20
100
AcDbEntity
  8
_0-0_
  6
DASHED1
 62
   136
100
AcDbLine
 10
5152.03115481546
 20
2912.300184572762
 30
0.0
 11
4052.02861443328
 21
2912.300184572762
 31
0.0
  0
LINE
  5
FE
330
20
100
AcDbEntity
  8
_0-0_
  6
DASHED1
 62
   136
100
AcDbLine
 10
5202.03069764093
 20
2862.300291796685
 30
0.0
 11
4002.029071607809
 21
2862.300291796685
 31
0.0
  0
LINE
  5
FF
330
20
100
AcDbEntity
  8
_0-0_
  6
DASHED1
 62
   136
100
AcDbLine
 10
5152.03115481546
 20
1712.299958342067
 30
0.0
 11
5152.03115481546
 21
2912.300184572762
 31
0.0
  0
LINE
  5
100
330
20
100
AcDbEntity
  8
_0-0_
  6
DASHED1
 62
   136
100
AcDbLine
 10
5202.03069764093
 20
1762.299851118143
 30
0.0
 11
5202.03069764093
 21
2862.300291796685
 31
0.0
  0
LINE
  5
101
330
20
100
AcDbEntity
  8
_0-0_
  6
DASHED1
 62
   136
100
AcDbLine
 10
5152.03115481546
 20
2912.300184572762
 30
0.0
 11
5202.03069764093
 21
2862.300291796685
 31
0.0
  0
LINE
  5
102
330
20
100
AcDbEntity
  8
_0-0_
  6
DASHED1
 62
   136
100
AcDbLine
 10
5267.030173304164
 20
2702.299725041662
 30
0.0
 11
5302.030133242478
 21
2712.299563616635
 31
0.0
  0
LINE
  5
103
330
20
100
AcDbEntity
  8
_0-0_
  6
DASHED1
 62
   136
100
AcDbLine
 10
5267.030173304164
 20
1922.299717971952
 30
0.0
 11
5267.030173304164
 21
2702.299725041662
 31
0.0
  0
LINE
  5
104
330
20
100
AcDbEntity
  8
_0-0_
  6
DASHED1
 62
   136
100
AcDbLine
 10
4052.02861443328
 20
2912.300184572762
 30
0.0
 11
4052.02861443328
 21
1712.299958342067
 31
0.0
  0
LINE
  5
105
330
20
100
AcDbEntity
  8
_0-0_
  6
DASHED1
 62
   136
100
AcDbLine
 10
4002.029071607809
 20
1762.299851118143
 30
0.0
 11
4002.029071607809
 21
2862.300291796685
 31
0.0
  0
LINE
  5
106
330
20
100
AcDbEntity
  8
_0-0_
  6
DASHED1
 62
   136
100
AcDbLine
 10
4002.029071607809
 20
2862.300291796685
 30
0.0
 11
4052.02861443328
 21
2912.300184572762
 31
0.0
  0
LINE
  5
107
330
20
100
AcDbEntity
  8
_0-0_
  6
DASHED1
 62
   136
100
AcDbLine
 10
3902.029636006263
 20
2712.299563616635
 30
0.0
 11
3937.029595944577
 21
2702.299725041662
 31
0.0
  0
LINE
  5
108
330
20
100
AcDbEntity
  8
_0-0_
  6
DASHED1
 62
   136
100
AcDbLine
 10
3937.029595944577
 20
2702.299725041662
 30
0.0
 11
3937.029595944577
 21
1922.299717971952
 31
0.0
  0
ARC
  5
109
330
20
100
AcDbEntity
  8
_0-0_
  6
DASHED1
 62
   136
100
AcDbCircle
 10
4602.029184723158
 20
2312.300071457414
 30
0.0
 40
89.99999072100663
100
AcDbArc
 50
304.2261047363281
 51
55.7738952636719
  0
ARC
  5
10A
330
20
100
AcDbEntity
  8
_0-0_
  6
DASHED1
 62
   136
100
AcDbCircle
 10
4602.029184723158
 20
2312.300071457414
 30
0.0
 40
100.0000042712826
100
AcDbArc
 50
297.8158569335938
 51
62.18414306640626
  0
LINE
  5
10B
330
20
100
AcDbEntity
  8
_0-0_
  6
DASHED1
 62
   136
100
AcDbLine
 10
5302.030133242478
 20
1912.29987939698
 30
0.0
 11
5267.030173304164
 21
1922.299717971952
 31
0.0
  0
LINE
  5
10C
330
20
100
AcDbEntity
  8
_0-0_
  6
DASHED1
 62
   136
100
AcDbLine
 10
4002.029071607809
 20
1762.299851118143
 30
0.0
 11
5202.03069764093
 21
1762.299851118143
 31
0.0
  0
LINE
  5
10D
330
20
100
AcDbEntity
  8
_0-0_
  6
DASHED1
 62
   136
100
AcDbLine
 10
4052.02861443328
 20
1712.299958342067
 30
0.0
 11
5152.03115481546
 21
1712.299958342067
 31
0.0
  0
LINE
  5
10E
330
20
100
AcDbEntity
  8
_0-0_
  6
DASHED1
 62
   136
100
AcDbLine
 10
5202.03069764093
 20
1762.299851118143
 30
0.0
 11
5152.03115481546
 21
1712.299958342067
 31
0.0
  0
LINE
  5
10F
330
20
100
AcDbEntity
  8
_0-0_
  6
DASHED1
 62
   136
100
AcDbLine
 10
4992.029888159224
 20
1647.299432827014
 30
0.0
 11
5002.029726734199
 21
1612.2994728887
 31
0.0
  0
LINE
  5
110
330
20
100
AcDbEntity
  8
_0-0_
  6
DASHED1
 62
   136
100
AcDbLine
 10
4212.029881089516
 20
1647.299432827014
 30
0.0
 11
4992.029888159224
 21
1647.299432827014
 31
0.0
  0
LINE
  5
111
330
20
100
AcDbEntity
  8
_0-0_
  6
DASHED1
 62
   136
100
AcDbLine
 10
4202.030042514542
 20
1612.2994728887
 30
0.0
 11
4212.029881089516
 21
1647.299432827014
 31
0.0
  0
LINE
  5
112
330
20
100
AcDbEntity
  8
_0-0_
  6
DASHED1
 62
   136
100
AcDbLine
 10
4052.02861443328
 20
1712.299958342067
 30
0.0
 11
4002.029071607809
 21
1762.299851118143
 31
0.0
  0
LINE
  5
113
330
20
100
AcDbEntity
  8
_0-0_
  6
DASHED1
 62
   136
100
AcDbLine
 10
3937.029595944577
 20
1922.299717971952
 30
0.0
 11
3902.029636006263
 21
1912.29987939698
 31
0.0
  0
ARC
  5
114
330
20
100
AcDbEntity
  8
_0-0_
  6
Continuous
 62
   136
100
AcDbCircle
 10
4602.029184723158
 20
2312.300071457414
 30
0.0
 40
100.0000042712826
100
AcDbArc
 50
62.18414306640625
 51
297.8158569335937
  0
ARC
  5
115
330
20
100
AcDbEntity
  8
_0-0_
  6
Continuous
 62
   136
100
AcDbCircle
 10
4602.029184723158
 20
2312.300071457414
 30
0.0
 40
89.99999072100663
100
AcDbArc
 50
55.77389526367188
 51
304.2261047363281
  0
LINE
  5
116
330
20
100
AcDbEntity
  8
_0-0_
  6
Continuous
 62
   136
100
AcDbLine
 10
4307.100222977093
 20
2607.229170137915
 30
0.0
 11
4531.318786048145
 21
2383.011035059087
 31
0.0
  0
LINE
  5
117
330
20
100
AcDbEntity
  8
_0-0_
  6
Continuous
 62
   136
100
AcDbLine
 10
4307.100222977093
 20
2017.370972776913
 30
0.0
 11
4531.318786048145
 21
2241.589107855741
 31
0.0
  0
LINE
  5
118
330
20
100
AcDbEntity
  8
_0-0_
  6
DASHED1
 62
   136
100
AcDbLine
 10
4307.100222977093
 20
2017.370972776913
 30
0.0
 11
4052.02861443328
 21
1762.299851118143
 31
0.0
  0
LINE
  5
119
330
20
100
AcDbEntity
  8
_0-0_
  6
DASHED1
 62
   136
100
AcDbLine
 10
4307.100222977093
 20
2607.229170137915
 30
0.0
 11
4052.02861443328
 21
2862.300291796685
 31
0.0
  0
LINE
  5
11A
330
20
100
AcDbEntity
  8
_0-0_
  6
DASHED1
 62
   136
100
AcDbLine
 10
4672.740283298048
 20
2383.010335157875
 30
0.0
 11
5152.03115481546
 21
2862.300291796685
 31
0.0
  0
LINE
  5
11B
330
20
100
AcDbEntity
  8
_0-0_
  6
DASHED1
 62
   136
100
AcDbLine
 10
4672.740283298048
 20
2241.589807756953
 30
0.0
 11
5152.03115481546
 21
1762.299851118143
 31
0.0
  0
LINE
  5
11C
330
20
100
AcDbEntity
  8
_0-0_
  6
DASHED1
 62
     6
100
AcDbLine
 10
4392.029425093271
 20
2947.300144511077
 30
0.0
 11
4392.029425093271
 21
2912.300184572762
 31
0.0
  0
LINE
  5
11D
330
20
100
AcDbEntity
  8
_0-0_
  6
DASHED1
 62
     6
100
AcDbLine
 10
4412.028402342005
 20
2947.300144511077
 30
0.0
 11
4392.029425093271
 21
2947.300144511077
 31
0.0
  0
LINE
  5
11E
330
20
100
AcDbEntity
  8
_0-0_
  6
DASHED1
 62
     6
100
AcDbLine
 10
4412.028402342005
 20
2912.300184572762
 30
0.0
 11
4412.028402342005
 21
2947.300144511077
 31
0.0
  0
LINE
  5
11F
330
20
100
AcDbEntity
  8
_0-0_
  6
DASHED1
 62
     6
100
AcDbLine
 10
4592.028996197577
 20
2947.300144511077
 30
0.0
 11
4592.028996197577
 21
2912.300184572762
 31
0.0
  0
LINE
  5
120
330
20
100
AcDbEntity
  8
_0-0_
  6
DASHED1
 62
     6
100
AcDbLine
 10
4612.028673347523
 20
2947.300144511077
 30
0.0
 11
4592.028996197577
 21
2947.300144511077
 31
0.0
  0
LINE
  5
121
330
20
100
AcDbEntity
  8
_0-0_
  6
DASHED1
 62
     6
100
AcDbLine
 10
4612.028673347523
 20
2912.300184572762
 30
0.0
 11
4612.028673347523
 21
2947.300144511077
 31
0.0
  0
LINE
  5
122
330
20
100
AcDbEntity
  8
_0-0_
  6
DASHED1
 62
     6
100
AcDbLine
 10
4792.028567301886
 20
2947.300144511077
 30
0.0
 11
4792.028567301886
 21
2912.300184572762
 31
0.0
  0
LINE
  5
123
330
20
100
AcDbEntity
  8
_0-0_
  6
DASHED1
 62
     6
100
AcDbLine
 10
4812.028944353044
 20
2947.300144511077
 30
0.0
 11
4792.028567301886
 21
2947.300144511077
 31
0.0
  0
LINE
  5
124
330
20
100
AcDbEntity
  8
_0-0_
  6
DASHED1
 62
     6
100
AcDbLine
 10
4812.028944353044
 20
2912.300184572762
 30
0.0
 11
4812.028944353044
 21
2947.300144511077
 31
0.0
  0
LINE
  5
125
330
20
100
AcDbEntity
  8
_0-0_
  6
DASHED1
 62
     6
100
AcDbLine
 10
5237.028557875607
 20
2522.299831087301
 30
0.0
 11
5202.029297838506
 21
2522.299831087301
 31
0.0
  0
LINE
  5
126
330
20
100
AcDbEntity
  8
_0-0_
  6
DASHED1
 62
     6
100
AcDbLine
 10
5202.029297838506
 20
2502.300153937355
 30
0.0
 11
5237.028557875607
 21
2502.300153937355
 31
0.0
  0
LINE
  5
127
330
20
100
AcDbEntity
  8
_0-0_
  6
DASHED1
 62
     6
100
AcDbLine
 10
5237.028557875607
 20
2502.300153937355
 30
0.0
 11
5237.028557875607
 21
2522.299831087301
 31
0.0
  0
LINE
  5
128
330
20
100
AcDbEntity
  8
_0-0_
  6
DASHED1
 62
     6
100
AcDbLine
 10
5237.028557875607
 20
2322.299910032387
 30
0.0
 11
5202.029297838506
 21
2322.299910032387
 31
0.0
  0
LINE
  5
129
330
20
100
AcDbEntity
  8
_0-0_
  6
DASHED1
 62
     6
100
AcDbLine
 10
5202.029297838506
 20
2302.300232882441
 30
0.0
 11
5237.028557875607
 21
2302.300232882441
 31
0.0
  0
LINE
  5
12A
330
20
100
AcDbEntity
  8
_0-0_
  6
DASHED1
 62
     6
100
AcDbLine
 10
5237.028557875607
 20
2302.300232882441
 30
0.0
 11
5237.028557875607
 21
2322.299910032387
 31
0.0
  0
LINE
  5
12B
330
20
100
AcDbEntity
  8
_0-0_
  6
DASHED1
 62
     6
100
AcDbLine
 10
5237.028557875607
 20
2122.299988977473
 30
0.0
 11
5202.029297838506
 21
2122.299988977473
 31
0.0
  0
LINE
  5
12C
330
20
100
AcDbEntity
  8
_0-0_
  6
DASHED1
 62
     6
100
AcDbLine
 10
5202.029297838506
 20
2102.300311827527
 30
0.0
 11
5237.028557875607
 21
2102.300311827527
 31
0.0
  0
LINE
  5
12D
330
20
100
AcDbEntity
  8
_0-0_
  6
DASHED1
 62
     6
100
AcDbLine
 10
5237.028557875607
 20
2102.300311827527
 30
0.0
 11
5237.028557875607
 21
2122.299988977473
 31
0.0
  0
LINE
  5
12E
330
20
100
AcDbEntity
  8
_0-0_
  6
DASHED1
 62
     6
100
AcDbLine
 10
4812.028944353044
 20
1677.299998403751
 30
0.0
 11
4812.028944353044
 21
1712.299958342067
 31
0.0
  0
LINE
  5
12F
330
20
100
AcDbEntity
  8
_0-0_
  6
DASHED1
 62
     6
100
AcDbLine
 10
4792.028567301886
 20
1677.299998403751
 30
0.0
 11
4812.028944353044
 21
1677.299998403751
 31
0.0
  0
LINE
  5
130
330
20
100
AcDbEntity
  8
_0-0_
  6
DASHED1
 62
     6
100
AcDbLine
 10
4792.028567301886
 20
1712.299958342067
 30
0.0
 11
4792.028567301886
 21
1677.299998403751
 31
0.0
  0
LINE
  5
131
330
20
100
AcDbEntity
  8
_0-0_
  6
DASHED1
 62
     6
100
AcDbLine
 10
4592.028996197577
 20
1677.299998403751
 30
0.0
 11
4612.028673347523
 21
1677.299998403751
 31
0.0
  0
LINE
  5
132
330
20
100
AcDbEntity
  8
_0-0_
  6
DASHED1
 62
     6
100
AcDbLine
 10
4612.028673347523
 20
1677.299998403751
 30
0.0
 11
4612.028673347523
 21
1712.299958342067
 31
0.0
  0
LINE
  5
133
330
20
100
AcDbEntity
  8
_0-0_
  6
DASHED1
 62
     6
100
AcDbLine
 10
4592.028996197577
 20
1712.299958342067
 30
0.0
 11
4592.028996197577
 21
1677.299998403751
 31
0.0
  0
LINE
  5
134
330
20
100
AcDbEntity
  8
_0-0_
  6
DASHED1
 62
     6
100
AcDbLine
 10
4412.028402342005
 20
1677.299998403751
 30
0.0
 11
4412.028402342005
 21
1712.299958342067
 31
0.0
  0
LINE
  5
135
330
20
100
AcDbEntity
  8
_0-0_
  6
DASHED1
 62
     6
100
AcDbLine
 10
4392.029425093271
 20
1677.299998403751
 30
0.0
 11
4412.028402342005
 21
1677.299998403751
 31
0.0
  0
LINE
  5
136
330
20
100
AcDbEntity
  8
_0-0_
  6
DASHED1
 62
     6
100
AcDbLine
 10
4392.029425093271
 20
1712.299958342067
 30
0.0
 11
4392.029425093271
 21
1677.299998403751
 31
0.0
  0
LINE
  5
137
330
20
100
AcDbEntity
  8
_0-0_
  6
DASHED1
 62
     6
100
AcDbLine
 10
3967.028411768284
 20
2502.300153937355
 30
0.0
 11
4002.029071607809
 21
2502.300153937355
 31
0.0
  0
LINE
  5
138
330
20
100
AcDbEntity
  8
_0-0_
  6
DASHED1
 62
     6
100
AcDbLine
 10
4002.029071607809
 20
2522.299831087301
 30
0.0
 11
3967.028411768284
 21
2522.299831087301
 31
0.0
  0
LINE
  5
139
330
20
100
AcDbEntity
  8
_0-0_
  6
DASHED1
 62
     6
100
AcDbLine
 10
3967.028411768284
 20
2522.299831087301
 30
0.0
 11
3967.028411768284
 21
2502.300153937355
 31
0.0
  0
LINE
  5
13A
330
20
100
AcDbEntity
  8
_0-0_
  6
DASHED1
 62
     6
100
AcDbLine
 10
4002.029071607809
 20
2322.299910032387
 30
0.0
 11
3967.028411768284
 21
2322.299910032387
 31
0.0
  0
LINE
  5
13B
330
20
100
AcDbEntity
  8
_0-0_
  6
DASHED1
 62
     6
100
AcDbLine
 10
3967.028411768284
 20
2302.300232882441
 30
0.0
 11
4002.029071607809
 21
2302.300232882441
 31
0.0
  0
LINE
  5
13C
330
20
100
AcDbEntity
  8
_0-0_
  6
DASHED1
 62
     6
100
AcDbLine
 10
3967.028411768284
 20
2322.299910032387
 30
0.0
 11
3967.028411768284
 21
2302.300232882441
 31
0.0
  0
LINE
  5
13D
330
20
100
AcDbEntity
  8
_0-0_
  6
DASHED1
 62
     6
100
AcDbLine
 10
4002.029071607809
 20
2122.299988977473
 30
0.0
 11
3967.028411768284
 21
2122.299988977473
 31
0.0
  0
LINE
  5
13E
330
20
100
AcDbEntity
  8
_0-0_
  6
DASHED1
 62
     6
100
AcDbLine
 10
3967.028411768284
 20
2102.300311827527
 30
0.0
 11
4002.029071607809
 21
2102.300311827527
 31
0.0
  0
LINE
  5
13F
330
20
100
AcDbEntity
  8
_0-0_
  6
DASHED1
 62
     6
100
AcDbLine
 10
3967.028411768284
 20
2122.299988977473
 30
0.0
 11
3967.028411768284
 21
2102.300311827527
 31
0.0
  0
LINE
  5
140
330
20
100
AcDbEntity
  8
_0-0_
  6
Continuous
 62
     7
100
AcDbLine
 10
5292.030994568719
 20
3012.299970124916
 30
0.0
 11
3912.028774680023
 21
3012.299970124916
 31
0.0
  0
LINE
  5
141
330
20
100
AcDbEntity
  8
_0-0_
  6
Continuous
 62
     7
100
AcDbLine
 10
3902.028586154444
 20
1622.300011364885
 30
0.0
 11
3902.028586154444
 21
3002.300131549943
 31
0.0
  0
LINE
  5
142
330
20
100
AcDbEntity
  8
_0-0_
  6
Continuous
 62
     7
100
AcDbLine
 10
3902.028586154444
 20
3002.300131549943
 30
0.0
 11
3912.028774680023
 21
3012.299970124916
 31
0.0
  0
LINE
  5
143
330
20
100
AcDbEntity
  8
_0-0_
  6
Continuous
 62
     7
100
AcDbLine
 10
5302.031183094296
 20
1622.300011364885
 30
0.0
 11
5302.031183094296
 21
3002.300131549943
 31
0.0
  0
LINE
  5
144
330
20
100
AcDbEntity
  8
_0-0_
  6
Continuous
 62
     7
100
AcDbLine
 10
5292.030994568719
 20
3012.299970124916
 30
0.0
 11
5302.031183094296
 21
3002.300131549943
 31
0.0
  0
CIRCLE
  5
145
330
20
100
AcDbEntity
  8
_0-0_
  6
Continuous
 62
     7
100
AcDbCircle
 10
4362.026059911682
 20
2312.300071457414
 30
0.0
 40
435.0000645110965
  0
CIRCLE
  5
146
330
20
100
AcDbEntity
  8
_0-0_
  6
Continuous
 62
     7
100
AcDbCircle
 10
4362.026059911682
 20
2312.300071457414
 30
0.0
 40
300.0000346857608
  0
LINE
  5
147
330
20
100
AcDbEntity
  8
_0-0_
  6
Continuous
 62
     7
100
AcDbLine
 10
3912.028774680023
 20
1612.299822839306
 30
0.0
 11
5292.030994568719
 21
1612.299822839306
 31
0.0
  0
LINE
  5
148
330
20
100
AcDbEntity
  8
_0-0_
  6
Continuous
 62
     7
100
AcDbLine
 10
3912.028774680023
 20
1612.299822839306
 30
0.0
 11
3902.028586154444
 21
1622.300011364885
 31
0.0
  0
LINE
  5
149
330
20
100
AcDbEntity
  8
_0-0_
  6
Continuous
 62
     7
100
AcDbLine
 10
5302.031183094296
 20
1622.300011364885
 30
0.0
 11
5292.030994568719
 21
1612.299822839306
 31
0.0
  0
LINE
  5
14A
330
20
100
AcDbEntity
  8
_0-0_
  6
Continuous
 62
     4
100
AcDbLine
 10
5302.031183094296
 20
3442.299970124916
 30
0.0
 11
3902.028586154444
 21
3442.299970124916
 31
0.0
  0
LINE
  5
14B
330
20
100
AcDbEntity
  8
_0-0_
  6
Continuous
 62
     4
100
AcDbLine
 10
3902.028586154444
 20
3032.299970124916
 30
0.0
 11
3902.028586154444
 21
3452.299970124916
 31
0.0
  0
LINE
  5
14C
330
20
100
AcDbEntity
  8
_0-0_
  6
Continuous
 62
     4
100
AcDbLine
 10
5302.031183094296
 20
3032.299970124916
 30
0.0
 11
5302.031183094296
 21
3452.299970124916
 31
0.0
  0
LINE
  5
14D
330
20
100
AcDbEntity
  8
_0-0_
  6
Continuous
 62
     4
100
AcDbLine
 10
5322.031183094297
 20
2702.299725041662
 30
0.0
 11
5462.031183094296
 21
2702.299725041662
 31
0.0
  0
LINE
  5
14E
330
20
100
AcDbEntity
  8
_0-0_
  6
Continuous
 62
     4
100
AcDbLine
 10
5452.031183094296
 20
1922.299717971952
 30
0.0
 11
5452.031183094296
 21
2702.299725041662
 31
0.0
  0
LINE
  5
14F
330
20
100
AcDbEntity
  8
_0-0_
  6
Continuous
 62
     4
100
AcDbLine
 10
5322.031183094297
 20
1922.299717971952
 30
0.0
 11
5462.031183094296
 21
1922.299717971952
 31
0.0
  0
LINE
  5
150
330
20
100
AcDbEntity
  8
_0-0_
  6
Continuous
 62
     4
100
AcDbLine
 10
3472.028586154443
 20
1612.299822839306
 30
0.0
 11
3472.028586154443
 21
3012.299970124916
 31
0.0
  0
LINE
  5
151
330
20
100
AcDbEntity
  8
_0-0_
  6
Continuous
 62
     4
100
AcDbLine
 10
3882.028586154444
 20
1612.299822839306
 30
0.0
 11
3462.028586154444
 21
1612.299822839306
 31
0.0
  0
LINE
  5
152
330
20
100
AcDbEntity
  8
_0-0_
  6
Continuous
 62
     4
100
AcDbLine
 10
3882.028586154444
 20
3012.299970124916
 30
0.0
 11
3462.028586154444
 21
3012.299970124916
 31
0.0
  0
LINE
  5
153
330
20
100
AcDbEntity
  8
_0-0_
  6
Continuous
 62
     4
100
AcDbLine
 10
4002.028586154444
 20
3032.299970124916
 30
0.0
 11
4002.028586154444
 21
3312.299970124916
 31
0.0
  0
LINE
  5
154
330
20
100
AcDbEntity
  8
_0-0_
  6
Continuous
 62
     4
100
AcDbLine
 10
5202.031183094296
 20
3032.299970124916
 30
0.0
 11
5202.031183094296
 21
3312.299970124916
 31
0.0
  0
LINE
  5
155
330
20
100
AcDbEntity
  8
_0-0_
  6
Continuous
 62
     4
100
AcDbLine
 10
5302.031183094296
 20
3302.299970124916
 30
0.0
 11
5202.031183094296
 21
3302.299970124916
 31
0.0
  0
LINE
  5
156
330
20
100
AcDbEntity
  8
_0-0_
  6
Continuous
 62
     4
100
AcDbLine
 10
4002.028586154444
 20
3302.299970124916
 30
0.0
 11
3902.028586154444
 21
3302.299970124916
 31
0.0
  0
LINE
  5
157
330
20
100
AcDbEntity
  8
_0-0_
  6
Continuous
 62
     4
100
AcDbLine
 10
5202.031183094296
 20
3302.299970124916
 30
0.0
 11
4002.028586154444
 21
3302.299970124916
 31
0.0
  0
LINE
  5
158
330
20
100
AcDbEntity
  8
_0-0_
  6
Continuous
 62
     4
100
AcDbLine
 10
4052.028586154444
 20
3032.299970124916
 30
0.0
 11
4052.028586154444
 21
3172.299970124916
 31
0.0
  0
LINE
  5
159
330
20
100
AcDbEntity
  8
_0-0_
  6
Continuous
 62
     4
100
AcDbLine
 10
5152.031183094297
 20
3032.299970124916
 30
0.0
 11
5152.031183094297
 21
3172.299970124916
 31
0.0
  0
LINE
  5
15A
330
20
100
AcDbEntity
  8
_0-0_
  6
Continuous
 62
     4
100
AcDbLine
 10
4102.028586154444
 20
3162.299970124916
 30
0.0
 11
4052.028586154444
 21
3162.299970124916
 31
0.0
  0
LINE
  5
15B
330
20
100
AcDbEntity
  8
_0-0_
  6
Continuous
 62
     4
100
AcDbLine
 10
4002.028586154444
 20
3162.299970124916
 30
0.0
 11
3952.028586154444
 21
3162.299970124916
 31
0.0
  0
LINE
  5
15C
330
20
100
AcDbEntity
  8
_0-0_
  6
Continuous
 62
     4
100
AcDbLine
 10
5252.031183094296
 20
3162.299970124916
 30
0.0
 11
5202.031183094296
 21
3162.299970124916
 31
0.0
  0
LINE
  5
15D
330
20
100
AcDbEntity
  8
_0-0_
  6
Continuous
 62
     4
100
AcDbLine
 10
5152.031183094297
 20
3162.299970124916
 30
0.0
 11
5102.031183094297
 21
3162.299970124916
 31
0.0
  0
LINE
  5
15E
330
20
100
AcDbEntity
  8
_0-0_
  6
Continuous
 62
     4
100
AcDbLine
 10
5202.031183094296
 20
3162.299970124916
 30
0.0
 11
5152.031183094297
 21
3162.299970124916
 31
0.0
  0
LINE
  5
15F
330
20
100
AcDbEntity
  8
_0-0_
  6
Continuous
 62
     4
100
AcDbLine
 10
4052.028586154444
 20
3162.299970124916
 30
0.0
 11
4002.028586154444
 21
3162.299970124916
 31
0.0
  0
LINE
  5
160
330
20
100
AcDbEntity
  8
_0-0_
  6
Continuous
 62
     4
100
AcDbLine
 10
4602.029884624371
 20
3172.299970124916
 30
0.0
 11
4602.029884624371
 21
3032.299970124916
 31
0.0
  0
LINE
  5
161
330
20
100
AcDbEntity
  8
_0-0_
  6
Continuous
 62
     4
100
AcDbLine
 10
4802.029884624371
 20
3172.299970124916
 30
0.0
 11
4802.029884624371
 21
3032.299970124916
 31
0.0
  0
LINE
  5
162
330
20
100
AcDbEntity
  8
_0-0_
  6
Continuous
 62
     4
100
AcDbLine
 10
4402.029884624369
 20
3172.299970124916
 30
0.0
 11
4402.029884624369
 21
3032.299970124916
 31
0.0
  0
LINE
  5
163
330
20
100
AcDbEntity
  8
_0-0_
  6
Continuous
 62
     4
100
AcDbLine
 10
4602.029884624371
 20
3162.299970124916
 30
0.0
 11
4402.029884624369
 21
3162.299970124916
 31
0.0
  0
LINE
  5
164
330
20
100
AcDbEntity
  8
_0-0_
  6
Continuous
 62
     4
100
AcDbLine
 10
4802.029884624371
 20
3162.299970124916
 30
0.0
 11
4602.029884624371
 21
3162.299970124916
 31
0.0
  0
LINE
  5
165
330
20
100
AcDbEntity
  8
_0-0_
  6
Continuous
 62
     4
100
AcDbLine
 10
5452.031183094296
 20
2702.299725041662
 30
0.0
 11
5459.795754447373
 21
2673.32195025299
 31
0.0
  0
LINE
  5
166
330
20
100
AcDbEntity
  8
_0-0_
  6
Continuous
 62
     4
100
AcDbLine
 10
5452.031183094296
 20
2702.299725041662
 30
0.0
 11
5444.266611741221
 21
2673.32195025299
 31
0.0
  0
LINE
  5
167
330
20
100
AcDbEntity
  8
_0-0_
  6
Continuous
 62
     4
100
AcDbLine
 10
5452.031183094296
 20
1922.299717971952
 30
0.0
 11
5444.266611741221
 21
1951.277492760625
 31
0.0
  0
LINE
  5
168
330
20
100
AcDbEntity
  8
_0-0_
  6
Continuous
 62
     4
100
AcDbLine
 10
5452.031183094296
 20
1922.299717971952
 30
0.0
 11
5459.795754447373
 21
1951.277492760625
 31
0.0
  0
LINE
  5
169
330
20
100
AcDbEntity
  8
_0-0_
  6
Continuous
 62
     4
100
AcDbLine
 10
5302.031183094296
 20
3442.299970124916
 30
0.0
 11
5273.053408305625
 21
3434.535398771841
 31
0.0
  0
LINE
  5
16A
330
20
100
AcDbEntity
  8
_0-0_
  6
Continuous
 62
     4
100
AcDbLine
 10
5302.031183094296
 20
3442.299970124916
 30
0.0
 11
5273.053408305625
 21
3450.064541477991
 31
0.0
  0
LINE
  5
16B
330
20
100
AcDbEntity
  8
_0-0_
  6
Continuous
 62
     4
100
AcDbLine
 10
5302.031183094296
 20
3302.299970124916
 30
0.0
 11
5273.053408305625
 21
3294.535398771841
 31
0.0
  0
LINE
  5
16C
330
20
100
AcDbEntity
  8
_0-0_
  6
Continuous
 62
     4
100
AcDbLine
 10
5302.031183094296
 20
3302.299970124916
 30
0.0
 11
5273.053408305625
 21
3310.064541477991
 31
0.0
  0
LINE
  5
16D
330
20
100
AcDbEntity
  8
_0-0_
  6
Continuous
 62
     4
100
AcDbLine
 10
5202.031183094296
 20
3302.299970124916
 30
0.0
 11
5231.008957882968
 21
3310.064541477991
 31
0.0
  0
LINE
  5
16E
330
20
100
AcDbEntity
  8
_0-0_
  6
Continuous
 62
     4
100
AcDbLine
 10
5202.031183094296
 20
3302.299970124916
 30
0.0
 11
5231.008957882968
 21
3294.535398771841
 31
0.0
  0
LINE
  5
16F
330
20
100
AcDbEntity
  8
_0-0_
  6
Continuous
 62
     4
100
AcDbLine
 10
5202.031183094296
 20
3162.299970124916
 30
0.0
 11
5231.008957882968
 21
3170.064541477991
 31
0.0
  0
LINE
  5
170
330
20
100
AcDbEntity
  8
_0-0_
  6
Continuous
 62
     4
100
AcDbLine
 10
5202.031183094296
 20
3162.299970124916
 30
0.0
 11
5231.008957882968
 21
3154.53539877184
 31
0.0
  0
LINE
  5
171
330
20
100
AcDbEntity
  8
_0-0_
  6
Continuous
 62
     4
100
AcDbLine
 10
5152.031183094297
 20
3162.299970124916
 30
0.0
 11
5123.053408305626
 21
3154.53539877184
 31
0.0
  0
LINE
  5
172
330
20
100
AcDbEntity
  8
_0-0_
  6
Continuous
 62
     4
100
AcDbLine
 10
5152.031183094297
 20
3162.299970124916
 30
0.0
 11
5123.053408305626
 21
3170.064541477991
 31
0.0
  0
LINE
  5
173
330
20
100
AcDbEntity
  8
_0-0_
  6
Continuous
 62
     4
100
AcDbLine
 10
5202.031183094296
 20
3302.299970124916
 30
0.0
 11
5173.053408305626
 21
3294.535398771841
 31
0.0
  0
LINE
  5
174
330
20
100
AcDbEntity
  8
_0-0_
  6
Continuous
 62
     4
100
AcDbLine
 10
5202.031183094296
 20
3302.299970124916
 30
0.0
 11
5173.053408305626
 21
3310.064541477991
 31
0.0
  0
LINE
  5
175
330
20
100
AcDbEntity
  8
_0-0_
  6
Continuous
 62
     4
100
AcDbLine
 10
3902.028586154444
 20
3442.299970124916
 30
0.0
 11
3931.006360943115
 21
3450.064541477991
 31
0.0
  0
LINE
  5
176
330
20
100
AcDbEntity
  8
_0-0_
  6
Continuous
 62
     4
100
AcDbLine
 10
3902.028586154444
 20
3442.299970124916
 30
0.0
 11
3931.006360943115
 21
3434.535398771841
 31
0.0
  0
LINE
  5
177
330
20
100
AcDbEntity
  8
_0-0_
  6
Continuous
 62
     4
100
AcDbLine
 10
3902.028586154444
 20
3302.299970124916
 30
0.0
 11
3931.006360943115
 21
3310.064541477991
 31
0.0
  0
LINE
  5
178
330
20
100
AcDbEntity
  8
_0-0_
  6
Continuous
 62
     4
100
AcDbLine
 10
3902.028586154444
 20
3302.299970124916
 30
0.0
 11
3931.006360943115
 21
3294.535398771841
 31
0.0
  0
LINE
  5
179
330
20
100
AcDbEntity
  8
_0-0_
  6
Continuous
 62
     4
100
AcDbLine
 10
4002.028586154444
 20
3302.299970124916
 30
0.0
 11
3973.050811365772
 21
3294.535398771841
 31
0.0
  0
LINE
  5
17A
330
20
100
AcDbEntity
  8
_0-0_
  6
Continuous
 62
     4
100
AcDbLine
 10
4002.028586154444
 20
3302.299970124916
 30
0.0
 11
3973.050811365772
 21
3310.064541477991
 31
0.0
  0
LINE
  5
17B
330
20
100
AcDbEntity
  8
_0-0_
  6
Continuous
 62
     4
100
AcDbLine
 10
4002.028586154444
 20
3302.299970124916
 30
0.0
 11
4031.006360943115
 21
3310.064541477991
 31
0.0
  0
LINE
  5
17C
330
20
100
AcDbEntity
  8
_0-0_
  6
Continuous
 62
     4
100
AcDbLine
 10
4002.028586154444
 20
3302.299970124916
 30
0.0
 11
4031.006360943115
 21
3294.535398771841
 31
0.0
  0
LINE
  5
17D
330
20
100
AcDbEntity
  8
_0-0_
  6
Continuous
 62
     4
100
AcDbLine
 10
4052.028586154444
 20
3162.299970124916
 30
0.0
 11
4081.006360943115
 21
3170.064541477991
 31
0.0
  0
LINE
  5
17E
330
20
100
AcDbEntity
  8
_0-0_
  6
Continuous
 62
     4
100
AcDbLine
 10
4052.028586154444
 20
3162.299970124916
 30
0.0
 11
4081.006360943115
 21
3154.53539877184
 31
0.0
  0
LINE
  5
17F
330
20
100
AcDbEntity
  8
_0-0_
  6
Continuous
 62
     4
100
AcDbLine
 10
4002.028586154444
 20
3162.299970124916
 30
0.0
 11
3973.050811365772
 21
3154.53539877184
 31
0.0
  0
LINE
  5
180
330
20
100
AcDbEntity
  8
_0-0_
  6
Continuous
 62
     4
100
AcDbLine
 10
4002.028586154444
 20
3162.299970124916
 30
0.0
 11
3973.050811365772
 21
3170.064541477991
 31
0.0
  0
LINE
  5
181
330
20
100
AcDbEntity
  8
_0-0_
  6
Continuous
 62
     4
100
AcDbLine
 10
4402.029884624369
 20
3162.299970124916
 30
0.0
 11
4431.007659413041
 21
3170.064541477991
 31
0.0
  0
LINE
  5
182
330
20
100
AcDbEntity
  8
_0-0_
  6
Continuous
 62
     4
100
AcDbLine
 10
4402.029884624369
 20
3162.299970124916
 30
0.0
 11
4431.007659413041
 21
3154.53539877184
 31
0.0
  0
LINE
  5
183
330
20
100
AcDbEntity
  8
_0-0_
  6
Continuous
 62
     4
100
AcDbLine
 10
4602.029884624371
 20
3162.299970124916
 30
0.0
 11
4573.052109835699
 21
3154.53539877184
 31
0.0
  0
LINE
  5
184
330
20
100
AcDbEntity
  8
_0-0_
  6
Continuous
 62
     4
100
AcDbLine
 10
4602.029884624371
 20
3162.299970124916
 30
0.0
 11
4573.052109835699
 21
3170.064541477991
 31
0.0
  0
LINE
  5
185
330
20
100
AcDbEntity
  8
_0-0_
  6
Continuous
 62
     4
100
AcDbLine
 10
4602.029884624371
 20
3162.299970124916
 30
0.0
 11
4631.007659413042
 21
3170.064541477991
 31
0.0
  0
LINE
  5
186
330
20
100
AcDbEntity
  8
_0-0_
  6
Continuous
 62
     4
100
AcDbLine
 10
4602.029884624371
 20
3162.299970124916
 30
0.0
 11
4631.007659413042
 21
3154.53539877184
 31
0.0
  0
LINE
  5
187
330
20
100
AcDbEntity
  8
_0-0_
  6
Continuous
 62
     4
100
AcDbLine
 10
4802.029884624371
 20
3162.299970124916
 30
0.0
 11
4773.052109835698
 21
3154.53539877184
 31
0.0
  0
LINE
  5
188
330
20
100
AcDbEntity
  8
_0-0_
  6
Continuous
 62
     4
100
AcDbLine
 10
4802.029884624371
 20
3162.299970124916
 30
0.0
 11
4773.052109835698
 21
3170.064541477991
 31
0.0
  0
LINE
  5
189
330
20
100
AcDbEntity
  8
_0-0_
  6
Continuous
 62
     4
100
AcDbLine
 10
3882.028586154444
 20
2912.299970124916
 30
0.0
 11
3602.028586154444
 21
2912.299970124916
 31
0.0
  0
LINE
  5
18A
330
20
100
AcDbEntity
  8
_0-0_
  6
Continuous
 62
     4
100
AcDbLine
 10
3882.028586154444
 20
1712.299822839306
 30
0.0
 11
3602.028586154444
 21
1712.299822839306
 31
0.0
  0
LINE
  5
18B
330
20
100
AcDbEntity
  8
_0-0_
  6
Continuous
 62
     4
100
AcDbLine
 10
3612.028586154444
 20
1612.299822839306
 30
0.0
 11
3612.028586154444
 21
1712.299822839306
 31
0.0
  0
LINE
  5
18C
330
20
100
AcDbEntity
  8
_0-0_
  6
Continuous
 62
     4
100
AcDbLine
 10
3612.028586154444
 20
2912.299970124916
 30
0.0
 11
3612.028586154444
 21
3012.299970124916
 31
0.0
  0
LINE
  5
18D
330
20
100
AcDbEntity
  8
_0-0_
  6
Continuous
 62
     4
100
AcDbLine
 10
3612.028586154444
 20
2912.299970124916
 30
0.0
 11
3612.028586154444
 21
1712.299822839306
 31
0.0
  0
LINE
  5
18E
330
20
100
AcDbEntity
  8
_0-0_
  6
Continuous
 62
     4
100
AcDbLine
 10
3882.028586154444
 20
2862.299970124916
 30
0.0
 11
3742.028586154444
 21
2862.299970124916
 31
0.0
  0
LINE
  5
18F
330
20
100
AcDbEntity
  8
_0-0_
  6
Continuous
 62
     4
100
AcDbLine
 10
3882.028586154444
 20
1762.299822839306
 30
0.0
 11
3742.028586154444
 21
1762.299822839306
 31
0.0
  0
LINE
  5
190
330
20
100
AcDbEntity
  8
_0-0_
  6
Continuous
 62
     4
100
AcDbLine
 10
3752.028586154444
 20
2812.299970124916
 30
0.0
 11
3752.028586154444
 21
2862.299970124916
 31
0.0
  0
LINE
  5
191
330
20
100
AcDbEntity
  8
_0-0_
  6
Continuous
 62
     4
100
AcDbLine
 10
3752.028586154444
 20
2912.299970124916
 30
0.0
 11
3752.028586154444
 21
2962.299970124916
 31
0.0
  0
LINE
  5
192
330
20
100
AcDbEntity
  8
_0-0_
  6
Continuous
 62
     4
100
AcDbLine
 10
3752.028586154444
 20
1662.299822839306
 30
0.0
 11
3752.028586154444
 21
1712.299822839306
 31
0.0
  0
LINE
  5
193
330
20
100
AcDbEntity
  8
_0-0_
  6
Continuous
 62
     4
100
AcDbLine
 10
3752.028586154444
 20
1762.299822839306
 30
0.0
 11
3752.028586154444
 21
1812.299822839307
 31
0.0
  0
LINE
  5
194
330
20
100
AcDbEntity
  8
_0-0_
  6
Continuous
 62
     4
100
AcDbLine
 10
3752.028586154444
 20
2912.299970124916
 30
0.0
 11
3752.028586154444
 21
2862.299970124916
 31
0.0
  0
LINE
  5
195
330
20
100
AcDbEntity
  8
_0-0_
  6
Continuous
 62
     4
100
AcDbLine
 10
3752.028586154444
 20
1762.299822839306
 30
0.0
 11
3752.028586154444
 21
1712.299822839306
 31
0.0
  0
LINE
  5
196
330
20
100
AcDbEntity
  8
_0-0_
  6
Continuous
 62
     4
100
AcDbLine
 10
3882.028586154444
 20
2312.299896482111
 30
0.0
 11
3742.028586154444
 21
2312.299896482111
 31
0.0
  0
LINE
  5
197
330
20
100
AcDbEntity
  8
_0-0_
  6
Continuous
 62
     4
100
AcDbLine
 10
3882.028586154444
 20
2512.299896482111
 30
0.0
 11
3742.028586154444
 21
2512.299896482111
 31
0.0
  0
LINE
  5
198
330
20
100
AcDbEntity
  8
_0-0_
  6
Continuous
 62
     4
100
AcDbLine
 10
3882.028586154444
 20
2112.299896482111
 30
0.0
 11
3742.028586154444
 21
2112.299896482111
 31
0.0
  0
LINE
  5
199
330
20
100
AcDbEntity
  8
_0-0_
  6
Continuous
 62
     4
100
AcDbLine
 10
3752.028586154444
 20
2112.299896482111
 30
0.0
 11
3752.028586154444
 21
2312.299896482111
 31
0.0
  0
LINE
  5
19A
330
20
100
AcDbEntity
  8
_0-0_
  6
Continuous
 62
     4
100
AcDbLine
 10
3752.028586154444
 20
2512.299896482111
 30
0.0
 11
3752.028586154444
 21
2312.299896482111
 31
0.0
  0
LINE
  5
19B
330
20
100
AcDbEntity
  8
_0-0_
  6
Continuous
 62
     4
100
AcDbLine
 10
3752.028586154444
 20
2912.299970124916
 30
0.0
 11
3744.264014801368
 21
2941.277744913588
 31
0.0
  0
LINE
  5
19C
330
20
100
AcDbEntity
  8
_0-0_
  6
Continuous
 62
     4
100
AcDbLine
 10
3752.028586154444
 20
2912.299970124916
 30
0.0
 11
3759.79315750752
 21
2941.277744913588
 31
0.0
  0
LINE
  5
19D
330
20
100
AcDbEntity
  8
_0-0_
  6
Continuous
 62
     4
100
AcDbLine
 10
3752.028586154444
 20
2862.299970124916
 30
0.0
 11
3759.79315750752
 21
2833.322195336243
 31
0.0
  0
LINE
  5
19E
330
20
100
AcDbEntity
  8
_0-0_
  6
Continuous
 62
     4
100
AcDbLine
 10
3752.028586154444
 20
2862.299970124916
 30
0.0
 11
3744.264014801368
 21
2833.322195336243
 31
0.0
  0
LINE
  5
19F
330
20
100
AcDbEntity
  8
_0-0_
  6
Continuous
 62
     4
100
AcDbLine
 10
3612.028586154444
 20
3012.299970124916
 30
0.0
 11
3619.79315750752
 21
2983.322195336243
 31
0.0
  0
LINE
  5
1A0
330
20
100
AcDbEntity
  8
_0-0_
  6
Continuous
 62
     4
100
AcDbLine
 10
3612.028586154444
 20
3012.299970124916
 30
0.0
 11
3604.264014801368
 21
2983.322195336243
 31
0.0
  0
LINE
  5
1A1
330
20
100
AcDbEntity
  8
_0-0_
  6
Continuous
 62
     4
100
AcDbLine
 10
3612.028586154444
 20
2912.299970124916
 30
0.0
 11
3604.264014801368
 21
2941.277744913588
 31
0.0
  0
LINE
  5
1A2
330
20
100
AcDbEntity
  8
_0-0_
  6
Continuous
 62
     4
100
AcDbLine
 10
3612.028586154444
 20
2912.299970124916
 30
0.0
 11
3619.79315750752
 21
2941.277744913588
 31
0.0
  0
LINE
  5
1A3
330
20
100
AcDbEntity
  8
_0-0_
  6
Continuous
 62
     4
100
AcDbLine
 10
3612.028586154444
 20
2912.299970124916
 30
0.0
 11
3619.79315750752
 21
2883.322195336243
 31
0.0
  0
LINE
  5
1A4
330
20
100
AcDbEntity
  8
_0-0_
  6
Continuous
 62
     4
100
AcDbLine
 10
3612.028586154444
 20
2912.299970124916
 30
0.0
 11
3604.264014801368
 21
2883.322195336243
 31
0.0
  0
LINE
  5
1A5
330
20
100
AcDbEntity
  8
_0-0_
  6
Continuous
 62
     4
100
AcDbLine
 10
3472.028586154443
 20
3012.299970124916
 30
0.0
 11
3479.79315750752
 21
2983.322195336243
 31
0.0
  0
LINE
  5
1A6
330
20
100
AcDbEntity
  8
_0-0_
  6
Continuous
 62
     4
100
AcDbLine
 10
3472.028586154443
 20
3012.299970124916
 30
0.0
 11
3464.264014801369
 21
2983.322195336243
 31
0.0
  0
LINE
  5
1A7
330
20
100
AcDbEntity
  8
_0-0_
  6
Continuous
 62
     4
100
AcDbLine
 10
3472.028586154443
 20
1612.299822839306
 30
0.0
 11
3464.264014801369
 21
1641.277597627978
 31
0.0
  0
LINE
  5
1A8
330
20
100
AcDbEntity
  8
_0-0_
  6
Continuous
 62
     4
100
AcDbLine
 10
3472.028586154443
 20
1612.299822839306
 30
0.0
 11
3479.79315750752
 21
1641.277597627978
 31
0.0
  0
LINE
  5
1A9
330
20
100
AcDbEntity
  8
_0-0_
  6
Continuous
 62
     4
100
AcDbLine
 10
3612.028586154444
 20
1612.299822839306
 30
0.0
 11
3604.264014801368
 21
1641.277597627978
 31
0.0
  0
LINE
  5
1AA
330
20
100
AcDbEntity
  8
_0-0_
  6
Continuous
 62
     4
100
AcDbLine
 10
3612.028586154444
 20
1612.299822839306
 30
0.0
 11
3619.79315750752
 21
1641.277597627978
 31
0.0
  0
LINE
  5
1AB
330
20
100
AcDbEntity
  8
_0-0_
  6
Continuous
 62
     4
100
AcDbLine
 10
3612.028586154444
 20
1712.299822839306
 30
0.0
 11
3619.79315750752
 21
1683.322048050634
 31
0.0
  0
LINE
  5
1AC
330
20
100
AcDbEntity
  8
_0-0_
  6
Continuous
 62
     4
100
AcDbLine
 10
3612.028586154444
 20
1712.299822839306
 30
0.0
 11
3604.264014801368
 21
1683.322048050634
 31
0.0
  0
LINE
  5
1AD
330
20
100
AcDbEntity
  8
_0-0_
  6
Continuous
 62
     4
100
AcDbLine
 10
3612.028586154444
 20
1712.299822839306
 30
0.0
 11
3604.264014801368
 21
1741.277597627978
 31
0.0
  0
LINE
  5
1AE
330
20
100
AcDbEntity
  8
_0-0_
  6
Continuous
 62
     4
100
AcDbLine
 10
3612.028586154444
 20
1712.299822839306
 30
0.0
 11
3619.79315750752
 21
1741.277597627978
 31
0.0
  0
LINE
  5
1AF
330
20
100
AcDbEntity
  8
_0-0_
  6
Continuous
 62
     4
100
AcDbLine
 10
3752.028586154444
 20
1712.299822839306
 30
0.0
 11
3759.79315750752
 21
1683.322048050634
 31
0.0
  0
LINE
  5
1B0
330
20
100
AcDbEntity
  8
_0-0_
  6
Continuous
 62
     4
100
AcDbLine
 10
3752.028586154444
 20
1712.299822839306
 30
0.0
 11
3744.264014801368
 21
1683.322048050634
 31
0.0
  0
LINE
  5
1B1
330
20
100
AcDbEntity
  8
_0-0_
  6
Continuous
 62
     4
100
AcDbLine
 10
3752.028586154444
 20
1762.299822839306
 30
0.0
 11
3744.264014801368
 21
1791.277597627978
 31
0.0
  0
LINE
  5
1B2
330
20
100
AcDbEntity
  8
_0-0_
  6
Continuous
 62
     4
100
AcDbLine
 10
3752.028586154444
 20
1762.299822839306
 30
0.0
 11
3759.79315750752
 21
1791.277597627978
 31
0.0
  0
LINE
  5
1B3
330
20
100
AcDbEntity
  8
_0-0_
  6
Continuous
 62
     4
100
AcDbLine
 10
3752.028586154444
 20
2112.299896482111
 30
0.0
 11
3744.264014801368
 21
2141.277671270783
 31
0.0
  0
LINE
  5
1B4
330
20
100
AcDbEntity
  8
_0-0_
  6
Continuous
 62
     4
100
AcDbLine
 10
3752.028586154444
 20
2112.299896482111
 30
0.0
 11
3759.79315750752
 21
2141.277671270783
 31
0.0
  0
LINE
  5
1B5
330
20
100
AcDbEntity
  8
_0-0_
  6
Continuous
 62
     4
100
AcDbLine
 10
3752.028586154444
 20
2312.299896482111
 30
0.0
 11
3759.79315750752
 21
2283.322121693439
 31
0.0
  0
LINE
  5
1B6
330
20
100
AcDbEntity
  8
_0-0_
  6
Continuous
 62
     4
100
AcDbLine
 10
3752.028586154444
 20
2312.299896482111
 30
0.0
 11
3744.264014801368
 21
2283.322121693439
 31
0.0
  0
LINE
  5
1B7
330
20
100
AcDbEntity
  8
_0-0_
  6
Continuous
 62
     4
100
AcDbLine
 10
3752.028586154444
 20
2512.299896482111
 30
0.0
 11
3759.79315750752
 21
2483.322121693439
 31
0.0
  0
LINE
  5
1B8
330
20
100
AcDbEntity
  8
_0-0_
  6
Continuous
 62
     4
100
AcDbLine
 10
3752.028586154444
 20
2512.299896482111
 30
0.0
 11
3744.264014801368
 21
2483.322121693439
 31
0.0
  0
LINE
  5
1B9
330
20
100
AcDbEntity
  8
_0-0_
  6
Continuous
 62
     4
100
AcDbLine
 10
3752.028586154444
 20
2312.299896482111
 30
0.0
 11
3744.264014801368
 21
2341.277671270783
 31
0.0
  0
LINE
  5
1BA
330
20
100
AcDbEntity
  8
_0-0_
  6
Continuous
 62
     4
100
AcDbLine
 10
3752.028586154444
 20
2312.299896482111
 30
0.0
 11
3759.79315750752
 21
2341.277671270783
 31
0.0
  0
TEXT
  5
1BB
330
20
100
AcDbEntity
  8
_0-0_
 62
     7
100
AcDbText
 10
3600.721868938041
 20
2872.871270517917
 30
0.0
 40
60.0
  1
100
 50
90.0
100
AcDbText
  0
TEXT
  5
1BC
330
20
100
AcDbEntity
  8
_0-0_
 62
     7
100
AcDbText
 10
3741.407608015997
 20
2808.142620613505
 30
0.0
 40
60.0
  1
50
 50
90.0
100
AcDbText
  0
TEXT
  5
1BD
330
20
100
AcDbEntity
  8
_0-0_
 62
     7
100
AcDbText
 10
3603.342292806352
 20
1630.027820559674
 30
0.0
 40
60.0
  1
100
 50
90.0
100
AcDbText
  0
TEXT
  5
1BE
330
20
100
AcDbEntity
  8
_0-0_
 62
     7
100
AcDbText
 10
3742.605390345055
 20
1729.177091089946
 30
0.0
 40
60.0
  1
50
 50
90.0
100
AcDbText
  0
TEXT
  5
1BF
330
20
100
AcDbEntity
  8
_0-0_
 62
     7
100
AcDbText
 10
3463.908900719028
 20
2245.184974815133
 30
0.0
 40
60.0
  1
1400
 50
90.0
100
AcDbText
  0
TEXT
  5
1C0
330
20
100
AcDbEntity
  8
_0-0_
 62
     7
100
AcDbText
 10
3603.035146566203
 20
2243.211552888222
 30
0.0
 40
60.0
  1
1200
 50
90.0
100
AcDbText
  0
TEXT
  5
1C1
330
20
100
AcDbEntity
  8
_0-0_
 62
     7
100
AcDbText
 10
3741.174681449925
 20
2341.192895567175
 30
0.0
 40
60.0
  1
200
 50
90.0
100
AcDbText
  0
TEXT
  5
1C2
330
20
100
AcDbEntity
  8
_0-0_
 62
     7
100
AcDbText
 10
3741.174681449925
 20
2142.863991912689
 30
0.0
 40
60.0
  1
200
 50
90.0
100
AcDbText
  0
TEXT
  5
1C3
330
20
100
AcDbEntity
  8
_0-0_
 62
     7
100
AcDbText
 10
5441.925313127778
 20
2227.934328345401
 30
0.0
 40
60.0
  1
780
 50
90.0
100
AcDbText
  0
TEXT
  5
1C4
330
20
100
AcDbEntity
  8
_0-0_
 62
     7
100
AcDbText
 10
4536.184045708714
 20
3451.655675452494
 30
0.0
 40
60.0
  1
1400
100
AcDbText
  0
TEXT
  5
1C5
330
20
100
AcDbEntity
  8
_0-0_
 62
     7
100
AcDbText
 10
4536.929547589749
 20
3312.246823699029
 30
0.0
 40
60.0
  1
1200
100
AcDbText
  0
TEXT
  5
1C6
330
20
100
AcDbEntity
  8
_0-0_
 62
     7
100
AcDbText
 10
4435.12288242726
 20
3169.855964421427
 30
0.0
 40
60.0
  1
200
100
AcDbText
  0
TEXT
  5
1C7
330
20
100
AcDbEntity
  8
_0-0_
 62
     7
100
AcDbText
 10
4634.917386544525
 20
3169.855964421427
 30
0.0
 40
60.0
  1
200
100
AcDbText
  0
TEXT
  5
1C8
330
20
100
AcDbEntity
  8
_0-0_
 62
     7
100
AcDbText
 10
5169.486120977906
 20
3312.270174686529
 30
0.0
 40
60.0
  1
100
100
AcDbText
  0
TEXT
  5
1C9
330
20
100
AcDbEntity
  8
_0-0_
 62
     7
100
AcDbText
 10
5102.262457919285
 20
3174.088200621584
 30
0.0
 40
60.0
  1
50
100
AcDbText
  0
TEXT
  5
1CA
330
20
100
AcDbEntity
  8
_0-0_
 62
     7
100
AcDbText
 10
3926.313016821633
 20
3312.989073881374
 30
0.0
 40
60.0
  1
100
100
AcDbText
  0
TEXT
  5
1CB
330
20
100
AcDbEntity
  8
_0-0_
 62
     7
100
AcDbText
 10
4026.644888383994
 20
3172.921807640851
 30
0.0
 40
60.0
  1
50
100
AcDbText
  0
LINE
  5
1CC
330
20
100
AcDbEntity
  8
_0-0_
  6
Continuous
 62
     4
100
AcDbLine
 10
4992.029888159224
 20
1592.299822839306
 30
0.0
 11
4992.029888159224
 21
1452.299822839306
 31
0.0
  0
LINE
  5
1CD
330
20
100
AcDbEntity
  8
_0-0_
  6
Continuous
 62
     4
100
AcDbLine
 10
4212.029881089516
 20
1462.299822839306
 30
0.0
 11
4992.029888159224
 21
1462.299822839306
 31
0.0
  0
LINE
  5
1CE
330
20
100
AcDbEntity
  8
_0-0_
  6
Continuous
 62
     4
100
AcDbLine
 10
4212.029881089516
 20
1592.299822839306
 30
0.0
 11
4212.029881089516
 21
1452.299822839306
 31
0.0
  0
LINE
  5
1CF
330
20
100
AcDbEntity
  8
_0-0_
  6
Continuous
 62
     4
100
AcDbLine
 10
4992.029888159224
 20
1462.299822839306
 30
0.0
 11
4963.052113370554
 21
1454.53525148623
 31
0.0
  0
LINE
  5
1D0
330
20
100
AcDbEntity
  8
_0-0_
  6
Continuous
 62
     4
100
AcDbLine
 10
4992.029888159224
 20
1462.299822839306
 30
0.0
 11
4963.052113370554
 21
1470.064394192382
 31
0.0
  0
LINE
  5
1D1
330
20
100
AcDbEntity
  8
_0-0_
  6
Continuous
 62
     4
100
AcDbLine
 10
4212.029881089516
 20
1462.299822839306
 30
0.0
 11
4241.007655878187
 21
1470.064394192382
 31
0.0
  0
LINE
  5
1D2
330
20
100
AcDbEntity
  8
_0-0_
  6
Continuous
 62
     4
100
AcDbLine
 10
4212.029881089516
 20
1462.299822839306
 30
0.0
 11
4241.007655878187
 21
1454.53525148623
 31
0.0
  0
TEXT
  5
1D3
330
20
100
AcDbEntity
  8
_0-0_
 62
     7
100
AcDbText
 10
4520.119768816551
 20
1471.088920114553
 30
0.0
 40
60.0
  1
780
100
AcDbText
  0
LINE
  5
1D4
330
20
100
AcDbEntity
  8
_0-0_
  6
Continuous
 62
     4
100
AcDbLine
 10
4392.029425093271
 20
1693.735574527274
 30
0.0
 11
4137.283597695724
 21
1462.299822839306
 31
0.0
  0
LINE
  5
1D5
330
20
100
AcDbEntity
  8
_0-0_
  6
Continuous
 62
     4
100
AcDbLine
 10
4392.029425093271
 20
1693.735574527274
 30
0.0
 11
4375.802412273005
 21
1668.502975475037
 31
0.0
  0
LINE
  5
1D6
330
20
100
AcDbEntity
  8
_0-0_
  6
Continuous
 62
     4
100
AcDbLine
 10
4392.029425093271
 20
1693.735574527274
 30
0.0
 11
4365.360120237266
 21
1679.997009154663
 31
0.0
  0
TEXT
  5
1D7
330
20
100
AcDbEntity
  8
_0-0_
 62
     7
100
AcDbText
 10
3596.49355891306
 20
1469.542701055448
 30
0.0
 40
60.0
  1
インサート M12
100
AcDbText
  0
LINE
  5
1D8
330
20
100
AcDbEntity
  8
_0-0_
  6
Continuous
 62
     4
100
AcDbLine
 10
4137.283597695724
 20
1462.299822839306
 30
0.0
 11
3595.353585173538
 21
1462.299822839306
 31
0.0
  0
LINE
  5
1D9
330
20
100
AcDbEntity
  8
_0-0_
  6
Continuous
 62
     4
100
AcDbLine
 10
2633.69503122868
 20
885.8090717752038
 30
0.0
 11
1233.696371233148
 21
885.8090717752038
 31
0.0
  0
LINE
  5
1DA
330
20
100
AcDbEntity
  8
_0-0_
  6
Continuous
 62
     4
100
AcDbLine
 10
1233.696371233148
 20
1435.809071775204
 30
0.0
 11
1233.696371233148
 21
875.8090717752038
 31
0.0
  0
LINE
  5
1DB
330
20
100
AcDbEntity
  8
_0-0_
  6
Continuous
 62
     4
100
AcDbLine
 10
2633.69503122868
 20
1435.809071775204
 30
0.0
 11
2633.69503122868
 21
875.8090717752038
 31
0.0
  0
LINE
  5
1DC
330
20
100
AcDbEntity
  8
_0-0_
  6
Continuous
 62
     4
100
AcDbLine
 10
2323.69548604664
 20
1615.808938629013
 30
0.0
 11
2323.69548604664
 21
1155.809071775203
 31
0.0
  0
LINE
  5
1DD
330
20
100
AcDbEntity
  8
_0-0_
  6
Continuous
 62
     4
100
AcDbLine
 10
2323.69548604664
 20
1165.809071775203
 30
0.0
 11
1543.695478976931
 21
1165.809071775203
 31
0.0
  0
LINE
  5
1DE
330
20
100
AcDbEntity
  8
_0-0_
  6
Continuous
 62
     4
100
AcDbLine
 10
1543.695478976931
 20
1435.809071775204
 30
0.0
 11
1543.695478976931
 21
1155.809071775203
 31
0.0
  0
LINE
  5
1DF
330
20
100
AcDbEntity
  8
_0-0_
  6
Continuous
 62
     4
100
AcDbLine
 10
2043.695434479449
 20
1435.809071775204
 30
0.0
 11
2043.695434479449
 21
1295.809071775203
 31
0.0
  0
LINE
  5
1E0
330
20
100
AcDbEntity
  8
_0-0_
  6
Continuous
 62
     4
100
AcDbLine
 10
2033.695618014546
 20
1435.809071775204
 30
0.0
 11
2033.695618014546
 21
1295.809071775203
 31
0.0
  0
LINE
  5
1E1
330
20
100
AcDbEntity
  8
_0-0_
  6
Continuous
 62
     4
100
AcDbLine
 10
1833.695696959632
 20
1435.809071775204
 30
0.0
 11
1833.695696959632
 21
1295.809071775203
 31
0.0
  0
LINE
  5
1E2
330
20
100
AcDbEntity
  8
_0-0_
  6
Continuous
 62
     4
100
AcDbLine
 10
1823.695528924692
 20
1435.809071775204
 30
0.0
 11
1823.695528924692
 21
1295.809071775203
 31
0.0
  0
LINE
  5
1E3
330
20
100
AcDbEntity
  8
_0-0_
  6
Continuous
 62
     4
100
AcDbLine
 10
1823.695528924692
 20
1305.809071775203
 30
0.0
 11
1773.695528924692
 21
1305.809071775203
 31
0.0
  0
LINE
  5
1E4
330
20
100
AcDbEntity
  8
_0-0_
  6
Continuous
 62
     4
100
AcDbLine
 10
2093.695434479449
 20
1305.809071775203
 30
0.0
 11
2043.695434479449
 21
1305.809071775203
 31
0.0
  0
LINE
  5
1E5
330
20
100
AcDbEntity
  8
_0-0_
  6
Continuous
 62
     4
100
AcDbLine
 10
2033.695618014546
 20
1305.809071775203
 30
0.0
 11
1833.695696959632
 21
1305.809071775203
 31
0.0
  0
LINE
  5
1E6
330
20
100
AcDbEntity
  8
_0-0_
  6
Continuous
 62
     4
100
AcDbLine
 10
1833.695696959632
 20
1305.809071775203
 30
0.0
 11
1823.695528924692
 21
1305.809071775203
 31
0.0
  0
LINE
  5
1E7
330
20
100
AcDbEntity
  8
_0-0_
  6
Continuous
 62
     4
100
AcDbLine
 10
2043.695434479449
 20
1305.809071775203
 30
0.0
 11
2033.695618014546
 21
1305.809071775203
 31
0.0
  0
LINE
  5
1E8
330
20
100
AcDbEntity
  8
_0-0_
  6
Continuous
 62
     4
100
AcDbLine
 10
1333.696371233148
 20
1435.809071775204
 30
0.0
 11
1333.696371233148
 21
1015.809071775203
 31
0.0
  0
LINE
  5
1E9
330
20
100
AcDbEntity
  8
_0-0_
  6
Continuous
 62
     4
100
AcDbLine
 10
2533.69503122868
 20
1435.809071775204
 30
0.0
 11
2533.69503122868
 21
1015.809071775203
 31
0.0
  0
LINE
  5
1EA
330
20
100
AcDbEntity
  8
_0-0_
  6
Continuous
 62
     4
100
AcDbLine
 10
2633.69503122868
 20
1025.809071775203
 30
0.0
 11
2533.69503122868
 21
1025.809071775203
 31
0.0
  0
LINE
  5
1EB
330
20
100
AcDbEntity
  8
_0-0_
  6
Continuous
 62
     4
100
AcDbLine
 10
1333.696371233148
 20
1025.809071775203
 30
0.0
 11
1233.696371233148
 21
1025.809071775203
 31
0.0
  0
LINE
  5
1EC
330
20
100
AcDbEntity
  8
_0-0_
  6
Continuous
 62
     4
100
AcDbLine
 10
2533.69503122868
 20
1025.809071775203
 30
0.0
 11
1333.696371233148
 21
1025.809071775203
 31
0.0
  0
LINE
  5
1ED
330
20
100
AcDbEntity
  8
_0-0_
  6
Continuous
 62
     4
100
AcDbLine
 10
1833.695696959632
 20
1305.809071775203
 30
0.0
 11
1862.673471748304
 21
1313.573643128279
 31
0.0
  0
LINE
  5
1EE
330
20
100
AcDbEntity
  8
_0-0_
  6
Continuous
 62
     4
100
AcDbLine
 10
1833.695696959632
 20
1305.809071775203
 30
0.0
 11
1862.673471748304
 21
1298.044500422128
 31
0.0
  0
LINE
  5
1EF
330
20
100
AcDbEntity
  8
_0-0_
  6
Continuous
 62
     4
100
AcDbLine
 10
2033.695618014546
 20
1305.809071775203
 30
0.0
 11
2004.717843225873
 21
1298.044500422128
 31
0.0
  0
LINE
  5
1F0
330
20
100
AcDbEntity
  8
_0-0_
  6
Continuous
 62
     4
100
AcDbLine
 10
2033.695618014546
 20
1305.809071775203
 30
0.0
 11
2004.717843225873
 21
1313.573643128279
 31
0.0
  0
LINE
  5
1F1
330
20
100
AcDbEntity
  8
_0-0_
  6
Continuous
 62
     4
100
AcDbLine
 10
2043.695434479449
 20
1305.809071775203
 30
0.0
 11
2072.673209268121
 21
1313.573643128279
 31
0.0
  0
LINE
  5
1F2
330
20
100
AcDbEntity
  8
_0-0_
  6
Continuous
 62
     4
100
AcDbLine
 10
2043.695434479449
 20
1305.809071775203
 30
0.0
 11
2072.673209268121
 21
1298.044500422128
 31
0.0
  0
LINE
  5
1F3
330
20
100
AcDbEntity
  8
_0-0_
  6
Continuous
 62
     4
100
AcDbLine
 10
1823.695528924692
 20
1305.809071775203
 30
0.0
 11
1794.71775413602
 21
1298.044500422128
 31
0.0
  0
LINE
  5
1F4
330
20
100
AcDbEntity
  8
_0-0_
  6
Continuous
 62
     4
100
AcDbLine
 10
1823.695528924692
 20
1305.809071775203
 30
0.0
 11
1794.71775413602
 21
1313.573643128279
 31
0.0
  0
LINE
  5
1F5
330
20
100
AcDbEntity
  8
_0-0_
  6
Continuous
 62
     4
100
AcDbLine
 10
1543.695478976931
 20
1165.809071775203
 30
0.0
 11
1572.673253765603
 21
1173.573643128279
 31
0.0
  0
LINE
  5
1F6
330
20
100
AcDbEntity
  8
_0-0_
  6
Continuous
 62
     4
100
AcDbLine
 10
1543.695478976931
 20
1165.809071775203
 30
0.0
 11
1572.673253765603
 21
1158.044500422128
 31
0.0
  0
LINE
  5
1F7
330
20
100
AcDbEntity
  8
_0-0_
  6
Continuous
 62
     4
100
AcDbLine
 10
2323.69548604664
 20
1165.809071775203
 30
0.0
 11
2294.717711257968
 21
1158.044500422128
 31
0.0
  0
LINE
  5
1F8
330
20
100
AcDbEntity
  8
_0-0_
  6
Continuous
 62
     4
100
AcDbLine
 10
2323.69548604664
 20
1165.809071775203
 30
0.0
 11
2294.717711257968
 21
1173.573643128279
 31
0.0
  0
LINE
  5
1F9
330
20
100
AcDbEntity
  8
_0-0_
  6
Continuous
 62
     4
100
AcDbLine
 10
2533.69503122868
 20
1025.809071775203
 30
0.0
 11
2504.717256440009
 21
1018.044500422128
 31
0.0
  0
LINE
  5
1FA
330
20
100
AcDbEntity
  8
_0-0_
  6
Continuous
 62
     4
100
AcDbLine
 10
2533.69503122868
 20
1025.809071775203
 30
0.0
 11
2504.717256440009
 21
1033.57364312828
 31
0.0
  0
LINE
  5
1FB
330
20
100
AcDbEntity
  8
_0-0_
  6
Continuous
 62
     4
100
AcDbLine
 10
2533.69503122868
 20
1025.809071775203
 30
0.0
 11
2562.672806017353
 21
1033.57364312828
 31
0.0
  0
LINE
  5
1FC
330
20
100
AcDbEntity
  8
_0-0_
  6
Continuous
 62
     4
100
AcDbLine
 10
2533.69503122868
 20
1025.809071775203
 30
0.0
 11
2562.672806017353
 21
1018.044500422128
 31
0.0
  0
LINE
  5
1FD
330
20
100
AcDbEntity
  8
_0-0_
  6
Continuous
 62
     4
100
AcDbLine
 10
2633.69503122868
 20
1025.809071775203
 30
0.0
 11
2604.717256440008
 21
1018.044500422128
 31
0.0
  0
LINE
  5
1FE
330
20
100
AcDbEntity
  8
_0-0_
  6
Continuous
 62
     4
100
AcDbLine
 10
2633.69503122868
 20
1025.809071775203
 30
0.0
 11
2604.717256440008
 21
1033.57364312828
 31
0.0
  0
LINE
  5
1FF
330
20
100
AcDbEntity
  8
_0-0_
  6
Continuous
 62
     4
100
AcDbLine
 10
2633.69503122868
 20
885.8090717752038
 30
0.0
 11
2604.717256440008
 21
878.0445004221284
 31
0.0
  0
LINE
  5
200
330
20
100
AcDbEntity
  8
_0-0_
  6
Continuous
 62
     4
100
AcDbLine
 10
2633.69503122868
 20
885.8090717752038
 30
0.0
 11
2604.717256440008
 21
893.5736431282796
 31
0.0
  0
LINE
  5
201
330
20
100
AcDbEntity
  8
_0-0_
  6
Continuous
 62
     4
100
AcDbLine
 10
1333.696371233148
 20
1025.809071775203
 30
0.0
 11
1362.67414602182
 21
1033.57364312828
 31
0.0
  0
LINE
  5
202
330
20
100
AcDbEntity
  8
_0-0_
  6
Continuous
 62
     4
100
AcDbLine
 10
1333.696371233148
 20
1025.809071775203
 30
0.0
 11
1362.67414602182
 21
1018.044500422128
 31
0.0
  0
LINE
  5
203
330
20
100
AcDbEntity
  8
_0-0_
  6
Continuous
 62
     4
100
AcDbLine
 10
1333.696371233148
 20
1025.809071775203
 30
0.0
 11
1304.718596444476
 21
1018.044500422128
 31
0.0
  0
LINE
  5
204
330
20
100
AcDbEntity
  8
_0-0_
  6
Continuous
 62
     4
100
AcDbLine
 10
1333.696371233148
 20
1025.809071775203
 30
0.0
 11
1304.718596444476
 21
1033.57364312828
 31
0.0
  0
LINE
  5
205
330
20
100
AcDbEntity
  8
_0-0_
  6
Continuous
 62
     4
100
AcDbLine
 10
1233.696371233148
 20
1025.809071775203
 30
0.0
 11
1262.67414602182
 21
1033.57364312828
 31
0.0
  0
LINE
  5
206
330
20
100
AcDbEntity
  8
_0-0_
  6
Continuous
 62
     4
100
AcDbLine
 10
1233.696371233148
 20
1025.809071775203
 30
0.0
 11
1262.67414602182
 21
1018.044500422128
 31
0.0
  0
LINE
  5
207
330
20
100
AcDbEntity
  8
_0-0_
  6
Continuous
 62
     4
100
AcDbLine
 10
1233.696371233148
 20
885.8090717752038
 30
0.0
 11
1262.67414602182
 21
893.5736431282796
 31
0.0
  0
LINE
  5
208
330
20
100
AcDbEntity
  8
_0-0_
  6
Continuous
 62
     4
100
AcDbLine
 10
1233.696371233148
 20
885.8090717752038
 30
0.0
 11
1262.67414602182
 21
878.0445004221284
 31
0.0
  0
TEXT
  5
209
330
20
100
AcDbEntity
  8
_0-0_
 62
     7
100
AcDbText
 10
1826.45563116556
 20
1316.146267735192
 30
0.0
 40
60.0
  1
φ200
 41
0.95
100
AcDbText
  0
TEXT
  5
20A
330
20
100
AcDbEntity
  8
_0-0_
 62
     7
100
AcDbText
 10
2057.160117671378
 20
1316.146267735192
 30
0.0
 40
60.0
  1
10
100
AcDbText
  0
TEXT
  5
20B
330
20
100
AcDbEntity
  8
_0-0_
 62
     7
100
AcDbText
 10
1740.050432578849
 20
1315.002414598672
 30
0.0
 40
60.0
  1
10
100
AcDbText
  0
TEXT
  5
20C
330
20
100
AcDbEntity
  8
_0-0_
 62
     7
100
AcDbText
 10
1884.844366800077
 20
1176.59618507967
 30
0.0
 40
60.0
  1
780
100
AcDbText
  0
TEXT
  5
20D
330
20
100
AcDbEntity
  8
_0-0_
 62
     7
100
AcDbText
 10
1865.663813341791
 20
894.3237787881423
 30
0.0
 40
60.0
  1
1400
100
AcDbText
  0
TEXT
  5
20E
330
20
100
AcDbEntity
  8
_0-0_
 62
     7
100
AcDbText
 10
1867.046312096723
 20
1035.338651791152
 30
0.0
 40
60.0
  1
1200
100
AcDbText
  0
TEXT
  5
20F
330
20
100
AcDbEntity
  8
_0-0_
 62
     7
100
AcDbText
 10
1234.142535633908
 20
1037.370914157111
 30
0.0
 40
60.0
  1
100
100
AcDbText
  0
TEXT
  5
210
330
20
100
AcDbEntity
  8
_0-0_
 62
     7
100
AcDbText
 10
2533.672703890259
 20
1035.811274247133
 30
0.0
 40
60.0
  1
100
100
AcDbText
  0
TEXT
  5
211
330
20
100
AcDbEntity
  8
_0-0_
 62
     7
100
AcDbText
 10
2774.371021326761
 20
2387.252522329561
 30
0.0
 40
60.0
  1
300
 50
90.0
100
AcDbText
  0
TEXT
  5
212
330
20
100
AcDbEntity
  8
_0-0_
 62
     7
100
AcDbText
 10
2773.087236094739
 20
2113.806267908814
 30
0.0
 40
60.0
  1
250
 50
90.0
100
AcDbText
  0
LINE
  5
213
330
20
100
AcDbEntity
  8
_0-0_
  6
Continuous
 62
     4
100
AcDbLine
 10
663.6970711343609
 20
3125.809584918265
 30
0.0
 11
663.6970711343609
 21
1455.809071775204
 31
0.0
  0
LINE
  5
214
330
20
100
AcDbEntity
  8
_0-0_
  6
Continuous
 62
     4
100
AcDbLine
 10
1213.697071134361
 20
1455.809071775204
 30
0.0
 11
653.6970711343609
 21
1455.809071775204
 31
0.0
  0
LINE
  5
215
330
20
100
AcDbEntity
  8
_0-0_
  6
Continuous
 62
     4
100
AcDbLine
 10
1213.697071134361
 20
3025.809584918265
 30
0.0
 11
793.6970711343609
 21
3025.809584918265
 31
0.0
  0
LINE
  5
216
330
20
100
AcDbEntity
  8
_0-0_
  6
Continuous
 62
     4
100
AcDbLine
 10
1213.697071134361
 20
1555.809071775204
 30
0.0
 11
793.6970711343609
 21
1555.809071775204
 31
0.0
  0
LINE
  5
217
330
20
100
AcDbEntity
  8
_0-0_
  6
Continuous
 62
     4
100
AcDbLine
 10
1238.697542448308
 20
3125.809584918265
 30
0.0
 11
653.6970711343609
 21
3125.809584918265
 31
0.0
  0
LINE
  5
218
330
20
100
AcDbEntity
  8
_0-0_
  6
Continuous
 62
     4
100
AcDbLine
 10
1213.697071134361
 20
2905.809584918264
 30
0.0
 11
793.6970711343609
 21
2905.809584918264
 31
0.0
  0
LINE
  5
219
330
20
100
AcDbEntity
  8
_0-0_
  6
Continuous
 62
     4
100
AcDbLine
 10
1213.697071134361
 20
2305.809584918265
 30
0.0
 11
933.6970711343608
 21
2305.809584918265
 31
0.0
  0
LINE
  5
21A
330
20
100
AcDbEntity
  8
_0-0_
  6
Continuous
 62
     4
100
AcDbLine
 10
1213.697071134361
 20
1965.809584918264
 30
0.0
 11
1073.697071134361
 21
1965.809584918264
 31
0.0
  0
LINE
  5
21B
330
20
100
AcDbEntity
  8
_0-0_
  6
Continuous
 62
     4
100
AcDbLine
 10
1213.697071134361
 20
1615.809584918264
 30
0.0
 11
1073.697071134361
 21
1615.809584918264
 31
0.0
  0
LINE
  5
21C
330
20
100
AcDbEntity
  8
_0-0_
  6
Continuous
 62
     4
100
AcDbLine
 10
1083.697071134361
 20
2305.809584918265
 30
0.0
 11
1083.697071134361
 21
1965.809584918264
 31
0.0
  0
LINE
  5
21D
330
20
100
AcDbEntity
  8
_0-0_
  6
Continuous
 62
     4
100
AcDbLine
 10
1083.697071134361
 20
1965.809584918264
 30
0.0
 11
1083.697071134361
 21
1615.809584918264
 31
0.0
  0
LINE
  5
21E
330
20
100
AcDbEntity
  8
_0-0_
  6
Continuous
 62
     4
100
AcDbLine
 10
943.697071134361
 20
2905.809584918264
 30
0.0
 11
943.697071134361
 21
2305.809584918265
 31
0.0
  0
LINE
  5
21F
330
20
100
AcDbEntity
  8
_0-0_
  6
Continuous
 62
     4
100
AcDbLine
 10
943.697071134361
 20
2305.809584918265
 30
0.0
 11
943.697071134361
 21
1555.809071775204
 31
0.0
  0
LINE
  5
220
330
20
100
AcDbEntity
  8
_0-0_
  6
Continuous
 62
     4
100
AcDbLine
 10
803.6970711343609
 20
1555.809071775204
 30
0.0
 11
803.6970711343609
 21
1455.809071775204
 31
0.0
  0
LINE
  5
221
330
20
100
AcDbEntity
  8
_0-0_
  6
Continuous
 62
     4
100
AcDbLine
 10
803.6970711343609
 20
2905.809584918264
 30
0.0
 11
803.6970711343609
 21
1555.809071775204
 31
0.0
  0
LINE
  5
222
330
20
100
AcDbEntity
  8
_0-0_
  6
Continuous
 62
     4
100
AcDbLine
 10
803.6970711343609
 20
3125.809584918265
 30
0.0
 11
803.6970711343609
 21
3025.809584918265
 31
0.0
  0
LINE
  5
223
330
20
100
AcDbEntity
  8
_0-0_
  6
Continuous
 62
     4
100
AcDbLine
 10
803.6970711343609
 20
3025.809584918265
 30
0.0
 11
803.6970711343609
 21
2905.809584918264
 31
0.0
  0
LINE
  5
224
330
20
100
AcDbEntity
  8
_0-0_
  6
Continuous
 62
     4
100
AcDbLine
 10
803.6970711343609
 20
3125.809584918265
 30
0.0
 11
811.4616424874366
 21
3096.831810129593
 31
0.0
  0
LINE
  5
225
330
20
100
AcDbEntity
  8
_0-0_
  6
Continuous
 62
     4
100
AcDbLine
 10
803.6970711343609
 20
3125.809584918265
 30
0.0
 11
795.9324997812854
 21
3096.831810129593
 31
0.0
  0
LINE
  5
226
330
20
100
AcDbEntity
  8
_0-0_
  6
Continuous
 62
     4
100
AcDbLine
 10
803.6970711343609
 20
3025.809584918265
 30
0.0
 11
795.9324997812854
 21
3054.787359706936
 31
0.0
  0
LINE
  5
227
330
20
100
AcDbEntity
  8
_0-0_
  6
Continuous
 62
     4
100
AcDbLine
 10
803.6970711343609
 20
3025.809584918265
 30
0.0
 11
811.4616424874366
 21
3054.787359706936
 31
0.0
  0
LINE
  5
228
330
20
100
AcDbEntity
  8
_0-0_
  6
Continuous
 62
     4
100
AcDbLine
 10
803.6970711343609
 20
3025.809584918265
 30
0.0
 11
811.4616424874366
 21
2996.831810129592
 31
0.0
  0
LINE
  5
229
330
20
100
AcDbEntity
  8
_0-0_
  6
Continuous
 62
     4
100
AcDbLine
 10
803.6970711343609
 20
3025.809584918265
 30
0.0
 11
795.9324997812854
 21
2996.831810129592
 31
0.0
  0
LINE
  5
22A
330
20
100
AcDbEntity
  8
_0-0_
  6
Continuous
 62
     4
100
AcDbLine
 10
803.6970711343609
 20
2905.809584918264
 30
0.0
 11
795.9324997812854
 21
2934.787359706936
 31
0.0
  0
LINE
  5
22B
330
20
100
AcDbEntity
  8
_0-0_
  6
Continuous
 62
     4
100
AcDbLine
 10
803.6970711343609
 20
2905.809584918264
 30
0.0
 11
811.4616424874366
 21
2934.787359706936
 31
0.0
  0
LINE
  5
22C
330
20
100
AcDbEntity
  8
_0-0_
  6
Continuous
 62
     4
100
AcDbLine
 10
943.697071134361
 20
2905.809584918264
 30
0.0
 11
951.4616424874366
 21
2876.831810129592
 31
0.0
  0
LINE
  5
22D
330
20
100
AcDbEntity
  8
_0-0_
  6
Continuous
 62
     4
100
AcDbLine
 10
943.697071134361
 20
2905.809584918264
 30
0.0
 11
935.9324997812853
 21
2876.831810129592
 31
0.0
  0
LINE
  5
22E
330
20
100
AcDbEntity
  8
_0-0_
  6
Continuous
 62
     4
100
AcDbLine
 10
663.6970711343609
 20
3125.809584918265
 30
0.0
 11
671.4616424874367
 21
3096.831810129593
 31
0.0
  0
LINE
  5
22F
330
20
100
AcDbEntity
  8
_0-0_
  6
Continuous
 62
     4
100
AcDbLine
 10
663.6970711343609
 20
3125.809584918265
 30
0.0
 11
655.9324997812853
 21
3096.831810129593
 31
0.0
  0
LINE
  5
230
330
20
100
AcDbEntity
  8
_0-0_
  6
Continuous
 62
     4
100
AcDbLine
 10
803.6970711343609
 20
2905.809584918264
 30
0.0
 11
811.4616424874366
 21
2876.831810129592
 31
0.0
  0
LINE
  5
231
330
20
100
AcDbEntity
  8
_0-0_
  6
Continuous
 62
     4
100
AcDbLine
 10
803.6970711343609
 20
2905.809584918264
 30
0.0
 11
795.9324997812854
 21
2876.831810129592
 31
0.0
  0
LINE
  5
232
330
20
100
AcDbEntity
  8
_0-0_
  6
Continuous
 62
     4
100
AcDbLine
 10
943.697071134361
 20
2305.809584918265
 30
0.0
 11
935.9324997812853
 21
2334.787359706937
 31
0.0
  0
LINE
  5
233
330
20
100
AcDbEntity
  8
_0-0_
  6
Continuous
 62
     4
100
AcDbLine
 10
943.697071134361
 20
2305.809584918265
 30
0.0
 11
951.4616424874366
 21
2334.787359706937
 31
0.0
  0
LINE
  5
234
330
20
100
AcDbEntity
  8
_0-0_
  6
Continuous
 62
     4
100
AcDbLine
 10
943.697071134361
 20
2305.809584918265
 30
0.0
 11
951.4616424874366
 21
2276.831810129592
 31
0.0
  0
LINE
  5
235
330
20
100
AcDbEntity
  8
_0-0_
  6
Continuous
 62
     4
100
AcDbLine
 10
943.697071134361
 20
2305.809584918265
 30
0.0
 11
935.9324997812853
 21
2276.831810129592
 31
0.0
  0
LINE
  5
236
330
20
100
AcDbEntity
  8
_0-0_
  6
Continuous
 62
     4
100
AcDbLine
 10
1083.697071134361
 20
2305.809584918265
 30
0.0
 11
1091.461642487436
 21
2276.831810129592
 31
0.0
  0
LINE
  5
237
330
20
100
AcDbEntity
  8
_0-0_
  6
Continuous
 62
     4
100
AcDbLine
 10
1083.697071134361
 20
2305.809584918265
 30
0.0
 11
1075.932499781285
 21
2276.831810129592
 31
0.0
  0
LINE
  5
238
330
20
100
AcDbEntity
  8
_0-0_
  6
Continuous
 62
     4
100
AcDbLine
 10
1083.697071134361
 20
1965.809584918264
 30
0.0
 11
1075.932499781285
 21
1994.787359706936
 31
0.0
  0
LINE
  5
239
330
20
100
AcDbEntity
  8
_0-0_
  6
Continuous
 62
     4
100
AcDbLine
 10
1083.697071134361
 20
1965.809584918264
 30
0.0
 11
1091.461642487436
 21
1994.787359706936
 31
0.0
  0
LINE
  5
23A
330
20
100
AcDbEntity
  8
_0-0_
  6
Continuous
 62
     4
100
AcDbLine
 10
1083.697071134361
 20
1965.809584918264
 30
0.0
 11
1091.461642487436
 21
1936.831810129592
 31
0.0
  0
LINE
  5
23B
330
20
100
AcDbEntity
  8
_0-0_
  6
Continuous
 62
     4
100
AcDbLine
 10
1083.697071134361
 20
1965.809584918264
 30
0.0
 11
1075.932499781285
 21
1936.831810129592
 31
0.0
  0
LINE
  5
23C
330
20
100
AcDbEntity
  8
_0-0_
  6
Continuous
 62
     4
100
AcDbLine
 10
1083.697071134361
 20
1615.809584918264
 30
0.0
 11
1075.932499781285
 21
1644.787359706937
 31
0.0
  0
LINE
  5
23D
330
20
100
AcDbEntity
  8
_0-0_
  6
Continuous
 62
     4
100
AcDbLine
 10
1083.697071134361
 20
1615.809584918264
 30
0.0
 11
1091.461642487436
 21
1644.787359706937
 31
0.0
  0
LINE
  5
23E
330
20
100
AcDbEntity
  8
_0-0_
  6
Continuous
 62
     4
100
AcDbLine
 10
943.697071134361
 20
1555.809071775204
 30
0.0
 11
935.9324997812853
 21
1584.786846563876
 31
0.0
  0
LINE
  5
23F
330
20
100
AcDbEntity
  8
_0-0_
  6
Continuous
 62
     4
100
AcDbLine
 10
943.697071134361
 20
1555.809071775204
 30
0.0
 11
951.4616424874366
 21
1584.786846563876
 31
0.0
  0
LINE
  5
240
330
20
100
AcDbEntity
  8
_0-0_
  6
Continuous
 62
     4
100
AcDbLine
 10
803.6970711343609
 20
1555.809071775204
 30
0.0
 11
795.9324997812854
 21
1584.786846563876
 31
0.0
  0
LINE
  5
241
330
20
100
AcDbEntity
  8
_0-0_
  6
Continuous
 62
     4
100
AcDbLine
 10
803.6970711343609
 20
1555.809071775204
 30
0.0
 11
811.4616424874366
 21
1584.786846563876
 31
0.0
  0
LINE
  5
242
330
20
100
AcDbEntity
  8
_0-0_
  6
Continuous
 62
     4
100
AcDbLine
 10
803.6970711343609
 20
1555.809071775204
 30
0.0
 11
811.4616424874366
 21
1526.831296986531
 31
0.0
  0
LINE
  5
243
330
20
100
AcDbEntity
  8
_0-0_
  6
Continuous
 62
     4
100
AcDbLine
 10
803.6970711343609
 20
1555.809071775204
 30
0.0
 11
795.9324997812854
 21
1526.831296986531
 31
0.0
  0
LINE
  5
244
330
20
100
AcDbEntity
  8
_0-0_
  6
Continuous
 62
     4
100
AcDbLine
 10
803.6970711343609
 20
1455.809071775204
 30
0.0
 11
795.9324997812854
 21
1484.786846563876
 31
0.0
  0
LINE
  5
245
330
20
100
AcDbEntity
  8
_0-0_
  6
Continuous
 62
     4
100
AcDbLine
 10
803.6970711343609
 20
1455.809071775204
 30
0.0
 11
811.4616424874366
 21
1484.786846563876
 31
0.0
  0
LINE
  5
246
330
20
100
AcDbEntity
  8
_0-0_
  6
Continuous
 62
     4
100
AcDbLine
 10
663.6970711343609
 20
1455.809071775204
 30
0.0
 11
655.9324997812853
 21
1484.786846563876
 31
0.0
  0
LINE
  5
247
330
20
100
AcDbEntity
  8
_0-0_
  6
Continuous
 62
     4
100
AcDbLine
 10
663.6970711343609
 20
1455.809071775204
 30
0.0
 11
671.4616424874367
 21
1484.786846563876
 31
0.0
  0
TEXT
  5
248
330
20
100
AcDbEntity
  8
_0-0_
 62
     7
100
AcDbText
 10
791.8883292251636
 20
3023.402850712678
 30
0.0
 40
60.0
  1
100
 50
90.0
100
AcDbText
  0
TEXT
  5
249
330
20
100
AcDbEntity
  8
_0-0_
 62
     7
100
AcDbText
 10
874.729610974172
 20
2916.100042241009
 30
0.0
 40
60.0
  1
150
 50
90.0
100
AcDbText
  0
TEXT
  5
24A
330
20
100
AcDbEntity
  8
_0-0_
 62
     7
100
AcDbText
 10
935.8420319365555
 20
2556.232343800236
 30
0.0
 40
60.0
  1
600
 50
90.0
100
AcDbText
  0
TEXT
  5
24B
330
20
100
AcDbEntity
  8
_0-0_
 62
     7
100
AcDbText
 10
791.7798477351397
 20
1469.82943509484
 30
0.0
 40
60.0
  1
100
 50
90.0
100
AcDbText
  0
TEXT
  5
24C
330
20
100
AcDbEntity
  8
_0-0_
 62
     7
100
AcDbText
 10
1074.851570035366
 20
2085.327188940092
 30
0.0
 40
60.0
  1
340
 50
90.0
100
AcDbText
  0
TEXT
  5
24D
330
20
100
AcDbEntity
  8
_0-0_
 62
     7
100
AcDbText
 10
1074.851570035366
 20
1738.34444325367
 30
0.0
 40
60.0
  1
350
 50
90.0
100
AcDbText
  0
TEXT
  5
24E
330
20
100
AcDbEntity
  8
_0-0_
 62
     7
100
AcDbText
 10
935.8208123459435
 20
1880.940092165898
 30
0.0
 40
60.0
  1
750
 50
90.0
100
AcDbText
  0
TEXT
  5
24F
330
20
100
AcDbEntity
  8
_0-0_
 62
     7
100
AcDbText
 10
654.0458686100098
 20
2219.753295466724
 30
0.0
 40
60.0
  1
1670
 50
90.0
100
AcDbText
  0
TEXT
  5
250
330
20
100
AcDbEntity
  8
_0-0_
 62
     7
100
AcDbText
 10
793.0129675275964
 20
2162.439181223877
 30
0.0
 40
60.0
  1
1350
 50
90.0
100
AcDbText
  0
LINE
  5
251
330
20
100
AcDbEntity
  8
_0-0_
  6
Continuous
 62
     4
100
AcDbLine
 10
1933.69605118152
 20
2225.809173696845
 30
0.0
 11
1933.69605118152
 21
2085.809173696844
 31
0.0
  0
LINE
  5
252
330
20
100
AcDbEntity
  8
_0-0_
  6
Continuous
 62
     4
100
AcDbLine
 10
2133.696051181521
 20
2225.809173696845
 30
0.0
 11
2133.696051181521
 21
2085.809173696844
 31
0.0
  0
LINE
  5
253
330
20
100
AcDbEntity
  8
_0-0_
  6
Continuous
 62
     4
100
AcDbLine
 10
1733.69605118152
 20
2225.809173696845
 30
0.0
 11
1733.69605118152
 21
2085.809173696844
 31
0.0
  0
LINE
  5
254
330
20
100
AcDbEntity
  8
_0-0_
  6
Continuous
 62
     4
100
AcDbLine
 10
1933.69605118152
 20
2215.809173696845
 30
0.0
 11
2133.696051181521
 21
2215.809173696845
 31
0.0
  0
LINE
  5
255
330
20
100
AcDbEntity
  8
_0-0_
  6
Continuous
 62
     4
100
AcDbLine
 10
1933.69605118152
 20
2215.809173696845
 30
0.0
 11
1733.69605118152
 21
2215.809173696845
 31
0.0
  0
LINE
  5
256
330
20
100
AcDbEntity
  8
_0-0_
  6
Continuous
 62
     4
100
AcDbLine
 10
2133.696051181521
 20
2215.809173696845
 30
0.0
 11
2104.718276392849
 21
2208.04460234377
 31
0.0
  0
LINE
  5
257
330
20
100
AcDbEntity
  8
_0-0_
  6
Continuous
 62
     4
100
AcDbLine
 10
2133.696051181521
 20
2215.809173696845
 30
0.0
 11
2104.718276392849
 21
2223.57374504992
 31
0.0
  0
LINE
  5
258
330
20
100
AcDbEntity
  8
_0-0_
  6
Continuous
 62
     4
100
AcDbLine
 10
1933.69605118152
 20
2215.809173696845
 30
0.0
 11
1962.673825970193
 21
2223.57374504992
 31
0.0
  0
LINE
  5
259
330
20
100
AcDbEntity
  8
_0-0_
  6
Continuous
 62
     4
100
AcDbLine
 10
1933.69605118152
 20
2215.809173696845
 30
0.0
 11
1962.673825970193
 21
2208.04460234377
 31
0.0
  0
LINE
  5
25A
330
20
100
AcDbEntity
  8
_0-0_
  6
Continuous
 62
     4
100
AcDbLine
 10
1933.69605118152
 20
2215.809173696845
 30
0.0
 11
1904.718276392849
 21
2208.04460234377
 31
0.0
  0
LINE
  5
25B
330
20
100
AcDbEntity
  8
_0-0_
  6
Continuous
 62
     4
100
AcDbLine
 10
1933.69605118152
 20
2215.809173696845
 30
0.0
 11
1904.718276392849
 21
2223.57374504992
 31
0.0
  0
LINE
  5
25C
330
20
100
AcDbEntity
  8
_0-0_
  6
Continuous
 62
     4
100
AcDbLine
 10
1733.69605118152
 20
2215.809173696845
 30
0.0
 11
1762.673825970193
 21
2223.57374504992
 31
0.0
  0
LINE
  5
25D
330
20
100
AcDbEntity
  8
_0-0_
  6
Continuous
 62
     4
100
AcDbLine
 10
1733.69605118152
 20
2215.809173696845
 30
0.0
 11
1762.673825970193
 21
2208.04460234377
 31
0.0
  0
TEXT
  5
25E
330
20
100
AcDbEntity
  8
_0-0_
 62
     7
100
AcDbText
 10
1758.536720259217
 20
2224.223491685957
 30
0.0
 40
60.0
  1
200
100
AcDbText
  0
TEXT
  5
25F
330
20
100
AcDbEntity
  8
_0-0_
 62
     7
100
AcDbText
 10
1958.396294682119
 20
2224.223491685957
 30
0.0
 40
60.0
  1
200
100
AcDbText
  0
LINE
  5
260
330
20
100
AcDbEntity
  8
_0-0_
  6
Continuous
 62
     4
100
AcDbLine
 10
1738.984911882302
 20
2614.295853239169
 30
0.0
 11
1795.453532141615
 21
2713.479137165301
 31
0.0
  0
LINE
  5
261
330
20
100
AcDbEntity
  8
_0-0_
  6
Continuous
 62
     4
100
AcDbLine
 10
1738.984911882302
 20
2614.295853239169
 30
0.0
 11
1746.574563218695
 21
2643.319932769657
 31
0.0
  0
LINE
  5
262
330
20
100
AcDbEntity
  8
_0-0_
  6
Continuous
 62
     4
100
AcDbLine
 10
1738.984911882302
 20
2614.295853239169
 30
0.0
 11
1760.069782510728
 21
2635.636617765833
 31
0.0
  0
TEXT
  5
263
330
20
100
AcDbEntity
  8
_0-0_
 62
     7
100
AcDbText
 10
1810.994075049375
 20
2720.222132557497
 30
0.0
 40
60.0
  1
インサート M12
100
AcDbText
  0
LINE
  5
264
330
20
100
AcDbEntity
  8
_0-0_
  6
Continuous
 62
     4
100
AcDbLine
 10
1795.453532141615
 20
2713.479137165301
 30
0.0
 11
2353.613163162028
 21
2713.479137165301
 31
0.0
  0
ENDSEC
  0
SECTION
  2
OBJECTS
  0
DICTIONARY
  5
C
330
0
100
AcDbDictionary
281
     1
  3
ACAD_COLOR
350
1B
  3
ACAD_GROUP
350
D
  3
ACAD_LAYOUT
350
19
  3
ACAD_MATERIAL
350
1A
  3
ACAD_MLINESTYLE
350
16
  3
ACAD_PLOTSETTINGS
350
18
  3
ACAD_PLOTSTYLENAME
350
E
  3
ACDBHEADERROUNDTRIPXREC
350
26B
  3
AcDbVariableDictionary
350
267
  0
DICTIONARY
  5
1B
102
{ACAD_REACTORS
330
C
102
}
330
C
100
AcDbDictionary
281
     1
  0
DICTIONARY
  5
D
102
{ACAD_REACTORS
330
C
102
}
330
C
100
AcDbDictionary
281
     1
  0
DICTIONARY
  5
19
102
{ACAD_REACTORS
330
C
102
}
330
C
100
AcDbDictionary
281
     1
  3
Model
350
23
  3
レイアウト1
350
1F
  0
DICTIONARY
  5
1A
102
{ACAD_REACTORS
330
C
102
}
330
C
100
AcDbDictionary
281
     1
  0
DICTIONARY
  5
16
102
{ACAD_REACTORS
330
C
102
}
330
C
100
AcDbDictionary
281
     1
  3
Standard
350
17
  0
DICTIONARY
  5
18
102
{ACAD_REACTORS
330
C
102
}
330
C
100
AcDbDictionary
281
     1
  0
ACDBDICTIONARYWDFLT
  5
E
102
{ACAD_REACTORS
330
C
102
}
330
C
100
AcDbDictionary
281
     1
  3
Normal
350
F
100
AcDbDictionaryWithDefault
340
F
  0
DICTIONARY
  5
26B
102
{ACAD_REACTORS
330
C
102
}
330
C
100
AcDbDictionary
281
     1
  3
COLORDICT
350
26D
  3
MATERIALDICT
350
26C
  0
DICTIONARY
  5
267
102
{ACAD_REACTORS
330
C
102
}
330
C
100
AcDbDictionary
281
     1
  3
DIMASSOC
350
268
  3
PROJECTNAME
350
269
  0
LAYOUT
  5
23
102
{ACAD_XDICTIONARY
360
270
102
}
102
{ACAD_REACTORS
330
19
102
}
330
19
100
AcDbPlotSettings
  1

  2
RICOH imagio MP C3300 RPCS
  4

  6

 40
0.0
 41
0.0
 42
0.0
 43
0.0
 44
0.0
 45
0.0
 46
0.0
 47
0.0
 48
0.0
 49
0.0
140
0.0
141
0.0
142
1.0
143
1.0
 70
  1712
 72
     0
 73
     0
 74
     0
  7

 75
     0
147
1.0
148
0.0
149
0.0
100
AcDbLayout
  1
Model
 70
     1
 71
     0
 10
0.0
 20
0.0
 11
12.0
 21
9.0
 12
0.0
 22
0.0
 32
0.0
 14
0.0
 24
0.0
 34
0.0
 15
0.0
 25
0.0
 35
0.0
146
0.0
 13
0.0
 23
0.0
 33
0.0
 16
1.0
 26
0.0
 36
0.0
 17
0.0
 27
1.0
 37
0.0
 76
     0
330
20
  0
LAYOUT
  5
1F
102
{ACAD_XDICTIONARY
360
26E
102
}
102
{ACAD_REACTORS
330
19
102
}
330
19
100
AcDbPlotSettings
  1

  2
RICOH imagio MP C3300 RPCS
  4

  6

 40
0.0
 41
0.0
 42
0.0
 43
0.0
 44
0.0
 45
0.0
 46
0.0
 47
0.0
 48
0.0
 49
0.0
140
0.0
141
0.0
142
1.0
143
1.0
 70
   688
 72
     0
 73
     0
 74
     5
  7

 75
    16
147
1.0
148
0.0
149
0.0
100
AcDbLayout
  1
レイアウト1
 70
     1
 71
     1
 10
0.0
 20
0.0
 11
12.0
 21
9.0
 12
0.0
 22
0.0
 32
0.0
 14
1.000000000000000E+20
 24
1.000000000000000E+20
 34
1.000000000000000E+20
 15
-1.000000000000000E+20
 25
-1.000000000000000E+20
 35
-1.000000000000000E+20
146
0.0
 13
0.0
 23
0.0
 33
0.0
 16
1.0
 26
0.0
 36
0.0
 17
0.0
 27
1.0
 37
0.0
 76
     0
330
1C
  0
MLINESTYLE
  5
17
102
{ACAD_REACTORS
330
16
102
}
330
16
100
AcDbMlineStyle
  2
STANDARD
 70
     0
  3

 62
   256
 51
90.0
 52
90.0
 71
     2
 49
0.5
 62
   256
  6
BYLAYER
 49
-0.5
 62
   256
  6
BYLAYER
  0
ACDBPLACEHOLDER
  5
F
102
{ACAD_REACTORS
330
E
102
}
330
E
  0
XRECORD
  5
26D
102
{ACAD_REACTORS
330
26B
102
}
330
26B
100
AcDbXrecord
280
     1
340
1B
  0
XRECORD
  5
26C
102
{ACAD_REACTORS
330
26B
102
}
330
26B
100
AcDbXrecord
280
     1
340
1A
  0
DICTIONARYVAR
  5
268
102
{ACAD_REACTORS
330
267
102
}
330
267
100
DictionaryVariables
280
     0
  1
1
  0
DICTIONARYVAR
  5
269
102
{ACAD_REACTORS
330
267
102
}
330
267
100
DictionaryVariables
280
     0
  1

  0
DICTIONARY
  5
270
330
23
100
AcDbDictionary
280
     1
281
     1
  3
ACAD_XREC_ROUNDTRIP
360
271
  0
DICTIONARY
  5
26E
330
1F
100
AcDbDictionary
280
     1
281
     1
  3
ACAD_XREC_ROUNDTRIP
360
26F
  0
XRECORD
  5
271
102
{ACAD_REACTORS
330
270
102
}
330
270
100
AcDbXrecord
280
     1
102
SHADEPLOT
 70
     0
102
SHADEPLOTRESLEVEL
 70
     2
102
SHADEPLOTCUSTOMDPI
 70
   300
  0
XRECORD
  5
26F
102
{ACAD_REACTORS
330
26E
102
}
330
26E
100
AcDbXrecord
280
     1
102
SHADEPLOT
 70
     0
102
SHADEPLOTRESLEVEL
 70
     2
102
SHADEPLOTCUSTOMDPI
 70
   300
  0
ENDSEC
  0
EOF
