  0
SECTION
  2
HEADER
  9
$ACADVER
  1
AC1015
  9
$ACADMAINTVER
 70
    20
  9
$DWGCODEPAGE
  3
ANSI_932
  9
$INSBASE
 10
0.0
 20
0.0
 30
0.0
  9
$EXTMIN
 10
211.9098041158977
 20
242.1203713888772
 30
-0.0015258207003583
  9
$EXTMAX
 10
5972.357496777964
 20
4006.265268342411
 30
0.0000000349246037
  9
$LIMMIN
 10
0.0
 20
0.0
  9
$LIMMAX
 10
5940.0
 20
4200.0
  9
$ORTHOMODE
 70
     1
  9
$REGENMODE
 70
     1
  9
$FILLMODE
 70
     1
  9
$QTEXTMODE
 70
     0
  9
$MIRRTEXT
 70
     0
  9
$LTSCALE
 40
20.0
  9
$ATTMODE
 70
     1
  9
$TEXTSIZE
 40
0.2
  9
$TRACEWID
 40
0.05
  9
$TEXTSTYLE
  7
STANDARD
  9
$CLAYER
  8
0
  9
$CELTYPE
  6
CONTINUOUS
  9
$CECOLOR
 62
     4
  9
$CELTSCALE
 40
1.0
  9
$DISPSILH
 70
     0
  9
$DIMSCALE
 40
1.0
  9
$DIMASZ
 40
0.18
  9
$DIMEXO
 40
0.0625
  9
$DIMDLI
 40
0.38
  9
$DIMRND
 40
0.0
  9
$DIMDLE
 40
0.0
  9
$DIMEXE
 40
0.18
  9
$DIMTP
 40
0.0
  9
$DIMTM
 40
0.0
  9
$DIMTXT
 40
0.18
  9
$DIMCEN
 40
0.09
  9
$DIMTSZ
 40
0.0
  9
$DIMTOL
 70
     0
  9
$DIMLIM
 70
     0
  9
$DIMTIH
 70
     1
  9
$DIMTOH
 70
     1
  9
$DIMSE1
 70
     0
  9
$DIMSE2
 70
     0
  9
$DIMTAD
 70
     0
  9
$DIMZIN
 70
     0
  9
$DIMBLK
  1

  9
$DIMASO
 70
     1
  9
$DIMSHO
 70
     1
  9
$DIMPOST
  1

  9
$DIMAPOST
  1

  9
$DIMALT
 70
     0
  9
$DIMALTD
 70
     2
  9
$DIMALTF
 40
25.4
  9
$DIMLFAC
 40
1.0
  9
$DIMTOFL
 70
     0
  9
$DIMTVP
 40
0.0
  9
$DIMTIX
 70
     0
  9
$DIMSOXD
 70
     0
  9
$DIMSAH
 70
     0
  9
$DIMBLK1
  1

  9
$DIMBLK2
  1

  9
$DIMSTYLE
  2
Standard
  9
$DIMCLRD
 70
     0
  9
$DIMCLRE
 70
     0
  9
$DIMCLRT
 70
     0
  9
$DIMTFAC
 40
1.0
  9
$DIMGAP
 40
0.09
  9
$DIMJUST
 70
     0
  9
$DIMSD1
 70
     0
  9
$DIMSD2
 70
     0
  9
$DIMTOLJ
 70
     1
  9
$DIMTZIN
 70
     0
  9
$DIMALTZ
 70
     0
  9
$DIMALTTZ
 70
     0
  9
$DIMUPT
 70
     0
  9
$DIMDEC
 70
     4
  9
$DIMTDEC
 70
     4
  9
$DIMALTU
 70
     2
  9
$DIMALTTD
 70
     2
  9
$DIMTXSTY
  7
STANDARD
  9
$DIMAUNIT
 70
     0
  9
$DIMADEC
 70
     0
  9
$DIMALTRND
 40
0.0
  9
$DIMAZIN
 70
     0
  9
$DIMDSEP
 70
    46
  9
$DIMATFIT
 70
     3
  9
$DIMFRAC
 70
     0
  9
$DIMLDRBLK
  1

  9
$DIMLUNIT
 70
     2
  9
$DIMLWD
 70
    -2
  9
$DIMLWE
 70
    -2
  9
$DIMTMOVE
 70
     0
  9
$LUNITS
 70
     2
  9
$LUPREC
 70
     4
  9
$SKETCHINC
 40
0.1
  9
$FILLETRAD
 40
0.0
  9
$AUNITS
 70
     0
  9
$AUPREC
 70
     0
  9
$MENU
  1
.
  9
$ELEVATION
 40
0.0
  9
$PELEVATION
 40
0.0
  9
$THICKNESS
 40
0.0
  9
$LIMCHECK
 70
     0
  9
$CHAMFERA
 40
0.0
  9
$CHAMFERB
 40
0.0
  9
$CHAMFERC
 40
0.0
  9
$CHAMFERD
 40
0.0
  9
$SKPOLY
 70
     0
  9
$TDCREATE
 40
2457253.688596412
  9
$TDUCREATE
 40
2457253.313596412
  9
$TDUPDATE
 40
2457253.693365440
  9
$TDUUPDATE
 40
2457253.318365440
  9
$TDINDWG
 40
0.0047693866
  9
$TDUSRTIMER
 40
0.0047693866
  9
$USRTIMER
 70
     1
  9
$ANGBASE
 50
0.0
  9
$ANGDIR
 70
     0
  9
$PDMODE
 70
     0
  9
$PDSIZE
 40
0.0
  9
$PLINEWID
 40
0.0
  9
$SPLFRAME
 70
     0
  9
$SPLINETYPE
 70
     6
  9
$SPLINESEGS
 70
     8
  9
$HANDSEED
  5
4A2
  9
$SURFTAB1
 70
     6
  9
$SURFTAB2
 70
     6
  9
$SURFTYPE
 70
     6
  9
$SURFU
 70
     6
  9
$SURFV
 70
     6
  9
$UCSBASE
  2

  9
$UCSNAME
  2

  9
$UCSORG
 10
0.0
 20
0.0
 30
0.0
  9
$UCSXDIR
 10
1.0
 20
0.0
 30
0.0
  9
$UCSYDIR
 10
0.0
 20
1.0
 30
0.0
  9
$UCSORTHOREF
  2

  9
$UCSORTHOVIEW
 70
     0
  9
$UCSORGTOP
 10
0.0
 20
0.0
 30
0.0
  9
$UCSORGBOTTOM
 10
0.0
 20
0.0
 30
0.0
  9
$UCSORGLEFT
 10
0.0
 20
0.0
 30
0.0
  9
$UCSORGRIGHT
 10
0.0
 20
0.0
 30
0.0
  9
$UCSORGFRONT
 10
0.0
 20
0.0
 30
0.0
  9
$UCSORGBACK
 10
0.0
 20
0.0
 30
0.0
  9
$PUCSBASE
  2

  9
$PUCSNAME
  2

  9
$PUCSORG
 10
0.0
 20
0.0
 30
0.0
  9
$PUCSXDIR
 10
1.0
 20
0.0
 30
0.0
  9
$PUCSYDIR
 10
0.0
 20
1.0
 30
0.0
  9
$PUCSORTHOREF
  2

  9
$PUCSORTHOVIEW
 70
     0
  9
$PUCSORGTOP
 10
0.0
 20
0.0
 30
0.0
  9
$PUCSORGBOTTOM
 10
0.0
 20
0.0
 30
0.0
  9
$PUCSORGLEFT
 10
0.0
 20
0.0
 30
0.0
  9
$PUCSORGRIGHT
 10
0.0
 20
0.0
 30
0.0
  9
$PUCSORGFRONT
 10
0.0
 20
0.0
 30
0.0
  9
$PUCSORGBACK
 10
0.0
 20
0.0
 30
0.0
  9
$USERI1
 70
     0
  9
$USERI2
 70
     0
  9
$USERI3
 70
     0
  9
$USERI4
 70
     0
  9
$USERI5
 70
     0
  9
$USERR1
 40
0.0
  9
$USERR2
 40
0.0
  9
$USERR3
 40
0.0
  9
$USERR4
 40
0.0
  9
$USERR5
 40
0.0
  9
$WORLDVIEW
 70
     1
  9
$SHADEDGE
 70
     3
  9
$SHADEDIF
 70
    70
  9
$TILEMODE
 70
     1
  9
$MAXACTVP
 70
    64
  9
$PINSBASE
 10
0.0
 20
0.0
 30
0.0
  9
$PLIMCHECK
 70
     0
  9
$PEXTMIN
 10
1.000000000000000E+20
 20
1.000000000000000E+20
 30
1.000000000000000E+20
  9
$PEXTMAX
 10
-1.000000000000000E+20
 20
-1.000000000000000E+20
 30
-1.000000000000000E+20
  9
$PLIMMIN
 10
0.0
 20
0.0
  9
$PLIMMAX
 10
12.0
 20
9.0
  9
$UNITMODE
 70
     0
  9
$VISRETAIN
 70
     1
  9
$PLINEGEN
 70
     0
  9
$PSLTSCALE
 70
     1
  9
$TREEDEPTH
 70
  3020
  9
$CMLSTYLE
  2
Standard
  9
$CMLJUST
 70
     0
  9
$CMLSCALE
 40
1.0
  9
$PROXYGRAPHICS
 70
     1
  9
$MEASUREMENT
 70
     0
  9
$CELWEIGHT
370
    -1
  9
$ENDCAPS
280
     0
  9
$JOINSTYLE
280
     0
  9
$LWDISPLAY
290
     0
  9
$INSUNITS
 70
     0
  9
$HYPERLINKBASE
  1

  9
$STYLESHEET
  1

  9
$XEDIT
290
     1
  9
$CEPSNTYPE
380
     0
  9
$PSTYLEMODE
290
     1
  9
$FINGERPRINTGUID
  2
{F8BBA4DF-3242-46B4-9C07-801426817D78}
  9
$VERSIONGUID
  2
{9FE0A6D4-AD47-4072-8175-72953CD9D5D3}
  9
$EXTNAMES
290
     1
  9
$PSVPSCALE
 40
0.0
  9
$OLESTARTUP
290
     0
  0
ENDSEC
  0
SECTION
  2
CLASSES
  0
CLASS
  1
ACDBDICTIONARYWDFLT
  2
AcDbDictionaryWithDefault
  3
ObjectDBX Classes
 90
        0
280
     0
281
     0
  0
CLASS
  1
DICTIONARYVAR
  2
AcDbDictionaryVar
  3
ObjectDBX Classes
 90
        0
280
     0
281
     0
  0
CLASS
  1
ACDBPLACEHOLDER
  2
AcDbPlaceHolder
  3
ObjectDBX Classes
 90
        0
280
     0
281
     0
  0
CLASS
  1
LAYOUT
  2
AcDbLayout
  3
ObjectDBX Classes
 90
        0
280
     0
281
     0
  0
ENDSEC
  0
SECTION
  2
TABLES
  0
TABLE
  2
VPORT
  5
8
330
0
100
AcDbSymbolTable
 70
     2
  0
VPORT
  5
49A
330
8
100
AcDbSymbolTableRecord
100
AcDbViewportTableRecord
  2
*Active
 70
     0
 10
0.0
 20
0.0
 11
1.0
 21
1.0
 12
2829.877365435114
 22
2095.193033629685
 13
0.0
 23
0.0
 14
1.0
 24
1.0
 15
0.0
 25
0.0
 16
0.0
 26
0.0
 36
1.0
 17
0.0
 27
0.0
 37
0.0
 40
3693.202332847703
 41
1.609333333333333
 42
50.0
 43
0.0
 44
0.0
 50
0.0
 51
0.0
 71
     0
 72
   100
 73
     1
 74
     1
 75
     0
 76
     0
 77
     0
 78
     0
281
     0
 65
     1
110
0.0
120
0.0
130
0.0
111
1.0
121
0.0
131
0.0
112
0.0
122
1.0
132
0.0
 79
     0
146
0.0
  0
ENDTAB
  0
TABLE
  2
LTYPE
  5
5
330
0
100
AcDbSymbolTable
 70
    35
  0
LTYPE
  5
13
330
5
100
AcDbSymbolTableRecord
100
AcDbLinetypeTableRecord
  2
ByBlock
 70
     0
  3

 72
    65
 73
     0
 40
0.0
  0
LTYPE
  5
14
330
5
100
AcDbSymbolTableRecord
100
AcDbLinetypeTableRecord
  2
ByLayer
 70
     0
  3

 72
    65
 73
     0
 40
0.0
  0
LTYPE
  5
15
330
5
100
AcDbSymbolTableRecord
100
AcDbLinetypeTableRecord
  2
CONTINUOUS
 70
     0
  3
実線
 72
    65
 73
     0
 40
0.0
  0
LTYPE
  5
24
330
5
100
AcDbSymbolTableRecord
100
AcDbLinetypeTableRecord
  2
DASHED1
 70
     0
  3
--  --  --  --  --  --  --  --  
 72
    65
 73
     2
 40
2.5
 49
1.25
 74
     0
 49
-1.25
 74
     0
  0
LTYPE
  5
25
330
5
100
AcDbSymbolTableRecord
100
AcDbLinetypeTableRecord
  2
DASHED2
 70
     0
  3
----    ----    ----    ----    
 72
    65
 73
     2
 40
5.0
 49
2.5
 74
     0
 49
-2.5
 74
     0
  0
LTYPE
  5
26
330
5
100
AcDbSymbolTableRecord
100
AcDbLinetypeTableRecord
  2
DASHED3
 70
     0
  3
------  ------  ------  ------  
 72
    65
 73
     2
 40
5.0
 49
3.75
 74
     0
 49
-1.25
 74
     0
  0
LTYPE
  5
27
330
5
100
AcDbSymbolTableRecord
100
AcDbLinetypeTableRecord
  2
CENTER1
 70
     0
  3
----- - ----- - ----- - ----- - 
 72
    65
 73
     4
 40
10.0
 49
6.25
 74
     0
 49
-1.25
 74
     0
 49
1.25
 74
     0
 49
-1.25
 74
     0
  0
LTYPE
  5
28
330
5
100
AcDbSymbolTableRecord
100
AcDbLinetypeTableRecord
  2
CENTER2
 70
     0
  3
----------  --  ----------  --  
 72
    65
 73
     4
 40
20.0
 49
12.5
 74
     0
 49
-2.5
 74
     0
 49
2.5
 74
     0
 49
-2.5
 74
     0
  0
LTYPE
  5
29
330
5
100
AcDbSymbolTableRecord
100
AcDbLinetypeTableRecord
  2
PHANTOM1
 70
     0
  3
--- - - --- - - --- - - --- - - 
 72
    65
 73
     6
 40
10.0
 49
3.25
 74
     0
 49
-1.25
 74
     0
 49
1.25
 74
     0
 49
-1.25
 74
     0
 49
1.25
 74
     0
 49
-1.25
 74
     0
  0
LTYPE
  5
2A
330
5
100
AcDbSymbolTableRecord
100
AcDbLinetypeTableRecord
  2
PHANTOM2
 70
     0
  3
--------  -  -  --------  -  -  
 72
    65
 73
     6
 40
20.0
 49
10.0
 74
     0
 49
-2.5
 74
     0
 49
1.25
 74
     0
 49
-2.5
 74
     0
 49
1.25
 74
     0
 49
-2.5
 74
     0
  0
LTYPE
  5
2B
330
5
100
AcDbSymbolTableRecord
100
AcDbLinetypeTableRecord
  2
DOT
 70
     0
  3
-   -   -   -   -   -   -   -   
 72
    65
 73
     2
 40
2.5
 49
0.625
 74
     0
 49
-1.875
 74
     0
  0
LTYPE
  5
2C
330
5
100
AcDbSymbolTableRecord
100
AcDbLinetypeTableRecord
  2
DUMMY
 70
     0
  3
ダミー
 72
    65
 73
     0
 40
0.0
  0
LTYPE
  5
2D
330
5
100
AcDbSymbolTableRecord
100
AcDbLinetypeTableRecord
  2
RAND1
 70
     0
  3
ランダム線1
 72
    65
 73
     4
 40
10.0
 49
1.0
 74
     0
 49
-2.0
 74
     0
 49
3.0
 74
     0
 49
-4.0
 74
     0
  0
LTYPE
  5
2E
330
5
100
AcDbSymbolTableRecord
100
AcDbLinetypeTableRecord
  2
RAND2
 70
     0
  3
ランダム線2
 72
    65
 73
     4
 40
14.0
 49
2.0
 74
     0
 49
-3.0
 74
     0
 49
4.0
 74
     0
 49
-5.0
 74
     0
  0
LTYPE
  5
2F
330
5
100
AcDbSymbolTableRecord
100
AcDbLinetypeTableRecord
  2
RAND3
 70
     0
  3
ランダム線3
 72
    65
 73
     4
 40
18.0
 49
3.0
 74
     0
 49
-4.0
 74
     0
 49
5.0
 74
     0
 49
-6.0
 74
     0
  0
LTYPE
  5
30
330
5
100
AcDbSymbolTableRecord
100
AcDbLinetypeTableRecord
  2
RAND4
 70
     0
  3
ランダム線4
 72
    65
 73
     4
 40
22.0
 49
4.0
 74
     0
 49
-5.0
 74
     0
 49
6.0
 74
     0
 49
-7.0
 74
     0
  0
LTYPE
  5
31
330
5
100
AcDbSymbolTableRecord
100
AcDbLinetypeTableRecord
  2
RAND5
 70
     0
  3
ランダム線5
 72
    65
 73
     4
 40
26.0
 49
5.0
 74
     0
 49
-6.0
 74
     0
 49
7.0
 74
     0
 49
-8.0
 74
     0
  0
LTYPE
  5
32
330
5
100
AcDbSymbolTableRecord
100
AcDbLinetypeTableRecord
  2
LONG1
 70
     0
  3
----------  --  ----------  --  
 72
    65
 73
     4
 40
40.0
 49
32.5
 74
     0
 49
-2.5
 74
     0
 49
2.5
 74
     0
 49
-2.5
 74
     0
  0
LTYPE
  5
33
330
5
100
AcDbSymbolTableRecord
100
AcDbLinetypeTableRecord
  2
LONG2
 70
     0
  3
--------  -  -  --------  -  -  
 72
    65
 73
     6
 40
40.0
 49
30.0
 74
     0
 49
-2.5
 74
     0
 49
1.25
 74
     0
 49
-2.5
 74
     0
 49
1.25
 74
     0
 49
-2.5
 74
     0
  0
LTYPE
  5
34
330
5
100
AcDbSymbolTableRecord
100
AcDbLinetypeTableRecord
  2
LONG3
 70
     0
  3
+++++++++++++++..+++++++++++++++
 72
    65
 73
     2
 40
40.0
 49
37.5
 74
     0
 49
-2.5
 74
     0
  0
LTYPE
  5
35
330
5
100
AcDbSymbolTableRecord
100
AcDbLinetypeTableRecord
  2
LONG4
 70
     0
  3
+++++++++++++++..+++++++++++++++
 72
    65
 73
     2
 40
80.0
 49
75.0
 74
     0
 49
-5.0
 74
     0
  0
LTYPE
  5
36
330
5
100
AcDbSymbolTableRecord
100
AcDbLinetypeTableRecord
  2
LONG5
 70
     0
  3
----------  --  ----------  --  
 72
    65
 73
     4
 40
60.0
 49
37.5
 74
     0
 49
-7.5
 74
     0
 49
7.5
 74
     0
 49
-7.5
 74
     0
  0
LTYPE
  5
37
330
5
100
AcDbSymbolTableRecord
100
AcDbLinetypeTableRecord
  2
DASHED
 70
     0
  3
-------   -------------   ------
 72
    65
 73
     2
 40
7.5
 49
6.0
 74
     0
 49
-1.5
 74
     0
  0
LTYPE
  5
38
330
5
100
AcDbSymbolTableRecord
100
AcDbLinetypeTableRecord
  2
DASHED_SPACED
 70
     0
  3
----        --------        ----
 72
    65
 73
     2
 40
12.0
 49
6.0
 74
     0
 49
-6.0
 74
     0
  0
LTYPE
  5
39
330
5
100
AcDbSymbolTableRecord
100
AcDbLinetypeTableRecord
  2
LONG_DASHED_DOTTED
 70
     0
  3
------------- --- --------------
 72
    65
 73
     4
 40
15.25
 49
12.0
 74
     0
 49
-1.5
 74
     0
 49
0.25
 74
     0
 49
-1.5
 74
     0
  0
LTYPE
  5
3A
330
5
100
AcDbSymbolTableRecord
100
AcDbLinetypeTableRecord
  2
LONG_DASHED_DOUBLE-DOTTED
 70
     0
  3
----------- --- --- ------------
 72
    65
 73
     6
 40
17.0
 49
12.0
 74
     0
 49
-1.5
 74
     0
 49
0.25
 74
     0
 49
-1.5
 74
     0
 49
0.25
 74
     0
 49
-1.5
 74
     0
  0
LTYPE
  5
3B
330
5
100
AcDbSymbolTableRecord
100
AcDbLinetypeTableRecord
  2
LONG_DASHED_TRIPLICATE-DOTTED
 70
     0
  3
--------- --- --- --- ----------
 72
    65
 73
     8
 40
18.75
 49
12.0
 74
     0
 49
-1.5
 74
     0
 49
0.25
 74
     0
 49
-1.5
 74
     0
 49
0.25
 74
     0
 49
-1.5
 74
     0
 49
0.25
 74
     0
 49
-1.5
 74
     0
  0
LTYPE
  5
3C
330
5
100
AcDbSymbolTableRecord
100
AcDbLinetypeTableRecord
  2
DOTTED
 70
     0
  3
   -       -       -       -    
 72
    65
 73
     2
 40
1.75
 49
0.25
 74
     0
 49
-1.5
 74
     0
  0
LTYPE
  5
3D
330
5
100
AcDbSymbolTableRecord
100
AcDbLinetypeTableRecord
  2
CHAIN
 70
     0
  3
-------------- -- --------------
 72
    65
 73
     4
 40
18.5
 49
12.0
 74
     0
 49
-1.5
 74
     0
 49
3.5
 74
     0
 49
-1.5
 74
     0
  0
LTYPE
  5
3E
330
5
100
AcDbSymbolTableRecord
100
AcDbLinetypeTableRecord
  2
CHAIN_DOUBLE_DASH
 70
     0
  3
------------ -- -- -------------
 72
    65
 73
     6
 40
23.5
 49
12.0
 74
     0
 49
-1.5
 74
     0
 49
3.5
 74
     0
 49
-1.5
 74
     0
 49
3.5
 74
     0
 49
-1.5
 74
     0
  0
LTYPE
  5
3F
330
5
100
AcDbSymbolTableRecord
100
AcDbLinetypeTableRecord
  2
DASHED_DOTTED
 70
     0
  3
-----------     -     ----------
 72
    65
 73
     4
 40
9.25
 49
6.0
 74
     0
 49
-1.5
 74
     0
 49
0.25
 74
     0
 49
-1.5
 74
     0
  0
LTYPE
  5
40
330
5
100
AcDbSymbolTableRecord
100
AcDbLinetypeTableRecord
  2
DOUBLE-DASHED_DOTTED
 70
     0
  3
------   -----------   -   -----
 72
    65
 73
     6
 40
16.75
 49
6.0
 74
     0
 49
-1.5
 74
     0
 49
6.0
 74
     0
 49
-1.5
 74
     0
 49
0.25
 74
     0
 49
-1.5
 74
     0
  0
LTYPE
  5
41
330
5
100
AcDbSymbolTableRecord
100
AcDbLinetypeTableRecord
  2
DASHED_DOUBLE-DOTTED
 70
     0
  3
---------    -    -    ---------
 72
    65
 73
     6
 40
11.0
 49
6.0
 74
     0
 49
-1.5
 74
     0
 49
0.25
 74
     0
 49
-1.5
 74
     0
 49
0.25
 74
     0
 49
-1.5
 74
     0
  0
LTYPE
  5
42
330
5
100
AcDbSymbolTableRecord
100
AcDbLinetypeTableRecord
  2
DOUBLE-DASHED_DOUBLE-DOTTED
 70
     0
  3
-----   ---------   -   -   ----
 72
    65
 73
     8
 40
18.5
 49
6.0
 74
     0
 49
-1.5
 74
     0
 49
6.0
 74
     0
 49
-1.5
 74
     0
 49
0.25
 74
     0
 49
-1.5
 74
     0
 49
0.25
 74
     0
 49
-1.5
 74
     0
  0
LTYPE
  5
43
330
5
100
AcDbSymbolTableRecord
100
AcDbLinetypeTableRecord
  2
DASHED_TRIPLICATE-DOTTED
 70
     0
  3
-------    -    -    -    ------
 72
    65
 73
     8
 40
12.75
 49
6.0
 74
     0
 49
-1.5
 74
     0
 49
0.25
 74
     0
 49
-1.5
 74
     0
 49
0.25
 74
     0
 49
-1.5
 74
     0
 49
0.25
 74
     0
 49
-1.5
 74
     0
  0
LTYPE
  5
44
330
5
100
AcDbSymbolTableRecord
100
AcDbLinetypeTableRecord
  2
DOUBLE-DASHED_TRIPLICATE-DOTTED
 70
     0
  3
-----  ---------  -  -  -  -----
 72
    65
 73
    10
 40
20.25
 49
6.0
 74
     0
 49
-1.5
 74
     0
 49
6.0
 74
     0
 49
-1.5
 74
     0
 49
0.25
 74
     0
 49
-1.5
 74
     0
 49
0.25
 74
     0
 49
-1.5
 74
     0
 49
0.25
 74
     0
 49
-1.5
 74
     0
  0
LTYPE
  5
45
330
5
100
AcDbSymbolTableRecord
100
AcDbLinetypeTableRecord
  2
UNDEFINED
 70
     0
  3
--------------------------------
 72
    65
 73
     0
 40
0.0
  0
ENDTAB
  0
TABLE
  2
LAYER
  5
2
330
0
100
AcDbSymbolTable
 70
     4
  0
LAYER
  5
10
330
2
100
AcDbSymbolTableRecord
100
AcDbLayerTableRecord
  2
0
 70
     0
 62
     7
  6
CONTINUOUS
370
    -3
390
F
  0
LAYER
  5
47
330
2
100
AcDbSymbolTableRecord
100
AcDbLayerTableRecord
  2
_0-0_
 70
     0
 62
     7
  6
CONTINUOUS
370
    -3
390
F
  0
LAYER
  5
48
330
2
100
AcDbSymbolTableRecord
100
AcDbLayerTableRecord
  2
ADD_LINE
 70
     0
 62
     7
  6
CONTINUOUS
370
    -3
390
F
  0
LAYER
  5
29E
330
2
100
AcDbSymbolTableRecord
100
AcDbLayerTableRecord
  2
_1-0_
 70
     0
 62
     7
  6
CONTINUOUS
370
    -3
390
F
  0
ENDTAB
  0
TABLE
  2
STYLE
  5
3
330
0
100
AcDbSymbolTable
 70
     2
  0
STYLE
  5
11
330
3
100
AcDbSymbolTableRecord
100
AcDbTextStyleTableRecord
  2
STANDARD
 70
     0
 40
0.0
 41
1.0
 50
0.0
 71
     0
 42
0.2
  3
txt
  4
bigfont.shx
  0
STYLE
  5
46
330
3
100
AcDbSymbolTableRecord
100
AcDbTextStyleTableRecord
  2
TATEGAKI
 70
     4
 40
0.0
 41
1.0
 50
0.0
 71
     0
 42
1.0
  3
txt
  4
bigfont.shx
  0
ENDTAB
  0
TABLE
  2
VIEW
  5
6
330
0
100
AcDbSymbolTable
 70
     0
  0
ENDTAB
  0
TABLE
  2
UCS
  5
7
330
0
100
AcDbSymbolTable
 70
     0
  0
ENDTAB
  0
TABLE
  2
APPID
  5
9
330
0
100
AcDbSymbolTable
 70
     1
  0
APPID
  5
12
330
9
100
AcDbSymbolTableRecord
100
AcDbRegAppTableRecord
  2
ACAD
 70
     0
  0
ENDTAB
  0
TABLE
  2
DIMSTYLE
  5
A
330
0
100
AcDbSymbolTable
 70
     1
100
AcDbDimStyleTable
 71
     0
  0
DIMSTYLE
105
29C
330
A
100
AcDbSymbolTableRecord
100
AcDbDimStyleTableRecord
  2
Standard
 70
     0
340
11
  0
ENDTAB
  0
TABLE
  2
BLOCK_RECORD
  5
1
330
0
100
AcDbSymbolTable
 70
     1
  0
BLOCK_RECORD
  5
20
330
1
100
AcDbSymbolTableRecord
100
AcDbBlockTableRecord
  2
*Model_Space
340
23
  0
BLOCK_RECORD
  5
1C
330
1
100
AcDbSymbolTableRecord
100
AcDbBlockTableRecord
  2
*Paper_Space
340
1F
  0
BLOCK_RECORD
  5
29F
330
1
100
AcDbSymbolTableRecord
100
AcDbBlockTableRecord
  2
H0908
340
0
  0
ENDTAB
  0
ENDSEC
  0
SECTION
  2
BLOCKS
  0
BLOCK
  5
21
330
20
100
AcDbEntity
  8
0
100
AcDbBlockBegin
  2
*Model_Space
 70
     0
 10
0.0
 20
0.0
 30
0.0
  3
*Model_Space
  1

  0
ENDBLK
  5
22
330
20
100
AcDbEntity
  8
0
100
AcDbBlockEnd
  0
BLOCK
  5
1D
330
1C
100
AcDbEntity
 67
     1
  8
0
100
AcDbBlockBegin
  2
*Paper_Space
 70
     0
 10
0.0
 20
0.0
 30
0.0
  3
*Paper_Space
  1

  0
ENDBLK
  5
1E
330
1C
100
AcDbEntity
 67
     1
  8
0
100
AcDbBlockEnd
  0
BLOCK
  5
494
330
29F
100
AcDbEntity
  8
0
100
AcDbBlockBegin
  2
H0908
 70
     0
 10
0.0
 20
0.0
 30
0.0
  3
H0908
  1

  0
LINE
  5
2A0
330
29F
100
AcDbEntity
  8
_1-0_
  6
Continuous
 62
     7
100
AcDbLine
 10
5723.333333333332
 20
3993.333333333334
 30
0.0
 11
216.6666666666669
 21
3993.333333333334
 31
0.0
  0
LINE
  5
2A1
330
29F
100
AcDbEntity
  8
_1-0_
  6
Continuous
 62
     7
100
AcDbLine
 10
5723.333333333332
 20
206.6666666666665
 30
0.0
 11
5723.333333333332
 21
3993.333333333334
 31
0.0
  0
LINE
  5
2A2
330
29F
100
AcDbEntity
  8
_1-0_
  6
Continuous
 62
     7
100
AcDbLine
 10
216.6666666666669
 20
206.6666666666665
 30
0.0
 11
5723.333333333332
 21
206.6666666666665
 31
0.0
  0
LINE
  5
2A3
330
29F
100
AcDbEntity
  8
_1-0_
  6
Continuous
 62
     7
100
AcDbLine
 10
216.6666666666669
 20
3993.333333333334
 30
0.0
 11
216.6666666666669
 21
206.6666666666665
 31
0.0
  0
LINE
  5
2A4
330
29F
100
AcDbEntity
  8
_1-0_
  6
Continuous
 62
     7
100
AcDbLine
 10
4523.333333333333
 20
206.6666666666665
 30
0.0
 11
4523.333333333333
 21
766.6666666666672
 31
0.0
  0
LINE
  5
2A5
330
29F
100
AcDbEntity
  8
_1-0_
  6
Continuous
 62
     7
100
AcDbLine
 10
3523.333333333333
 20
206.6666666666665
 30
0.0
 11
3523.333333333333
 21
766.6666666666672
 31
0.0
  0
LINE
  5
2A6
330
29F
100
AcDbEntity
  8
_1-0_
  6
Continuous
 62
     7
100
AcDbLine
 10
3189.999999999999
 20
206.6666666666665
 30
0.0
 11
3189.999999999999
 21
766.6666666666672
 31
0.0
  0
LINE
  5
2A7
330
29F
100
AcDbEntity
  8
_1-0_
  6
Continuous
 62
     7
100
AcDbLine
 10
3189.999999999999
 20
766.6666666666672
 30
0.0
 11
5723.333333333332
 21
766.6666666666672
 31
0.0
  0
LINE
  5
2A8
330
29F
100
AcDbEntity
  8
_1-0_
  6
Continuous
 62
     7
100
AcDbLine
 10
3189.999999999999
 20
673.3333333333336
 30
0.0
 11
5723.333333333332
 21
673.3333333333336
 31
0.0
  0
LINE
  5
2A9
330
29F
100
AcDbEntity
  8
_1-0_
  6
Continuous
 62
     7
100
AcDbLine
 10
3189.999999999999
 20
580.0000000000001
 30
0.0
 11
5723.333333333332
 21
580.0000000000001
 31
0.0
  0
LINE
  5
2AA
330
29F
100
AcDbEntity
  8
_1-0_
  6
Continuous
 62
     7
100
AcDbLine
 10
3189.999999999999
 20
486.6666666666668
 30
0.0
 11
5723.333333333332
 21
486.6666666666668
 31
0.0
  0
LINE
  5
2AB
330
29F
100
AcDbEntity
  8
_1-0_
  6
Continuous
 62
     7
100
AcDbLine
 10
3189.999999999999
 20
393.3333333333334
 30
0.0
 11
5723.333333333332
 21
393.3333333333334
 31
0.0
  0
LINE
  5
2AC
330
29F
100
AcDbEntity
  8
_1-0_
  6
Continuous
 62
     7
100
AcDbLine
 10
3189.999999999999
 20
300.0
 30
0.0
 11
5723.333333333332
 21
300.0
 31
0.0
  0
LINE
  5
2AD
330
29F
100
AcDbEntity
  8
_1-0_
  6
Continuous
 62
     7
100
AcDbLine
 10
3856.666666666665
 20
206.6666666666665
 30
0.0
 11
3856.666666666665
 21
300.0
 31
0.0
  0
LINE
  5
2AE
330
29F
100
AcDbEntity
  8
_1-0_
  6
Continuous
 62
     7
100
AcDbLine
 10
4190.0
 20
206.6666666666665
 30
0.0
 11
4190.0
 21
300.0
 31
0.0
  0
LINE
  5
2AF
330
29F
100
AcDbEntity
  8
_1-0_
  6
Continuous
 62
     7
100
AcDbLine
 10
4856.666666666666
 20
300.0
 30
0.0
 11
4856.666666666666
 21
766.6666666666672
 31
0.0
  0
LINE
  5
2B0
330
29F
100
AcDbEntity
  8
_1-0_
  6
Continuous
 62
     7
100
AcDbLine
 10
750.0
 20
3860.0
 30
0.0
 11
216.6666666666669
 21
3860.0
 31
0.0
  0
LINE
  5
2B1
330
29F
100
AcDbEntity
  8
_1-0_
  6
Continuous
 62
     7
100
AcDbLine
 10
750.0
 20
3993.333333333334
 30
0.0
 11
750.0
 21
3860.0
 31
0.0
  0
TEXT
  5
2B2
330
29F
100
AcDbEntity
  8
_1-0_
 62
     7
100
AcDbText
 10
262.7110047421724
 20
3885.589197918482
 30
0.0
 40
80.0
  1
組立構造図
100
AcDbText
  0
TEXT
  5
2B3
330
29F
100
AcDbEntity
  8
_1-0_
 62
     7
100
AcDbText
 10
3222.026322495699
 20
688.852571725881
 30
0.0
 40
60.0
  1
製 品 名
100
AcDbText
  0
TEXT
  5
2B4
330
29F
100
AcDbEntity
  8
_1-0_
 62
     7
100
AcDbText
 10
3221.494969497411
 20
597.7704931577259
 30
0.0
 40
60.0
  1
型　　式
100
AcDbText
  0
TEXT
  5
2B5
330
29F
100
AcDbEntity
  8
_1-0_
 62
     7
100
AcDbText
 10
3221.494969497411
 20
502.6664811256028
 30
0.0
 40
60.0
  1
呼 び 名
100
AcDbText
  0
TEXT
  5
2B6
330
29F
100
AcDbEntity
  8
_1-0_
 62
     7
100
AcDbText
 10
3220.362778877981
 20
410.9590409517699
 30
0.0
 40
60.0
  1
寸　　法
100
AcDbText
  0
TEXT
  5
2B7
330
29F
100
AcDbEntity
  8
_1-0_
 62
     7
100
AcDbText
 10
3221.494969497411
 20
316.9872195390766
 30
0.0
 40
60.0
  1
特記事項
100
AcDbText
  0
TEXT
  5
2B8
330
29F
100
AcDbEntity
  8
_1-0_
 62
     7
100
AcDbText
 10
3220.362778877981
 20
223.0153981263837
 30
0.0
 40
60.0
  1
検　　図
100
AcDbText
  0
TEXT
  5
2B9
330
29F
100
AcDbEntity
  8
_1-0_
 62
     7
100
AcDbText
 10
3889.344432882415
 20
221.5280638790375
 30
0.0
 40
60.0
  1
製　　図
100
AcDbText
  0
TEXT
  5
2BA
330
29F
100
AcDbEntity
  8
_1-0_
 62
     7
100
AcDbText
 10
3719.790980908492
 20
688.2060831616723
 30
0.0
 40
60.0
  1
ＦＫ式ハンドホール
100
AcDbText
  0
TEXT
  5
2BB
330
29F
100
AcDbEntity
  8
_1-0_
 62
     7
100
AcDbText
 10
3938.903300133789
 20
596.9092834844656
 30
0.0
 40
60.0
  1
900型
100
AcDbText
  0
TEXT
  5
2BC
330
29F
100
AcDbEntity
  8
_1-0_
 62
     7
100
AcDbText
 10
3788.263580666398
 20
502.5692571513516
 30
0.0
 40
60.0
  1
H-0908(CR-600)
100
AcDbText
  0
TEXT
  5
2BD
330
29F
100
AcDbEntity
  8
_1-0_
 62
     7
100
AcDbText
 10
3800.436487290026
 20
408.2292308182377
 30
0.0
 40
60.0
  1
900×900×800
100
AcDbText
  0
TEXT
  5
2BE
330
29F
100
AcDbEntity
  8
_1-0_
 62
     7
100
AcDbText
 10
4570.916827709232
 20
224.389958376691
 30
0.0
 40
60.0
  1
株式会社　丸治コンクリート工業所
100
AcDbText
  0
TEXT
  5
2BF
330
29F
100
AcDbEntity
  8
_1-0_
 62
     7
100
AcDbText
 10
4554.912293741637
 20
690.1218968336556
 30
0.0
 40
60.0
  1
縮　　尺
100
AcDbText
  0
TEXT
  5
2C0
330
29F
100
AcDbEntity
  8
_1-0_
 62
     7
100
AcDbText
 10
4556.512747138397
 20
594.0946930280959
 30
0.0
 40
60.0
  1
参考重量
100
AcDbText
  0
TEXT
  5
2C1
330
29F
100
AcDbEntity
  8
_1-0_
 62
     7
100
AcDbText
 10
4554.912293741637
 20
502.868849412814
 30
0.0
 40
60.0
  1
設計Ｎｏ
100
AcDbText
  0
TEXT
  5
2C2
330
29F
100
AcDbEntity
  8
_1-0_
 62
     7
100
AcDbText
 10
4554.912293741637
 20
410.0425524007729
 30
0.0
 40
60.0
  1
図面Ｎｏ
100
AcDbText
  0
TEXT
  5
2C3
330
29F
100
AcDbEntity
  8
_1-0_
 62
     7
100
AcDbText
 10
4554.912293741637
 20
317.2162553887321
 30
0.0
 40
60.0
  1
製 図 日
100
AcDbText
  0
TEXT
  5
2C4
330
29F
100
AcDbEntity
  8
_1-0_
 62
     7
100
AcDbText
 10
4908.61249442545
 20
315.6158019919726
 30
0.0
 40
60.0
  1
平成　　年　　月　　日
100
AcDbText
  0
TEXT
  5
2C5
330
29F
100
AcDbEntity
  8
_1-0_
 62
     7
100
AcDbText
 10
5220.70090679352
 20
691.7223502304146
 30
0.0
 40
60.0
  1
1/15
100
AcDbText
  0
TEXT
  5
2C6
330
29F
100
AcDbEntity
  8
_1-0_
 62
     7
100
AcDbText
 10
4993.436524453694
 20
410.0425524007729
 30
0.0
 40
60.0
  1
FKHH-H0908-CR600
100
AcDbText
  0
TEXT
  5
2C7
330
29F
100
AcDbEntity
  8
_1-0_
 62
     7
100
AcDbText
 10
5187.091385461573
 20
597.2955998216145
 30
0.0
 40
60.0
  1
1115kg
100
AcDbText
  0
LINE
  5
2C8
330
29F
100
AcDbEntity
  8
_1-0_
  6
DASHED1
 62
   136
100
AcDbLine
 10
5023.663377080629
 20
2825.786286116055
 30
0.0
 11
4223.662643009155
 21
2825.786286116055
 31
0.0
  0
LINE
  5
2C9
330
29F
100
AcDbEntity
  8
_1-0_
  6
DASHED1
 62
   136
100
AcDbLine
 10
4210.329524909191
 20
2865.786340317158
 30
0.0
 11
4223.662643009155
 21
2825.786286116055
 31
0.0
  0
LINE
  5
2CA
330
29F
100
AcDbEntity
  8
_1-0_
  6
DASHED1
 62
   136
100
AcDbLine
 10
5023.663377080629
 20
2825.786286116055
 30
0.0
 11
5036.996145229986
 21
2865.786340317158
 31
0.0
  0
LINE
  5
2CB
330
29F
100
AcDbEntity
  8
_1-0_
  6
DASHED1
 62
   136
100
AcDbLine
 10
5156.99525798148
 20
2772.454863568018
 30
0.0
 11
4090.329712256485
 21
2772.454863568018
 31
0.0
  0
LINE
  5
2CC
330
29F
100
AcDbEntity
  8
_1-0_
  6
DASHED1
 62
   136
100
AcDbLine
 10
5223.661898333118
 20
2705.788223216381
 30
0.0
 11
4023.663071904848
 21
2705.788223216381
 31
0.0
  0
LINE
  5
2CD
330
29F
100
AcDbEntity
  8
_1-0_
  6
DASHED1
 62
   136
100
AcDbLine
 10
5156.99525798148
 20
1572.453762460807
 30
0.0
 11
5156.99525798148
 21
2772.454863568018
 31
0.0
  0
LINE
  5
2CE
330
29F
100
AcDbEntity
  8
_1-0_
  6
DASHED1
 62
   136
100
AcDbLine
 10
5156.99525798148
 20
2772.454863568018
 30
0.0
 11
5223.661898333118
 21
2705.788223216381
 31
0.0
  0
LINE
  5
2CF
330
29F
100
AcDbEntity
  8
_1-0_
  6
DASHED1
 62
   136
100
AcDbLine
 10
5223.661898333118
 20
1639.120402812445
 30
0.0
 11
5223.661898333118
 21
2705.788223216381
 31
0.0
  0
LINE
  5
2D0
330
29F
100
AcDbEntity
  8
_1-0_
  6
DASHED1
 62
   136
100
AcDbLine
 10
5316.994774884683
 20
2585.787360711856
 30
0.0
 11
5276.994720683579
 21
2572.454242611892
 31
0.0
  0
LINE
  5
2D1
330
29F
100
AcDbEntity
  8
_1-0_
  6
DASHED1
 62
   136
100
AcDbLine
 10
5276.994720683579
 20
1772.453508540417
 30
0.0
 11
5276.994720683579
 21
2572.454242611892
 31
0.0
  0
LINE
  5
2D2
330
29F
100
AcDbEntity
  8
_1-0_
  6
DASHED1
 62
   136
100
AcDbLine
 10
5276.994720683579
 20
1772.453508540417
 30
0.0
 11
5316.994774884683
 21
1759.12074039106
 31
0.0
  0
LINE
  5
2D3
330
29F
100
AcDbEntity
  8
_1-0_
  6
DASHED1
 62
   136
100
AcDbLine
 10
4023.663071904848
 20
1639.120402812445
 30
0.0
 11
5223.661898333118
 21
1639.120402812445
 31
0.0
  0
LINE
  5
2D4
330
29F
100
AcDbEntity
  8
_1-0_
  6
DASHED1
 62
   136
100
AcDbLine
 10
4090.329712256485
 20
1572.453762460807
 30
0.0
 11
5156.99525798148
 21
1572.453762460807
 31
0.0
  0
LINE
  5
2D5
330
29F
100
AcDbEntity
  8
_1-0_
  6
DASHED1
 62
   136
100
AcDbLine
 10
5223.661898333118
 20
1639.120402812445
 30
0.0
 11
5156.99525798148
 21
1572.453762460807
 31
0.0
  0
LINE
  5
2D6
330
29F
100
AcDbEntity
  8
_1-0_
  6
DASHED1
 62
   136
100
AcDbLine
 10
5036.995445328774
 20
1479.121760785757
 30
0.0
 11
5023.66232722881
 21
1519.121814986861
 31
0.0
  0
LINE
  5
2D7
330
29F
100
AcDbEntity
  8
_1-0_
  6
DASHED1
 62
   136
100
AcDbLine
 10
4223.661593157336
 20
1519.121814986861
 30
0.0
 11
5023.66232722881
 21
1519.121814986861
 31
0.0
  0
LINE
  5
2D8
330
29F
100
AcDbEntity
  8
_1-0_
  6
DASHED1
 62
   136
100
AcDbLine
 10
4223.661593157336
 20
1519.121814986861
 30
0.0
 11
4210.328825007978
 21
1479.121760785757
 31
0.0
  0
LINE
  5
2D9
330
29F
100
AcDbEntity
  8
_1-0_
  6
DASHED1
 62
   136
100
AcDbLine
 10
4090.329712256485
 20
1572.453762460807
 30
0.0
 11
4023.663071904848
 21
1639.120402812445
 31
0.0
  0
LINE
  5
2DA
330
29F
100
AcDbEntity
  8
_1-0_
  6
DASHED1
 62
   136
100
AcDbLine
 10
4090.329712256485
 20
2772.454863568018
 30
0.0
 11
4090.329712256485
 21
1572.453762460807
 31
0.0
  0
LINE
  5
2DB
330
29F
100
AcDbEntity
  8
_1-0_
  6
DASHED1
 62
   136
100
AcDbLine
 10
4023.663071904848
 20
1639.120402812445
 30
0.0
 11
4023.663071904848
 21
2705.788223216381
 31
0.0
  0
LINE
  5
2DC
330
29F
100
AcDbEntity
  8
_1-0_
  6
DASHED1
 62
   136
100
AcDbLine
 10
3930.330895254496
 20
1759.12074039106
 30
0.0
 11
3970.330949455599
 21
1772.453858491024
 31
0.0
  0
LINE
  5
2DD
330
29F
100
AcDbEntity
  8
_1-0_
  6
DASHED1
 62
   136
100
AcDbLine
 10
3970.330949455599
 20
2572.454592562498
 30
0.0
 11
3970.330949455599
 21
1772.453858491024
 31
0.0
  0
LINE
  5
2DE
330
29F
100
AcDbEntity
  8
_1-0_
  6
DASHED1
 62
   136
100
AcDbLine
 10
3970.330949455599
 20
2572.454592562498
 30
0.0
 11
3930.330895254496
 21
2585.787360711856
 31
0.0
  0
LINE
  5
2DF
330
29F
100
AcDbEntity
  8
_1-0_
  6
DASHED1
 62
   136
100
AcDbLine
 10
4023.663071904848
 20
2705.788223216381
 30
0.0
 11
4090.329712256485
 21
2772.454863568018
 31
0.0
  0
CIRCLE
  5
2E0
330
29F
100
AcDbEntity
  8
_1-0_
  6
Continuous
 62
   136
100
AcDbCircle
 10
4623.662485118983
 20
2172.454050551458
 30
0.0
 40
120.0000094999217
  0
CIRCLE
  5
2E1
330
29F
100
AcDbEntity
  8
_1-0_
  6
Continuous
 62
   136
100
AcDbCircle
 10
4623.662485118983
 20
2172.454050551458
 30
0.0
 40
133.3333681909274
  0
LINE
  5
2E2
330
29F
100
AcDbEntity
  8
_1-0_
  6
DASHED1
 62
     6
100
AcDbLine
 10
4879.662552045563
 20
2819.120077016679
 30
0.0
 11
4879.662552045563
 21
2772.453463765593
 31
0.0
  0
LINE
  5
2E3
330
29F
100
AcDbEntity
  8
_1-0_
  6
DASHED1
 62
     6
100
AcDbLine
 10
4900.995890956112
 20
2819.120077016679
 30
0.0
 11
4900.995890956112
 21
2772.453463765593
 31
0.0
  0
LINE
  5
2E4
330
29F
100
AcDbEntity
  8
_1-0_
  6
DASHED1
 62
     6
100
AcDbLine
 10
4900.995890956112
 20
2819.120077016679
 30
0.0
 11
4879.662552045563
 21
2819.120077016679
 31
0.0
  0
LINE
  5
2E5
330
29F
100
AcDbEntity
  8
_1-0_
  6
DASHED1
 62
     6
100
AcDbLine
 10
4634.328979598953
 20
2819.120077016679
 30
0.0
 11
4634.328979598953
 21
2772.453463765593
 31
0.0
  0
LINE
  5
2E6
330
29F
100
AcDbEntity
  8
_1-0_
  6
DASHED1
 62
     6
100
AcDbLine
 10
4634.328979598953
 20
2819.120077016679
 30
0.0
 11
4612.995990639011
 21
2819.120077016679
 31
0.0
  0
LINE
  5
2E7
330
29F
100
AcDbEntity
  8
_1-0_
  6
DASHED1
 62
     6
100
AcDbLine
 10
4612.995990639011
 20
2819.120077016679
 30
0.0
 11
4612.995990639011
 21
2772.453463765593
 31
0.0
  0
LINE
  5
2E8
330
29F
100
AcDbEntity
  8
_1-0_
  6
DASHED1
 62
     6
100
AcDbLine
 10
4367.662418192402
 20
2819.120077016679
 30
0.0
 11
4367.662418192402
 21
2772.453463765593
 31
0.0
  0
LINE
  5
2E9
330
29F
100
AcDbEntity
  8
_1-0_
  6
DASHED1
 62
     6
100
AcDbLine
 10
4367.662418192402
 20
2819.120077016679
 30
0.0
 11
4346.32942923246
 21
2819.120077016679
 31
0.0
  0
LINE
  5
2EA
330
29F
100
AcDbEntity
  8
_1-0_
  6
DASHED1
 62
     6
100
AcDbLine
 10
4346.32942923246
 20
2819.120077016679
 30
0.0
 11
4346.32942923246
 21
2772.453463765593
 31
0.0
  0
LINE
  5
2EB
330
29F
100
AcDbEntity
  8
_1-0_
  6
DASHED1
 62
     6
100
AcDbLine
 10
5270.328511584205
 20
2449.787456388587
 30
0.0
 11
5223.661898333118
 21
2449.787456388587
 31
0.0
  0
LINE
  5
2EC
330
29F
100
AcDbEntity
  8
_1-0_
  6
DASHED1
 62
     6
100
AcDbLine
 10
5270.328511584205
 20
2428.454467428645
 30
0.0
 11
5223.661898333118
 21
2428.454467428645
 31
0.0
  0
LINE
  5
2ED
330
29F
100
AcDbEntity
  8
_1-0_
  6
DASHED1
 62
     6
100
AcDbLine
 10
5270.328511584205
 20
2428.454467428645
 30
0.0
 11
5270.328511584205
 21
2449.787456388587
 31
0.0
  0
LINE
  5
2EE
330
29F
100
AcDbEntity
  8
_1-0_
  6
DASHED1
 62
     6
100
AcDbLine
 10
5270.328511584205
 20
2183.120894982035
 30
0.0
 11
5223.661898333118
 21
2183.120894982035
 31
0.0
  0
LINE
  5
2EF
330
29F
100
AcDbEntity
  8
_1-0_
  6
DASHED1
 62
     6
100
AcDbLine
 10
5270.328511584205
 20
2161.787906022093
 30
0.0
 11
5223.661898333118
 21
2161.787906022093
 31
0.0
  0
LINE
  5
2F0
330
29F
100
AcDbEntity
  8
_1-0_
  6
DASHED1
 62
     6
100
AcDbLine
 10
5270.328511584205
 20
2161.787906022093
 30
0.0
 11
5270.328511584205
 21
2183.120894982035
 31
0.0
  0
LINE
  5
2F1
330
29F
100
AcDbEntity
  8
_1-0_
  6
DASHED1
 62
     6
100
AcDbLine
 10
5270.328511584205
 20
1916.454333575484
 30
0.0
 11
5223.661898333118
 21
1916.454333575484
 31
0.0
  0
LINE
  5
2F2
330
29F
100
AcDbEntity
  8
_1-0_
  6
DASHED1
 62
     6
100
AcDbLine
 10
5270.328511584205
 20
1895.120994664935
 30
0.0
 11
5223.661898333118
 21
1895.120994664935
 31
0.0
  0
LINE
  5
2F3
330
29F
100
AcDbEntity
  8
_1-0_
  6
DASHED1
 62
     6
100
AcDbLine
 10
5270.328511584205
 20
1895.120994664935
 30
0.0
 11
5270.328511584205
 21
1916.454333575484
 31
0.0
  0
LINE
  5
2F4
330
29F
100
AcDbEntity
  8
_1-0_
  6
DASHED1
 62
     6
100
AcDbLine
 10
4346.329079281854
 20
1525.788024086237
 30
0.0
 11
4346.329079281854
 21
1572.454637337323
 31
0.0
  0
LINE
  5
2F5
330
29F
100
AcDbEntity
  8
_1-0_
  6
DASHED1
 62
     6
100
AcDbLine
 10
4346.329079281854
 20
1525.788024086237
 30
0.0
 11
4367.662418192402
 21
1525.788024086237
 31
0.0
  0
LINE
  5
2F6
330
29F
100
AcDbEntity
  8
_1-0_
  6
DASHED1
 62
     6
100
AcDbLine
 10
4367.662418192402
 20
1525.788024086237
 30
0.0
 11
4367.662418192402
 21
1572.454637337323
 31
0.0
  0
LINE
  5
2F7
330
29F
100
AcDbEntity
  8
_1-0_
  6
DASHED1
 62
     6
100
AcDbLine
 10
4612.995990639011
 20
1525.788024086237
 30
0.0
 11
4612.995990639011
 21
1572.454637337323
 31
0.0
  0
LINE
  5
2F8
330
29F
100
AcDbEntity
  8
_1-0_
  6
DASHED1
 62
     6
100
AcDbLine
 10
4612.995990639011
 20
1525.788024086237
 30
0.0
 11
4634.328979598953
 21
1525.788024086237
 31
0.0
  0
LINE
  5
2F9
330
29F
100
AcDbEntity
  8
_1-0_
  6
DASHED1
 62
     6
100
AcDbLine
 10
4634.328979598953
 20
1525.788024086237
 30
0.0
 11
4634.328979598953
 21
1572.454637337323
 31
0.0
  0
LINE
  5
2FA
330
29F
100
AcDbEntity
  8
_1-0_
  6
DASHED1
 62
     6
100
AcDbLine
 10
4879.662552045563
 20
1525.788024086237
 30
0.0
 11
4879.662552045563
 21
1572.454637337323
 31
0.0
  0
LINE
  5
2FB
330
29F
100
AcDbEntity
  8
_1-0_
  6
DASHED1
 62
     6
100
AcDbLine
 10
4879.662552045563
 20
1525.788024086237
 30
0.0
 11
4900.995541005507
 21
1525.788024086237
 31
0.0
  0
LINE
  5
2FC
330
29F
100
AcDbEntity
  8
_1-0_
  6
DASHED1
 62
     6
100
AcDbLine
 10
4900.995541005507
 20
1525.788024086237
 30
0.0
 11
4900.995541005507
 21
1572.454637337323
 31
0.0
  0
LINE
  5
2FD
330
29F
100
AcDbEntity
  8
_1-0_
  6
DASHED1
 62
     6
100
AcDbLine
 10
3976.997158554976
 20
2449.78710643798
 30
0.0
 11
4023.663771806059
 21
2449.78710643798
 31
0.0
  0
LINE
  5
2FE
330
29F
100
AcDbEntity
  8
_1-0_
  6
DASHED1
 62
     6
100
AcDbLine
 10
3976.997158554976
 20
2428.453767527433
 30
0.0
 11
4023.663771806059
 21
2428.453767527433
 31
0.0
  0
LINE
  5
2FF
330
29F
100
AcDbEntity
  8
_1-0_
  6
DASHED1
 62
     6
100
AcDbLine
 10
3976.997158554976
 20
2449.78710643798
 30
0.0
 11
3976.997158554976
 21
2428.453767527433
 31
0.0
  0
LINE
  5
300
330
29F
100
AcDbEntity
  8
_1-0_
  6
DASHED1
 62
     6
100
AcDbLine
 10
3976.997158554976
 20
2183.120195080823
 30
0.0
 11
4023.663771806059
 21
2183.120195080823
 31
0.0
  0
LINE
  5
301
330
29F
100
AcDbEntity
  8
_1-0_
  6
DASHED1
 62
     6
100
AcDbLine
 10
3976.997158554976
 20
2161.78720612088
 30
0.0
 11
4023.663771806059
 21
2161.78720612088
 31
0.0
  0
LINE
  5
302
330
29F
100
AcDbEntity
  8
_1-0_
  6
DASHED1
 62
     6
100
AcDbLine
 10
3976.997158554976
 20
2183.120195080823
 30
0.0
 11
3976.997158554976
 21
2161.78720612088
 31
0.0
  0
LINE
  5
303
330
29F
100
AcDbEntity
  8
_1-0_
  6
DASHED1
 62
     6
100
AcDbLine
 10
3976.997158554976
 20
1916.453633674271
 30
0.0
 11
4023.663771806059
 21
1916.453633674271
 31
0.0
  0
LINE
  5
304
330
29F
100
AcDbEntity
  8
_1-0_
  6
DASHED1
 62
     6
100
AcDbLine
 10
3976.997158554976
 20
1895.120644714329
 30
0.0
 11
4023.663771806059
 21
1895.120644714329
 31
0.0
  0
LINE
  5
305
330
29F
100
AcDbEntity
  8
_1-0_
  6
DASHED1
 62
     6
100
AcDbLine
 10
3976.997158554976
 20
1916.453633674271
 30
0.0
 11
3976.997158554976
 21
1895.120644714329
 31
0.0
  0
LINE
  5
306
330
29F
100
AcDbEntity
  8
_1-0_
  6
Continuous
 62
     7
100
AcDbLine
 10
5303.662006735326
 20
2865.787740119584
 30
0.0
 11
3943.662613552034
 21
2865.787740119584
 31
0.0
  0
LINE
  5
307
330
29F
100
AcDbEntity
  8
_1-0_
  6
Continuous
 62
     7
100
AcDbLine
 10
3930.329145501465
 20
1492.453479083296
 30
0.0
 11
3930.329145501465
 21
2852.454272069013
 31
0.0
  0
LINE
  5
308
330
29F
100
AcDbEntity
  8
_1-0_
  6
Continuous
 62
     7
100
AcDbLine
 10
3930.329145501465
 20
2852.454272069013
 30
0.0
 11
3943.662613552034
 21
2865.787740119584
 31
0.0
  0
CIRCLE
  5
309
330
29F
100
AcDbEntity
  8
_1-0_
  6
Continuous
 62
     7
100
AcDbCircle
 10
4623.662485118983
 20
2172.454050551458
 30
0.0
 40
580.0000422709696
  0
CIRCLE
  5
30A
330
29F
100
AcDbEntity
  8
_1-0_
  6
Continuous
 62
     7
100
AcDbCircle
 10
4623.662485118983
 20
2172.454050551458
 30
0.0
 40
400.0000170851305
  0
LINE
  5
30B
330
29F
100
AcDbEntity
  8
_1-0_
  6
Continuous
 62
     7
100
AcDbLine
 10
5316.99512483529
 20
1492.453479083296
 30
0.0
 11
5316.99512483529
 21
2852.454272069013
 31
0.0
  0
LINE
  5
30C
330
29F
100
AcDbEntity
  8
_1-0_
  6
Continuous
 62
     7
100
AcDbLine
 10
5303.662006735326
 20
2865.787740119584
 30
0.0
 11
5316.99512483529
 21
2852.454272069013
 31
0.0
  0
LINE
  5
30D
330
29F
100
AcDbEntity
  8
_1-0_
  6
Continuous
 62
     7
100
AcDbLine
 10
3943.662613552034
 20
1479.120360983332
 30
0.0
 11
5303.662006735326
 21
1479.120360983332
 31
0.0
  0
LINE
  5
30E
330
29F
100
AcDbEntity
  8
_1-0_
  6
Continuous
 62
     7
100
AcDbLine
 10
5316.99512483529
 20
1492.453479083296
 30
0.0
 11
5303.662006735326
 21
1479.120360983332
 31
0.0
  0
LINE
  5
30F
330
29F
100
AcDbEntity
  8
_1-0_
  6
Continuous
 62
     7
100
AcDbLine
 10
3943.662613552034
 20
1479.120360983332
 30
0.0
 11
3930.329145501465
 21
1492.453479083296
 31
0.0
  0
LINE
  5
310
330
29F
100
AcDbEntity
  8
_1-0_
  6
Continuous
 62
     4
100
AcDbLine
 10
5316.99512483529
 20
3392.454406786251
 30
0.0
 11
3930.329145501465
 21
3392.454406786251
 31
0.0
  0
LINE
  5
311
330
29F
100
AcDbEntity
  8
_1-0_
  6
Continuous
 62
     4
100
AcDbLine
 10
3930.329145501465
 20
2885.787740119584
 30
0.0
 11
3930.329145501465
 21
3405.787740119584
 31
0.0
  0
LINE
  5
312
330
29F
100
AcDbEntity
  8
_1-0_
  6
Continuous
 62
     4
100
AcDbLine
 10
5316.99512483529
 20
2885.787740119584
 30
0.0
 11
5316.99512483529
 21
3405.787740119584
 31
0.0
  0
LINE
  5
313
330
29F
100
AcDbEntity
  8
_1-0_
  6
Continuous
 62
     4
100
AcDbLine
 10
5336.995124835289
 20
2572.454242611892
 30
0.0
 11
5510.328458168623
 21
2572.454242611892
 31
0.0
  0
LINE
  5
314
330
29F
100
AcDbEntity
  8
_1-0_
  6
Continuous
 62
     4
100
AcDbLine
 10
5496.995124835289
 20
1772.453508540417
 30
0.0
 11
5496.995124835289
 21
2572.454242611892
 31
0.0
  0
LINE
  5
315
330
29F
100
AcDbEntity
  8
_1-0_
  6
Continuous
 62
     4
100
AcDbLine
 10
5336.995124835289
 20
1772.453508540417
 30
0.0
 11
5510.328458168623
 21
1772.453508540417
 31
0.0
  0
LINE
  5
316
330
29F
100
AcDbEntity
  8
_1-0_
  6
Continuous
 62
     4
100
AcDbLine
 10
4023.662478834796
 20
2885.787740119584
 30
0.0
 11
4023.662478834796
 21
3232.454406786251
 31
0.0
  0
LINE
  5
317
330
29F
100
AcDbEntity
  8
_1-0_
  6
Continuous
 62
     4
100
AcDbLine
 10
5223.661791501957
 20
2885.787740119584
 30
0.0
 11
5223.661791501957
 21
3232.454406786251
 31
0.0
  0
LINE
  5
318
330
29F
100
AcDbEntity
  8
_1-0_
  6
Continuous
 62
     4
100
AcDbLine
 10
5316.99512483529
 20
3219.121073452917
 30
0.0
 11
5223.661791501957
 21
3219.121073452917
 31
0.0
  0
LINE
  5
319
330
29F
100
AcDbEntity
  8
_1-0_
  6
Continuous
 62
     4
100
AcDbLine
 10
4023.662478834796
 20
3219.121073452917
 30
0.0
 11
3930.329145501465
 21
3219.121073452917
 31
0.0
  0
LINE
  5
31A
330
29F
100
AcDbEntity
  8
_1-0_
  6
Continuous
 62
     4
100
AcDbLine
 10
5223.661791501957
 20
3219.121073452917
 30
0.0
 11
4023.662478834796
 21
3219.121073452917
 31
0.0
  0
LINE
  5
31B
330
29F
100
AcDbEntity
  8
_1-0_
  6
Continuous
 62
     4
100
AcDbLine
 10
4090.329145501464
 20
2885.787740119584
 30
0.0
 11
4090.329145501464
 21
3059.121073452917
 31
0.0
  0
LINE
  5
31C
330
29F
100
AcDbEntity
  8
_1-0_
  6
Continuous
 62
     4
100
AcDbLine
 10
5156.995124835289
 20
2885.787740119584
 30
0.0
 11
5156.995124835289
 21
3059.121073452917
 31
0.0
  0
LINE
  5
31D
330
29F
100
AcDbEntity
  8
_1-0_
  6
Continuous
 62
     4
100
AcDbLine
 10
4156.995812168129
 20
3045.787740119584
 30
0.0
 11
4090.329145501464
 21
3045.787740119584
 31
0.0
  0
LINE
  5
31E
330
29F
100
AcDbEntity
  8
_1-0_
  6
Continuous
 62
     4
100
AcDbLine
 10
4023.662478834796
 20
3045.787740119584
 30
0.0
 11
3956.99581216813
 21
3045.787740119584
 31
0.0
  0
LINE
  5
31F
330
29F
100
AcDbEntity
  8
_1-0_
  6
Continuous
 62
     4
100
AcDbLine
 10
5290.328458168623
 20
3045.787740119584
 30
0.0
 11
5223.661791501957
 21
3045.787740119584
 31
0.0
  0
LINE
  5
320
330
29F
100
AcDbEntity
  8
_1-0_
  6
Continuous
 62
     4
100
AcDbLine
 10
5156.995124835289
 20
3045.787740119584
 30
0.0
 11
5090.328458168623
 21
3045.787740119584
 31
0.0
  0
LINE
  5
321
330
29F
100
AcDbEntity
  8
_1-0_
  6
Continuous
 62
     4
100
AcDbLine
 10
5223.661791501957
 20
3045.787740119584
 30
0.0
 11
5156.995124835289
 21
3045.787740119584
 31
0.0
  0
LINE
  5
322
330
29F
100
AcDbEntity
  8
_1-0_
  6
Continuous
 62
     4
100
AcDbLine
 10
4090.329145501464
 20
3045.787740119584
 30
0.0
 11
4023.662478834796
 21
3045.787740119584
 31
0.0
  0
LINE
  5
323
330
29F
100
AcDbEntity
  8
_1-0_
  6
Continuous
 62
     4
100
AcDbLine
 10
4623.662135168377
 20
3059.121073452917
 30
0.0
 11
4623.662135168377
 21
2885.787740119584
 31
0.0
  0
LINE
  5
324
330
29F
100
AcDbEntity
  8
_1-0_
  6
Continuous
 62
     4
100
AcDbLine
 10
4890.328801835043
 20
3059.121073452917
 30
0.0
 11
4890.328801835043
 21
2885.787740119584
 31
0.0
  0
LINE
  5
325
330
29F
100
AcDbEntity
  8
_1-0_
  6
Continuous
 62
     4
100
AcDbLine
 10
4356.99546850171
 20
3059.121073452917
 30
0.0
 11
4356.99546850171
 21
2885.787740119584
 31
0.0
  0
LINE
  5
326
330
29F
100
AcDbEntity
  8
_1-0_
  6
Continuous
 62
     4
100
AcDbLine
 10
4623.662135168377
 20
3045.787740119584
 30
0.0
 11
4356.99546850171
 21
3045.787740119584
 31
0.0
  0
LINE
  5
327
330
29F
100
AcDbEntity
  8
_1-0_
  6
Continuous
 62
     4
100
AcDbLine
 10
4890.328801835043
 20
3045.787740119584
 30
0.0
 11
4623.662135168377
 21
3045.787740119584
 31
0.0
  0
LINE
  5
328
330
29F
100
AcDbEntity
  8
_1-0_
  6
Continuous
 62
     4
100
AcDbLine
 10
5316.99512483529
 20
3392.454406786251
 30
0.0
 11
5282.221795088882
 21
3383.136921162559
 31
0.0
  0
LINE
  5
329
330
29F
100
AcDbEntity
  8
_1-0_
  6
Continuous
 62
     4
100
AcDbLine
 10
5316.99512483529
 20
3392.454406786251
 30
0.0
 11
5282.221795088882
 21
3401.771892409942
 31
0.0
  0
LINE
  5
32A
330
29F
100
AcDbEntity
  8
_1-0_
  6
Continuous
 62
     4
100
AcDbLine
 10
3930.329145501465
 20
3392.454406786251
 30
0.0
 11
3965.102475247871
 21
3401.771892409942
 31
0.0
  0
LINE
  5
32B
330
29F
100
AcDbEntity
  8
_1-0_
  6
Continuous
 62
     4
100
AcDbLine
 10
3930.329145501465
 20
3392.454406786251
 30
0.0
 11
3965.102475247871
 21
3383.136921162559
 31
0.0
  0
LINE
  5
32C
330
29F
100
AcDbEntity
  8
_1-0_
  6
Continuous
 62
     4
100
AcDbLine
 10
3930.329145501465
 20
3219.121073452917
 30
0.0
 11
3965.102475247871
 21
3228.438559076609
 31
0.0
  0
LINE
  5
32D
330
29F
100
AcDbEntity
  8
_1-0_
  6
Continuous
 62
     4
100
AcDbLine
 10
3930.329145501465
 20
3219.121073452917
 30
0.0
 11
3965.102475247871
 21
3209.803587829227
 31
0.0
  0
LINE
  5
32E
330
29F
100
AcDbEntity
  8
_1-0_
  6
Continuous
 62
     4
100
AcDbLine
 10
4023.662478834796
 20
3219.121073452917
 30
0.0
 11
3988.889149088392
 21
3209.803587829227
 31
0.0
  0
LINE
  5
32F
330
29F
100
AcDbEntity
  8
_1-0_
  6
Continuous
 62
     4
100
AcDbLine
 10
4023.662478834796
 20
3219.121073452917
 30
0.0
 11
3988.889149088392
 21
3228.438559076609
 31
0.0
  0
LINE
  5
330
330
29F
100
AcDbEntity
  8
_1-0_
  6
Continuous
 62
     4
100
AcDbLine
 10
4023.662478834796
 20
3219.121073452917
 30
0.0
 11
4058.435808581204
 21
3228.438559076609
 31
0.0
  0
LINE
  5
331
330
29F
100
AcDbEntity
  8
_1-0_
  6
Continuous
 62
     4
100
AcDbLine
 10
4023.662478834796
 20
3219.121073452917
 30
0.0
 11
4058.435808581204
 21
3209.803587829227
 31
0.0
  0
LINE
  5
332
330
29F
100
AcDbEntity
  8
_1-0_
  6
Continuous
 62
     4
100
AcDbLine
 10
5223.661791501957
 20
3219.121073452917
 30
0.0
 11
5188.888461755549
 21
3209.803587829227
 31
0.0
  0
LINE
  5
333
330
29F
100
AcDbEntity
  8
_1-0_
  6
Continuous
 62
     4
100
AcDbLine
 10
5223.661791501957
 20
3219.121073452917
 30
0.0
 11
5188.888461755549
 21
3228.438559076609
 31
0.0
  0
LINE
  5
334
330
29F
100
AcDbEntity
  8
_1-0_
  6
Continuous
 62
     4
100
AcDbLine
 10
5223.661791501957
 20
3219.121073452917
 30
0.0
 11
5258.435121248361
 21
3228.438559076609
 31
0.0
  0
LINE
  5
335
330
29F
100
AcDbEntity
  8
_1-0_
  6
Continuous
 62
     4
100
AcDbLine
 10
5223.661791501957
 20
3219.121073452917
 30
0.0
 11
5258.435121248361
 21
3209.803587829227
 31
0.0
  0
LINE
  5
336
330
29F
100
AcDbEntity
  8
_1-0_
  6
Continuous
 62
     4
100
AcDbLine
 10
5316.99512483529
 20
3219.121073452917
 30
0.0
 11
5282.221795088882
 21
3209.803587829227
 31
0.0
  0
LINE
  5
337
330
29F
100
AcDbEntity
  8
_1-0_
  6
Continuous
 62
     4
100
AcDbLine
 10
5316.99512483529
 20
3219.121073452917
 30
0.0
 11
5282.221795088882
 21
3228.438559076609
 31
0.0
  0
LINE
  5
338
330
29F
100
AcDbEntity
  8
_1-0_
  6
Continuous
 62
     4
100
AcDbLine
 10
5223.661791501957
 20
3045.787740119584
 30
0.0
 11
5258.435121248361
 21
3055.105225743274
 31
0.0
  0
LINE
  5
339
330
29F
100
AcDbEntity
  8
_1-0_
  6
Continuous
 62
     4
100
AcDbLine
 10
5223.661791501957
 20
3045.787740119584
 30
0.0
 11
5258.435121248361
 21
3036.470254495893
 31
0.0
  0
LINE
  5
33A
330
29F
100
AcDbEntity
  8
_1-0_
  6
Continuous
 62
     4
100
AcDbLine
 10
5156.995124835289
 20
3045.787740119584
 30
0.0
 11
5122.221795088882
 21
3036.470254495893
 31
0.0
  0
LINE
  5
33B
330
29F
100
AcDbEntity
  8
_1-0_
  6
Continuous
 62
     4
100
AcDbLine
 10
5156.995124835289
 20
3045.787740119584
 30
0.0
 11
5122.221795088882
 21
3055.105225743274
 31
0.0
  0
LINE
  5
33C
330
29F
100
AcDbEntity
  8
_1-0_
  6
Continuous
 62
     4
100
AcDbLine
 10
4890.328801835043
 20
3045.787740119584
 30
0.0
 11
4855.555472088637
 21
3036.470254495893
 31
0.0
  0
LINE
  5
33D
330
29F
100
AcDbEntity
  8
_1-0_
  6
Continuous
 62
     4
100
AcDbLine
 10
4890.328801835043
 20
3045.787740119584
 30
0.0
 11
4855.555472088637
 21
3055.105225743274
 31
0.0
  0
LINE
  5
33E
330
29F
100
AcDbEntity
  8
_1-0_
  6
Continuous
 62
     4
100
AcDbLine
 10
4623.662135168377
 20
3045.787740119584
 30
0.0
 11
4658.435464914782
 21
3055.105225743274
 31
0.0
  0
LINE
  5
33F
330
29F
100
AcDbEntity
  8
_1-0_
  6
Continuous
 62
     4
100
AcDbLine
 10
4623.662135168377
 20
3045.787740119584
 30
0.0
 11
4658.435464914782
 21
3036.470254495893
 31
0.0
  0
LINE
  5
340
330
29F
100
AcDbEntity
  8
_1-0_
  6
Continuous
 62
     4
100
AcDbLine
 10
4623.662135168377
 20
3045.787740119584
 30
0.0
 11
4588.88880542197
 21
3036.470254495893
 31
0.0
  0
LINE
  5
341
330
29F
100
AcDbEntity
  8
_1-0_
  6
Continuous
 62
     4
100
AcDbLine
 10
4623.662135168377
 20
3045.787740119584
 30
0.0
 11
4588.88880542197
 21
3055.105225743274
 31
0.0
  0
LINE
  5
342
330
29F
100
AcDbEntity
  8
_1-0_
  6
Continuous
 62
     4
100
AcDbLine
 10
4356.99546850171
 20
3045.787740119584
 30
0.0
 11
4391.768798248118
 21
3055.105225743274
 31
0.0
  0
LINE
  5
343
330
29F
100
AcDbEntity
  8
_1-0_
  6
Continuous
 62
     4
100
AcDbLine
 10
4356.99546850171
 20
3045.787740119584
 30
0.0
 11
4391.768798248118
 21
3036.470254495893
 31
0.0
  0
LINE
  5
344
330
29F
100
AcDbEntity
  8
_1-0_
  6
Continuous
 62
     4
100
AcDbLine
 10
4090.329145501464
 20
3045.787740119584
 30
0.0
 11
4125.102475247869
 21
3055.105225743274
 31
0.0
  0
LINE
  5
345
330
29F
100
AcDbEntity
  8
_1-0_
  6
Continuous
 62
     4
100
AcDbLine
 10
4090.329145501464
 20
3045.787740119584
 30
0.0
 11
4125.102475247869
 21
3036.470254495893
 31
0.0
  0
LINE
  5
346
330
29F
100
AcDbEntity
  8
_1-0_
  6
Continuous
 62
     4
100
AcDbLine
 10
4023.662478834796
 20
3045.787740119584
 30
0.0
 11
3988.889149088392
 21
3036.470254495893
 31
0.0
  0
LINE
  5
347
330
29F
100
AcDbEntity
  8
_1-0_
  6
Continuous
 62
     4
100
AcDbLine
 10
4023.662478834796
 20
3045.787740119584
 30
0.0
 11
3988.889149088392
 21
3055.105225743274
 31
0.0
  0
LINE
  5
348
330
29F
100
AcDbEntity
  8
_1-0_
  6
Continuous
 62
     4
100
AcDbLine
 10
5496.995124835289
 20
2572.454242611892
 30
0.0
 11
5506.312610458979
 21
2537.680912865485
 31
0.0
  0
LINE
  5
349
330
29F
100
AcDbEntity
  8
_1-0_
  6
Continuous
 62
     4
100
AcDbLine
 10
5496.995124835289
 20
2572.454242611892
 30
0.0
 11
5487.677639211598
 21
2537.680912865485
 31
0.0
  0
LINE
  5
34A
330
29F
100
AcDbEntity
  8
_1-0_
  6
Continuous
 62
     4
100
AcDbLine
 10
5496.995124835289
 20
1772.453508540417
 30
0.0
 11
5487.677639211598
 21
1807.226838286824
 31
0.0
  0
LINE
  5
34B
330
29F
100
AcDbEntity
  8
_1-0_
  6
Continuous
 62
     4
100
AcDbLine
 10
5496.995124835289
 20
1772.453508540417
 30
0.0
 11
5506.312610458979
 21
1807.226838286824
 31
0.0
  0
LINE
  5
34C
330
29F
100
AcDbEntity
  8
_1-0_
  6
Continuous
 62
   136
100
AcDbLine
 10
4717.943182166027
 20
2266.735211116339
 30
0.0
 11
4906.504776860267
 21
2455.297207920773
 31
0.0
  0
LINE
  5
34D
330
29F
100
AcDbEntity
  8
_1-0_
  6
Continuous
 62
   136
100
AcDbLine
 10
4340.820193377697
 20
2455.297207920773
 30
0.0
 11
4529.381788071938
 21
2266.735211116339
 31
0.0
  0
LINE
  5
34E
330
29F
100
AcDbEntity
  8
_1-0_
  6
Continuous
 62
   136
100
AcDbLine
 10
4340.819930914744
 20
1889.611155644539
 30
0.0
 11
4529.381525608983
 21
2078.173152448972
 31
0.0
  0
LINE
  5
34F
330
29F
100
AcDbEntity
  8
_1-0_
  6
Continuous
 62
   136
100
AcDbLine
 10
4717.943444628981
 20
2078.173152448972
 30
0.0
 11
4906.505039323221
 21
1889.611155644539
 31
0.0
  0
LINE
  5
350
330
29F
100
AcDbEntity
  8
_1-0_
  6
DASHED1
 62
   136
100
AcDbLine
 10
4906.504776860267
 20
2455.297207920773
 30
0.0
 11
5156.99525798148
 21
2705.788223216381
 31
0.0
  0
LINE
  5
351
330
29F
100
AcDbEntity
  8
_1-0_
  6
DASHED1
 62
   136
100
AcDbLine
 10
4340.820193377697
 20
2455.297207920773
 30
0.0
 11
4090.329712256485
 21
2705.788223216381
 31
0.0
  0
LINE
  5
352
330
29F
100
AcDbEntity
  8
_1-0_
  6
DASHED1
 62
   136
100
AcDbLine
 10
4340.819930914744
 20
1889.611155644539
 30
0.0
 11
4090.329712256485
 21
1639.120402812445
 31
0.0
  0
LINE
  5
353
330
29F
100
AcDbEntity
  8
_1-0_
  6
DASHED1
 62
   136
100
AcDbLine
 10
4906.505039323221
 20
1889.611155644539
 30
0.0
 11
5156.99525798148
 21
1639.120402812445
 31
0.0
  0
TEXT
  5
354
330
29F
100
AcDbEntity
  8
_1-0_
 62
     7
100
AcDbText
 10
4554.42352510609
 20
3404.159729448492
 30
0.0
 40
60.0
  1
1040
100
AcDbText
  0
TEXT
  5
355
330
29F
100
AcDbEntity
  8
_1-0_
 62
     7
100
AcDbText
 10
4573.187461481889
 20
3229.65512115356
 30
0.0
 40
60.0
  1
900
100
AcDbText
  0
TEXT
  5
356
330
29F
100
AcDbEntity
  8
_1-0_
 62
     7
100
AcDbText
 10
4441.839906851297
 20
3057.026906496209
 30
0.0
 40
60.0
  1
200
100
AcDbText
  0
TEXT
  5
357
330
29F
100
AcDbEntity
  8
_1-0_
 62
     7
100
AcDbText
 10
4706.411409750063
 20
3055.15051285863
 30
0.0
 40
60.0
  1
200
100
AcDbText
  0
TEXT
  5
358
330
29F
100
AcDbEntity
  8
_1-0_
 62
     7
100
AcDbText
 10
5237.430809185175
 20
3231.53151479114
 30
0.0
 40
60.0
  1
70
100
AcDbText
  0
TEXT
  5
359
330
29F
100
AcDbEntity
  8
_1-0_
 62
     7
100
AcDbText
 10
3944.595592892623
 20
3231.53151479114
 30
0.0
 40
60.0
  1
70
100
AcDbText
  0
TEXT
  5
35A
330
29F
100
AcDbEntity
  8
_1-0_
 62
     7
100
AcDbText
 10
4030.909700221299
 20
3060.779693771369
 30
0.0
 40
60.0
  1
50
100
AcDbText
  0
TEXT
  5
35B
330
29F
100
AcDbEntity
  8
_1-0_
 62
     7
100
AcDbText
 10
5151.1167018565
 20
3062.656087408949
 30
0.0
 40
60.0
  1
50
100
AcDbText
  0
TEXT
  5
35C
330
29F
100
AcDbEntity
  8
_1-0_
 62
     7
100
AcDbText
 10
5488.601507965861
 20
2120.763905262029
 30
0.0
 40
60.0
  1
600
 50
90.0
100
AcDbText
  0
LINE
  5
35D
330
29F
100
AcDbEntity
  8
_1-0_
  6
Continuous
 62
     4
100
AcDbLine
 10
5023.66232722881
 20
1459.120360983332
 30
0.0
 11
5023.66232722881
 21
1285.787027649999
 31
0.0
  0
LINE
  5
35E
330
29F
100
AcDbEntity
  8
_1-0_
  6
Continuous
 62
     4
100
AcDbLine
 10
4223.661593157336
 20
1299.120360983332
 30
0.0
 11
5023.66232722881
 21
1299.120360983332
 31
0.0
  0
LINE
  5
35F
330
29F
100
AcDbEntity
  8
_1-0_
  6
Continuous
 62
     4
100
AcDbLine
 10
4223.661593157336
 20
1459.120360983332
 30
0.0
 11
4223.661593157336
 21
1285.787027649999
 31
0.0
  0
LINE
  5
360
330
29F
100
AcDbEntity
  8
_1-0_
  6
Continuous
 62
     4
100
AcDbLine
 10
5023.66232722881
 20
1299.120360983332
 30
0.0
 11
4988.888997482405
 21
1289.802875359642
 31
0.0
  0
LINE
  5
361
330
29F
100
AcDbEntity
  8
_1-0_
  6
Continuous
 62
     4
100
AcDbLine
 10
5023.66232722881
 20
1299.120360983332
 30
0.0
 11
4988.888997482405
 21
1308.437846607023
 31
0.0
  0
LINE
  5
362
330
29F
100
AcDbEntity
  8
_1-0_
  6
Continuous
 62
     4
100
AcDbLine
 10
4223.661593157336
 20
1299.120360983332
 30
0.0
 11
4258.434922903743
 21
1308.437846607023
 31
0.0
  0
LINE
  5
363
330
29F
100
AcDbEntity
  8
_1-0_
  6
Continuous
 62
     4
100
AcDbLine
 10
4223.661593157336
 20
1299.120360983332
 30
0.0
 11
4258.434922903743
 21
1289.802875359642
 31
0.0
  0
TEXT
  5
364
330
29F
100
AcDbEntity
  8
_1-0_
 62
     7
100
AcDbText
 10
4570.380755032401
 20
1311.626043237274
 30
0.0
 40
60.0
  1
600
100
AcDbText
  0
LINE
  5
365
330
29F
100
AcDbEntity
  8
_1-0_
  6
DASHED1
 62
   136
100
AcDbLine
 10
1488.704091409016
 20
3066.819488526523
 30
0.0
 11
1488.704091409016
 21
2813.485345318723
 31
0.0
  0
LINE
  5
366
330
29F
100
AcDbEntity
  8
_1-0_
  6
DASHED1
 62
   136
100
AcDbLine
 10
2422.038806084979
 20
2813.485345318723
 30
0.0
 11
1355.370460755134
 21
2813.485345318723
 31
0.0
  0
LINE
  5
367
330
29F
100
AcDbEntity
  8
_1-0_
  6
DASHED1
 62
   136
100
AcDbLine
 10
1288.70347045289
 20
2746.819054917691
 30
0.0
 11
2488.705446436617
 21
2746.819054917691
 31
0.0
  0
LINE
  5
368
330
29F
100
AcDbEntity
  8
_1-0_
  6
DASHED1
 62
   136
100
AcDbLine
 10
1355.369935829225
 20
1746.818487966288
 30
0.0
 11
1355.369935829225
 21
2813.485345318723
 31
0.0
  0
LINE
  5
369
330
29F
100
AcDbEntity
  8
_1-0_
  6
DASHED1
 62
   136
100
AcDbLine
 10
1288.703120502283
 20
1813.485128317926
 30
0.0
 11
1288.703120502283
 21
2746.819054917691
 31
0.0
  0
LINE
  5
36A
330
29F
100
AcDbEntity
  8
_1-0_
  6
DASHED1
 62
   136
100
AcDbLine
 10
1288.70347045289
 20
2746.819054917691
 30
0.0
 11
1355.370460755134
 21
2813.485345318723
 31
0.0
  0
LINE
  5
36B
330
29F
100
AcDbEntity
  8
_1-0_
  6
DASHED1
 62
   136
100
AcDbLine
 10
2422.038456134372
 20
1746.818487966288
 30
0.0
 11
2422.038456134372
 21
2813.485345318723
 31
0.0
  0
LINE
  5
36C
330
29F
100
AcDbEntity
  8
_1-0_
  6
DASHED1
 62
   136
100
AcDbLine
 10
2288.704125579277
 20
3066.819488526523
 30
0.0
 11
2288.704125579277
 21
2813.485345318723
 31
0.0
  0
LINE
  5
36D
330
29F
100
AcDbEntity
  8
_1-0_
  6
DASHED1
 62
   136
100
AcDbLine
 10
2422.038806084979
 20
2813.485345318723
 30
0.0
 11
2488.705446436617
 21
2746.819054917691
 31
0.0
  0
LINE
  5
36E
330
29F
100
AcDbEntity
  8
_1-0_
  6
DASHED1
 62
   136
100
AcDbLine
 10
2488.70509648601
 20
1813.485128317926
 30
0.0
 11
2488.70509648601
 21
2746.819054917691
 31
0.0
  0
LINE
  5
36F
330
29F
100
AcDbEntity
  8
_1-0_
  6
DASHED1
 62
   136
100
AcDbLine
 10
1235.369335787654
 20
1826.818421393193
 30
0.0
 11
1235.369335787654
 21
2226.818963404233
 31
0.0
  0
LINE
  5
370
330
29F
100
AcDbEntity
  8
_1-0_
  6
DASHED1
 62
   136
100
AcDbLine
 10
1195.369456561853
 20
2240.152081504197
 30
0.0
 11
1235.369335787654
 21
2226.818963404233
 31
0.0
  0
LINE
  5
371
330
29F
100
AcDbEntity
  8
_1-0_
  6
DASHED1
 62
   136
100
AcDbLine
 10
1235.369335787654
 20
1826.818421393193
 30
0.0
 11
1195.369456561853
 21
1813.485653243836
 31
0.0
  0
LINE
  5
372
330
29F
100
AcDbEntity
  8
_1-0_
  6
DASHED1
 62
   136
100
AcDbLine
 10
1475.370623358446
 20
1813.485128317926
 30
0.0
 11
1288.703120502283
 21
1813.485128317926
 31
0.0
  0
LINE
  5
373
330
29F
100
AcDbEntity
  8
_1-0_
  6
DASHED1
 62
   136
100
AcDbLine
 10
1355.370460755134
 20
1746.818487966288
 30
0.0
 11
1755.37135271678
 21
1733.485369866324
 31
0.0
  0
LINE
  5
374
330
29F
100
AcDbEntity
  8
_1-0_
  6
DASHED1
 62
   136
100
AcDbLine
 10
1288.703120502283
 20
1813.485128317926
 30
0.0
 11
1355.370460755134
 21
1746.818487966288
 31
0.0
  0
LINE
  5
375
330
29F
100
AcDbEntity
  8
_1-0_
  6
DASHED1
 62
   136
100
AcDbLine
 10
1768.703770915531
 20
1693.484965714614
 30
0.0
 11
2008.704446072762
 21
1693.484965714614
 31
0.0
  0
LINE
  5
376
330
29F
100
AcDbEntity
  8
_1-0_
  6
DASHED1
 62
   136
100
AcDbLine
 10
1755.37135271678
 20
1733.485369866324
 30
0.0
 11
1768.703770915531
 21
1693.484965714614
 31
0.0
  0
LINE
  5
377
330
29F
100
AcDbEntity
  8
_1-0_
  6
DASHED1
 62
   136
100
AcDbLine
 10
2008.704446072762
 20
1693.484965714614
 30
0.0
 11
2022.037914123332
 21
1733.485369866324
 31
0.0
  0
LINE
  5
378
330
29F
100
AcDbEntity
  8
_1-0_
  6
DASHED1
 62
   136
100
AcDbLine
 10
2022.037914123332
 20
1733.485369866324
 30
0.0
 11
2422.127343588372
 21
1746.818487966288
 31
0.0
  0
LINE
  5
379
330
29F
100
AcDbEntity
  8
_1-0_
  6
DASHED1
 62
   136
100
AcDbLine
 10
2488.70509648601
 20
1813.485128317926
 30
0.0
 11
2302.037243679241
 21
1813.485128317926
 31
0.0
  0
LINE
  5
37A
330
29F
100
AcDbEntity
  8
_1-0_
  6
DASHED1
 62
   136
100
AcDbLine
 10
2422.038456134372
 20
1746.818487966288
 30
0.0
 11
2488.70509648601
 21
1813.485128317926
 31
0.0
  0
LINE
  5
37B
330
29F
100
AcDbEntity
  8
_1-0_
  6
DASHED1
 62
   136
100
AcDbLine
 10
2542.038618737684
 20
1826.818421393193
 30
0.0
 11
2582.038322988181
 21
1813.485653243836
 31
0.0
  0
LINE
  5
37C
330
29F
100
AcDbEntity
  8
_1-0_
  6
DASHED1
 62
   136
100
AcDbLine
 10
2542.038618737684
 20
1826.818421393193
 30
0.0
 11
2542.038618737684
 21
2226.818963404233
 31
0.0
  0
LINE
  5
37D
330
29F
100
AcDbEntity
  8
_1-0_
  6
DASHED1
 62
   136
100
AcDbLine
 10
2582.038322988181
 20
2240.152081504197
 30
0.0
 11
2542.038618737684
 21
2226.818963404233
 31
0.0
  0
LINE
  5
37E
330
29F
100
AcDbEntity
  8
_1-0_
  6
Continuous
 62
   136
100
AcDbLine
 10
1488.703916433713
 20
2226.818963404233
 30
0.0
 11
2288.703775628671
 21
2226.818963404233
 31
0.0
  0
LINE
  5
37F
330
29F
100
AcDbEntity
  8
_1-0_
  6
Continuous
 62
   136
100
AcDbLine
 10
1475.370623358446
 20
2240.152081504197
 30
0.0
 11
2302.037243679241
 21
2240.152081504197
 31
0.0
  0
LINE
  5
380
330
29F
100
AcDbEntity
  8
_1-0_
  6
Continuous
 62
   136
100
AcDbLine
 10
1475.370623358446
 20
2240.152081504197
 30
0.0
 11
1475.370623358446
 21
1813.485653243836
 31
0.0
  0
LINE
  5
381
330
29F
100
AcDbEntity
  8
_1-0_
  6
Continuous
 62
   136
100
AcDbLine
 10
1488.703916433713
 20
2226.818963404233
 30
0.0
 11
1488.703916433713
 21
1826.818421393193
 31
0.0
  0
LINE
  5
382
330
29F
100
AcDbEntity
  8
_1-0_
  6
Continuous
 62
   136
100
AcDbLine
 10
1488.703916433713
 20
1826.818421393193
 30
0.0
 11
2288.703775628671
 21
1826.818421393193
 31
0.0
  0
LINE
  5
383
330
29F
100
AcDbEntity
  8
_1-0_
  6
Continuous
 62
   136
100
AcDbLine
 10
1475.370623358446
 20
1813.485653243836
 30
0.0
 11
2302.037243679241
 21
1813.485653243836
 31
0.0
  0
LINE
  5
384
330
29F
100
AcDbEntity
  8
_1-0_
  6
Continuous
 62
   136
100
AcDbLine
 10
2288.703775628671
 20
2226.818963404233
 30
0.0
 11
2288.703775628671
 21
1826.818421393193
 31
0.0
  0
LINE
  5
385
330
29F
100
AcDbEntity
  8
_1-0_
  6
Continuous
 62
   136
100
AcDbLine
 10
2302.037243679241
 20
2240.152081504197
 30
0.0
 11
2302.037243679241
 21
1813.485653243836
 31
0.0
  0
LINE
  5
386
330
29F
100
AcDbEntity
  8
_1-0_
  6
Continuous
 62
   136
100
AcDbLine
 10
1475.370623358446
 20
2240.152081504197
 30
0.0
 11
1488.703916433713
 21
2226.818963404233
 31
0.0
  0
LINE
  5
387
330
29F
100
AcDbEntity
  8
_1-0_
  6
Continuous
 62
   136
100
AcDbLine
 10
1488.703916433713
 20
1826.818421393193
 30
0.0
 11
1475.370623358446
 21
1813.485653243836
 31
0.0
  0
LINE
  5
388
330
29F
100
AcDbEntity
  8
_1-0_
  6
Continuous
 62
   136
100
AcDbLine
 10
2288.703775628671
 20
1826.818421393193
 30
0.0
 11
2302.037243679241
 21
1813.485653243836
 31
0.0
  0
LINE
  5
389
330
29F
100
AcDbEntity
  8
_1-0_
  6
Continuous
 62
   136
100
AcDbLine
 10
2288.703775628671
 20
2226.818963404233
 30
0.0
 11
2302.037243679241
 21
2240.152081504197
 31
0.0
  0
LINE
  5
38A
330
29F
100
AcDbEntity
  8
_1-0_
  6
DASHED1
 62
     6
100
AcDbLine
 10
1242.036594738849
 20
2402.818921928606
 30
0.0
 11
1288.703120502283
 21
2402.818921928606
 31
0.0
  0
LINE
  5
38B
330
29F
100
AcDbEntity
  8
_1-0_
  6
DASHED1
 62
     6
100
AcDbLine
 10
1242.036594738849
 20
2424.152260839154
 30
0.0
 11
1288.703120502283
 21
2424.152260839154
 31
0.0
  0
LINE
  5
38C
330
29F
100
AcDbEntity
  8
_1-0_
  6
DASHED1
 62
     6
100
AcDbLine
 10
1242.036594738849
 20
2402.818921928606
 30
0.0
 11
1242.036594738849
 21
2424.152260839154
 31
0.0
  0
CIRCLE
  5
38D
330
29F
100
AcDbEntity
  8
_1-0_
  6
DASHED1
 62
     6
100
AcDbCircle
 10
1622.037022161685
 20
2413.485146974104
 30
0.0
 40
10.66666740478235
  0
CIRCLE
  5
38E
330
29F
100
AcDbEntity
  8
_1-0_
  6
DASHED1
 62
     6
100
AcDbCircle
 10
1888.703933518843
 20
2413.485146974104
 30
0.0
 40
10.66666740478235
  0
CIRCLE
  5
38F
330
29F
100
AcDbEntity
  8
_1-0_
  6
DASHED1
 62
     6
100
AcDbCircle
 10
2155.370494925395
 20
2413.485146974104
 30
0.0
 40
10.66666740478235
  0
LINE
  5
390
330
29F
100
AcDbEntity
  8
_1-0_
  6
DASHED1
 62
     6
100
AcDbLine
 10
2535.371359786489
 20
2402.818921928606
 30
0.0
 11
2488.704746535404
 21
2402.818921928606
 31
0.0
  0
LINE
  5
391
330
29F
100
AcDbEntity
  8
_1-0_
  6
DASHED1
 62
     6
100
AcDbLine
 10
2535.371359786489
 20
2424.152260839154
 30
0.0
 11
2488.704746535404
 21
2424.152260839154
 31
0.0
  0
LINE
  5
392
330
29F
100
AcDbEntity
  8
_1-0_
  6
DASHED1
 62
     6
100
AcDbLine
 10
2535.371359786489
 20
2402.818921928606
 30
0.0
 11
2535.371359786489
 21
2424.152260839154
 31
0.0
  0
LINE
  5
393
330
29F
100
AcDbEntity
  8
_1-0_
  6
Continuous
 62
     7
100
AcDbLine
 10
1315.370756504636
 20
3053.486370426559
 30
0.0
 11
1308.704022479351
 21
2933.485507922035
 31
0.0
  0
LINE
  5
394
330
29F
100
AcDbEntity
  8
_1-0_
  6
Continuous
 62
     7
100
AcDbLine
 10
2448.701717754146
 20
3066.819488526523
 30
0.0
 11
1328.704049579903
 21
3066.819488526523
 31
0.0
  0
LINE
  5
395
330
29F
100
AcDbEntity
  8
_1-0_
  6
Continuous
 62
     7
100
AcDbLine
 10
2572.610653654507
 20
2933.485507922035
 30
0.0
 11
1204.798175747348
 21
2933.485507922035
 31
0.0
  0
LINE
  5
396
330
29F
100
AcDbEntity
  8
_1-0_
  6
Continuous
 62
     7
100
AcDbLine
 10
1195.369456561853
 20
2924.05783858836
 30
0.0
 11
1195.369456561853
 21
1640.15144346294
 31
0.0
  0
LINE
  5
397
330
29F
100
AcDbEntity
  8
_1-0_
  6
Continuous
 62
     7
100
AcDbLine
 10
1195.369456561853
 20
2924.05783858836
 30
0.0
 11
1204.798175747348
 21
2933.485507922035
 31
0.0
  0
LINE
  5
398
330
29F
100
AcDbEntity
  8
_1-0_
  6
Continuous
 62
     7
100
AcDbLine
 10
1195.369456561853
 20
2613.485337463491
 30
0.0
 11
2582.038322988181
 21
2613.485337463491
 31
0.0
  0
LINE
  5
399
330
29F
100
AcDbEntity
  8
_1-0_
  6
Continuous
 62
     7
100
AcDbLine
 10
2582.038322988181
 20
2924.05783858836
 30
0.0
 11
2582.038322988181
 21
1640.15144346294
 31
0.0
  0
LINE
  5
39A
330
29F
100
AcDbEntity
  8
_1-0_
  6
Continuous
 62
     7
100
AcDbLine
 10
2572.610653654507
 20
2933.485507922035
 30
0.0
 11
2582.038672938788
 21
2924.05783858836
 31
0.0
  0
LINE
  5
39B
330
29F
100
AcDbEntity
  8
_1-0_
  6
Continuous
 62
     7
100
AcDbLine
 10
2462.035010829414
 20
3053.486370426559
 30
0.0
 11
2468.701569879395
 21
2933.485507922035
 31
0.0
  0
ARC
  5
39C
330
29F
100
AcDbEntity
  8
_1-0_
  6
Continuous
 62
     7
100
AcDbCircle
 10
2448.701717754146
 20
3053.486370426559
 30
0.0
 40
13.33333408510362
100
AcDbArc
 50
0.0
 51
90.0
  0
LINE
  5
39D
330
29F
100
AcDbEntity
  8
_1-0_
  6
Continuous
 62
     7
100
AcDbLine
 10
2568.704854937612
 20
1626.818325362976
 30
0.0
 11
1208.701874760605
 21
1626.818325362976
 31
0.0
  0
LINE
  5
39E
330
29F
100
AcDbEntity
  8
_1-0_
  6
Continuous
 62
     7
100
AcDbLine
 10
2568.704854937612
 20
1626.818325362976
 30
0.0
 11
2582.038322988181
 21
1640.15144346294
 31
0.0
  0
LINE
  5
39F
330
29F
100
AcDbEntity
  8
_1-0_
  6
Continuous
 62
     7
100
AcDbLine
 10
1195.369456561853
 20
1640.15144346294
 30
0.0
 11
1208.701874760605
 21
1626.818325362976
 31
0.0
  0
LINE
  5
3A0
330
29F
100
AcDbEntity
  8
_1-0_
  6
Continuous
 62
     4
100
AcDbLine
 10
3403.662478834796
 20
1479.120360983332
 30
0.0
 11
3403.662478834796
 21
2865.787740119584
 31
0.0
  0
LINE
  5
3A1
330
29F
100
AcDbEntity
  8
_1-0_
  6
Continuous
 62
     4
100
AcDbLine
 10
3910.329145501464
 20
1479.120360983332
 30
0.0
 11
3390.329145501464
 21
1479.120360983332
 31
0.0
  0
LINE
  5
3A2
330
29F
100
AcDbEntity
  8
_1-0_
  6
Continuous
 62
     4
100
AcDbLine
 10
3910.329145501464
 20
2865.787740119584
 30
0.0
 11
3390.329145501464
 21
2865.787740119584
 31
0.0
  0
LINE
  5
3A3
330
29F
100
AcDbEntity
  8
_1-0_
  6
Continuous
 62
     4
100
AcDbLine
 10
3910.329145501464
 20
2772.454406786251
 30
0.0
 11
3563.662478834797
 21
2772.454406786251
 31
0.0
  0
LINE
  5
3A4
330
29F
100
AcDbEntity
  8
_1-0_
  6
Continuous
 62
     4
100
AcDbLine
 10
3910.329145501464
 20
1572.453694316665
 30
0.0
 11
3563.662478834797
 21
1572.453694316665
 31
0.0
  0
LINE
  5
3A5
330
29F
100
AcDbEntity
  8
_1-0_
  6
Continuous
 62
     4
100
AcDbLine
 10
3576.995812168131
 20
1479.120360983332
 30
0.0
 11
3576.995812168131
 21
1572.453694316665
 31
0.0
  0
LINE
  5
3A6
330
29F
100
AcDbEntity
  8
_1-0_
  6
Continuous
 62
     4
100
AcDbLine
 10
3576.995812168131
 20
2772.454406786251
 30
0.0
 11
3576.995812168131
 21
2865.787740119584
 31
0.0
  0
LINE
  5
3A7
330
29F
100
AcDbEntity
  8
_1-0_
  6
Continuous
 62
     4
100
AcDbLine
 10
3576.995812168131
 20
2772.454406786251
 30
0.0
 11
3576.995812168131
 21
1572.453694316665
 31
0.0
  0
LINE
  5
3A8
330
29F
100
AcDbEntity
  8
_1-0_
  6
Continuous
 62
     4
100
AcDbLine
 10
3910.329145501464
 20
1639.120360983332
 30
0.0
 11
3736.995812168129
 21
1639.120360983332
 31
0.0
  0
LINE
  5
3A9
330
29F
100
AcDbEntity
  8
_1-0_
  6
Continuous
 62
     4
100
AcDbLine
 10
3910.329145501464
 20
2705.787740119584
 30
0.0
 11
3736.995812168129
 21
2705.787740119584
 31
0.0
  0
LINE
  5
3AA
330
29F
100
AcDbEntity
  8
_1-0_
  6
Continuous
 62
     4
100
AcDbLine
 10
3750.329145501464
 20
2639.121073452917
 30
0.0
 11
3750.329145501464
 21
2705.787740119584
 31
0.0
  0
LINE
  5
3AB
330
29F
100
AcDbEntity
  8
_1-0_
  6
Continuous
 62
     4
100
AcDbLine
 10
3750.329145501464
 20
2772.454406786251
 30
0.0
 11
3750.329145501464
 21
2839.121073452917
 31
0.0
  0
LINE
  5
3AC
330
29F
100
AcDbEntity
  8
_1-0_
  6
Continuous
 62
     4
100
AcDbLine
 10
3750.329145501464
 20
1505.787027649999
 30
0.0
 11
3750.329145501464
 21
1572.453694316665
 31
0.0
  0
LINE
  5
3AD
330
29F
100
AcDbEntity
  8
_1-0_
  6
Continuous
 62
     4
100
AcDbLine
 10
3750.329145501464
 20
1639.120360983332
 30
0.0
 11
3750.329145501464
 21
1705.787027649999
 31
0.0
  0
LINE
  5
3AE
330
29F
100
AcDbEntity
  8
_1-0_
  6
Continuous
 62
     4
100
AcDbLine
 10
3750.329145501464
 20
2772.454406786251
 30
0.0
 11
3750.329145501464
 21
2705.787740119584
 31
0.0
  0
LINE
  5
3AF
330
29F
100
AcDbEntity
  8
_1-0_
  6
Continuous
 62
     4
100
AcDbLine
 10
3750.329145501464
 20
1639.120360983332
 30
0.0
 11
3750.329145501464
 21
1572.453694316665
 31
0.0
  0
LINE
  5
3B0
330
29F
100
AcDbEntity
  8
_1-0_
  6
Continuous
 62
     4
100
AcDbLine
 10
3736.995812168129
 20
2172.454050551458
 30
0.0
 11
3910.329145501464
 21
2172.454050551458
 31
0.0
  0
LINE
  5
3B1
330
29F
100
AcDbEntity
  8
_1-0_
  6
Continuous
 62
     4
100
AcDbLine
 10
3736.995812168129
 20
2439.120717218125
 30
0.0
 11
3910.329145501464
 21
2439.120717218125
 31
0.0
  0
LINE
  5
3B2
330
29F
100
AcDbEntity
  8
_1-0_
  6
Continuous
 62
     4
100
AcDbLine
 10
3736.995812168129
 20
1905.787383884791
 30
0.0
 11
3910.329145501464
 21
1905.787383884791
 31
0.0
  0
LINE
  5
3B3
330
29F
100
AcDbEntity
  8
_1-0_
  6
Continuous
 62
     4
100
AcDbLine
 10
3750.329145501464
 20
1905.787383884791
 30
0.0
 11
3750.329145501464
 21
2172.454050551458
 31
0.0
  0
LINE
  5
3B4
330
29F
100
AcDbEntity
  8
_1-0_
  6
Continuous
 62
     4
100
AcDbLine
 10
3750.329145501464
 20
2439.120717218125
 30
0.0
 11
3750.329145501464
 21
2172.454050551458
 31
0.0
  0
LINE
  5
3B5
330
29F
100
AcDbEntity
  8
_1-0_
  6
Continuous
 62
     4
100
AcDbLine
 10
3403.662478834796
 20
2865.787740119584
 30
0.0
 11
3412.979964458489
 21
2831.014410373177
 31
0.0
  0
LINE
  5
3B6
330
29F
100
AcDbEntity
  8
_1-0_
  6
Continuous
 62
     4
100
AcDbLine
 10
3403.662478834796
 20
2865.787740119584
 30
0.0
 11
3394.344993211106
 21
2831.014410373177
 31
0.0
  0
LINE
  5
3B7
330
29F
100
AcDbEntity
  8
_1-0_
  6
Continuous
 62
     4
100
AcDbLine
 10
3576.995812168131
 20
2865.787740119584
 30
0.0
 11
3586.313297791821
 21
2831.014410373177
 31
0.0
  0
LINE
  5
3B8
330
29F
100
AcDbEntity
  8
_1-0_
  6
Continuous
 62
     4
100
AcDbLine
 10
3576.995812168131
 20
2865.787740119584
 30
0.0
 11
3567.67832654444
 21
2831.014410373177
 31
0.0
  0
LINE
  5
3B9
330
29F
100
AcDbEntity
  8
_1-0_
  6
Continuous
 62
     4
100
AcDbLine
 10
3576.995812168131
 20
2772.454406786251
 30
0.0
 11
3567.67832654444
 21
2807.227736532657
 31
0.0
  0
LINE
  5
3BA
330
29F
100
AcDbEntity
  8
_1-0_
  6
Continuous
 62
     4
100
AcDbLine
 10
3576.995812168131
 20
2772.454406786251
 30
0.0
 11
3586.313297791821
 21
2807.227736532657
 31
0.0
  0
LINE
  5
3BB
330
29F
100
AcDbEntity
  8
_1-0_
  6
Continuous
 62
     4
100
AcDbLine
 10
3576.995812168131
 20
2772.454406786251
 30
0.0
 11
3586.313297791821
 21
2737.681077039844
 31
0.0
  0
LINE
  5
3BC
330
29F
100
AcDbEntity
  8
_1-0_
  6
Continuous
 62
     4
100
AcDbLine
 10
3576.995812168131
 20
2772.454406786251
 30
0.0
 11
3567.67832654444
 21
2737.681077039844
 31
0.0
  0
LINE
  5
3BD
330
29F
100
AcDbEntity
  8
_1-0_
  6
Continuous
 62
     4
100
AcDbLine
 10
3750.329145501464
 20
2772.454406786251
 30
0.0
 11
3741.011659877773
 21
2807.227736532657
 31
0.0
  0
LINE
  5
3BE
330
29F
100
AcDbEntity
  8
_1-0_
  6
Continuous
 62
     4
100
AcDbLine
 10
3750.329145501464
 20
2772.454406786251
 30
0.0
 11
3759.646631125156
 21
2807.227736532657
 31
0.0
  0
LINE
  5
3BF
330
29F
100
AcDbEntity
  8
_1-0_
  6
Continuous
 62
     4
100
AcDbLine
 10
3750.329145501464
 20
2705.787740119584
 30
0.0
 11
3759.646631125156
 21
2671.014410373177
 31
0.0
  0
LINE
  5
3C0
330
29F
100
AcDbEntity
  8
_1-0_
  6
Continuous
 62
     4
100
AcDbLine
 10
3750.329145501464
 20
2705.787740119584
 30
0.0
 11
3741.011659877773
 21
2671.014410373177
 31
0.0
  0
LINE
  5
3C1
330
29F
100
AcDbEntity
  8
_1-0_
  6
Continuous
 62
     4
100
AcDbLine
 10
3750.329145501464
 20
2439.120717218125
 30
0.0
 11
3759.646631125156
 21
2404.347387471718
 31
0.0
  0
LINE
  5
3C2
330
29F
100
AcDbEntity
  8
_1-0_
  6
Continuous
 62
     4
100
AcDbLine
 10
3750.329145501464
 20
2439.120717218125
 30
0.0
 11
3741.011659877773
 21
2404.347387471718
 31
0.0
  0
LINE
  5
3C3
330
29F
100
AcDbEntity
  8
_1-0_
  6
Continuous
 62
     4
100
AcDbLine
 10
3750.329145501464
 20
2172.454050551458
 30
0.0
 11
3741.011659877773
 21
2207.227380297864
 31
0.0
  0
LINE
  5
3C4
330
29F
100
AcDbEntity
  8
_1-0_
  6
Continuous
 62
     4
100
AcDbLine
 10
3750.329145501464
 20
2172.454050551458
 30
0.0
 11
3759.646631125156
 21
2207.227380297864
 31
0.0
  0
LINE
  5
3C5
330
29F
100
AcDbEntity
  8
_1-0_
  6
Continuous
 62
     4
100
AcDbLine
 10
3750.329145501464
 20
2172.454050551458
 30
0.0
 11
3759.646631125156
 21
2137.680720805052
 31
0.0
  0
LINE
  5
3C6
330
29F
100
AcDbEntity
  8
_1-0_
  6
Continuous
 62
     4
100
AcDbLine
 10
3750.329145501464
 20
2172.454050551458
 30
0.0
 11
3741.011659877773
 21
2137.680720805052
 31
0.0
  0
LINE
  5
3C7
330
29F
100
AcDbEntity
  8
_1-0_
  6
Continuous
 62
     4
100
AcDbLine
 10
3750.329145501464
 20
1905.787383884791
 30
0.0
 11
3741.011659877773
 21
1940.560713631197
 31
0.0
  0
LINE
  5
3C8
330
29F
100
AcDbEntity
  8
_1-0_
  6
Continuous
 62
     4
100
AcDbLine
 10
3750.329145501464
 20
1905.787383884791
 30
0.0
 11
3759.646631125156
 21
1940.560713631197
 31
0.0
  0
LINE
  5
3C9
330
29F
100
AcDbEntity
  8
_1-0_
  6
Continuous
 62
     4
100
AcDbLine
 10
3750.329145501464
 20
1639.120360983332
 30
0.0
 11
3741.011659877773
 21
1673.893690729739
 31
0.0
  0
LINE
  5
3CA
330
29F
100
AcDbEntity
  8
_1-0_
  6
Continuous
 62
     4
100
AcDbLine
 10
3750.329145501464
 20
1639.120360983332
 30
0.0
 11
3759.646631125156
 21
1673.893690729739
 31
0.0
  0
LINE
  5
3CB
330
29F
100
AcDbEntity
  8
_1-0_
  6
Continuous
 62
     4
100
AcDbLine
 10
3750.329145501464
 20
1572.453694316665
 30
0.0
 11
3759.646631125156
 21
1537.680364570259
 31
0.0
  0
LINE
  5
3CC
330
29F
100
AcDbEntity
  8
_1-0_
  6
Continuous
 62
     4
100
AcDbLine
 10
3750.329145501464
 20
1572.453694316665
 30
0.0
 11
3741.011659877773
 21
1537.680364570259
 31
0.0
  0
LINE
  5
3CD
330
29F
100
AcDbEntity
  8
_1-0_
  6
Continuous
 62
     4
100
AcDbLine
 10
3576.995812168131
 20
1479.120360983332
 30
0.0
 11
3567.67832654444
 21
1513.893690729739
 31
0.0
  0
LINE
  5
3CE
330
29F
100
AcDbEntity
  8
_1-0_
  6
Continuous
 62
     4
100
AcDbLine
 10
3576.995812168131
 20
1479.120360983332
 30
0.0
 11
3586.313297791821
 21
1513.893690729739
 31
0.0
  0
LINE
  5
3CF
330
29F
100
AcDbEntity
  8
_1-0_
  6
Continuous
 62
     4
100
AcDbLine
 10
3576.995812168131
 20
1572.453694316665
 30
0.0
 11
3586.313297791821
 21
1537.680364570259
 31
0.0
  0
LINE
  5
3D0
330
29F
100
AcDbEntity
  8
_1-0_
  6
Continuous
 62
     4
100
AcDbLine
 10
3576.995812168131
 20
1572.453694316665
 30
0.0
 11
3567.67832654444
 21
1537.680364570259
 31
0.0
  0
LINE
  5
3D1
330
29F
100
AcDbEntity
  8
_1-0_
  6
Continuous
 62
     4
100
AcDbLine
 10
3576.995812168131
 20
1572.453694316665
 30
0.0
 11
3567.67832654444
 21
1607.227024063072
 31
0.0
  0
LINE
  5
3D2
330
29F
100
AcDbEntity
  8
_1-0_
  6
Continuous
 62
     4
100
AcDbLine
 10
3576.995812168131
 20
1572.453694316665
 30
0.0
 11
3586.313297791821
 21
1607.227024063072
 31
0.0
  0
LINE
  5
3D3
330
29F
100
AcDbEntity
  8
_1-0_
  6
Continuous
 62
     4
100
AcDbLine
 10
3403.662478834796
 20
1479.120360983332
 30
0.0
 11
3394.344993211106
 21
1513.893690729739
 31
0.0
  0
LINE
  5
3D4
330
29F
100
AcDbEntity
  8
_1-0_
  6
Continuous
 62
     4
100
AcDbLine
 10
3403.662478834796
 20
1479.120360983332
 30
0.0
 11
3412.979964458489
 21
1513.893690729739
 31
0.0
  0
LINE
  5
3D5
330
29F
100
AcDbEntity
  8
_1-0_
  6
Continuous
 62
     4
100
AcDbLine
 10
2602.038322988182
 20
2613.485337463491
 30
0.0
 11
2775.371656321516
 21
2613.485337463491
 31
0.0
  0
LINE
  5
3D6
330
29F
100
AcDbEntity
  8
_1-0_
  6
Continuous
 62
     4
100
AcDbLine
 10
2762.038322988182
 20
2613.485337463491
 30
0.0
 11
2762.038322988182
 21
2413.485337463491
 31
0.0
  0
LINE
  5
3D7
330
29F
100
AcDbEntity
  8
_1-0_
  6
Continuous
 62
     4
100
AcDbLine
 10
2602.038322988182
 20
2413.485337463491
 30
0.0
 11
2775.371656321516
 21
2413.485337463491
 31
0.0
  0
LINE
  5
3D8
330
29F
100
AcDbEntity
  8
_1-0_
  6
Continuous
 62
     4
100
AcDbLine
 10
2762.038322988182
 20
2613.485337463491
 30
0.0
 11
2771.355808611872
 21
2578.712007717084
 31
0.0
  0
LINE
  5
3D9
330
29F
100
AcDbEntity
  8
_1-0_
  6
Continuous
 62
     4
100
AcDbLine
 10
2762.038322988182
 20
2613.485337463491
 30
0.0
 11
2752.720837364491
 21
2578.712007717084
 31
0.0
  0
LINE
  5
3DA
330
29F
100
AcDbEntity
  8
_1-0_
  6
Continuous
 62
     4
100
AcDbLine
 10
2762.038322988182
 20
2413.485337463491
 30
0.0
 11
2752.720837364491
 21
2448.258667209897
 31
0.0
  0
LINE
  5
3DB
330
29F
100
AcDbEntity
  8
_1-0_
  6
Continuous
 62
     4
100
AcDbLine
 10
2762.038322988182
 20
2413.485337463491
 30
0.0
 11
2771.355808611872
 21
2448.258667209897
 31
0.0
  0
TEXT
  5
3DC
330
29F
100
AcDbEntity
  8
_1-0_
 62
     7
100
AcDbText
 10
2944.461976257726
 20
2085.32305846376
 30
0.0
 40
70.0
  1
B1-650
100
AcDbText
  0
TEXT
  5
3DD
330
29F
100
AcDbEntity
  8
_1-0_
 62
     7
100
AcDbText
 10
2943.942878576788
 20
2738.08927231808
 30
0.0
 40
70.0
  1
B2-150
100
AcDbText
  0
TEXT
  5
3DE
330
29F
100
AcDbEntity
  8
_1-0_
 62
     7
100
AcDbText
 10
2944.802271996571
 20
2964.969135140928
 30
0.0
 40
70.0
  1
CR-600
100
AcDbText
  0
LINE
  5
3DF
330
29F
100
AcDbEntity
  8
_1-0_
  6
Continuous
 62
     7
100
AcDbLine
 10
2928.704989654849
 20
3046.819164890946
 30
0.0
 11
2848.704989654849
 21
3000.152498224279
 31
0.0
  0
LINE
  5
3E0
330
29F
100
AcDbEntity
  8
_1-0_
  6
Continuous
 62
     7
100
AcDbLine
 10
2848.704989654849
 20
3000.152498224279
 30
0.0
 11
2928.704989654849
 21
2953.485831557613
 31
0.0
  0
LINE
  5
3E1
330
29F
100
AcDbEntity
  8
_1-0_
  6
Continuous
 62
     7
100
AcDbLine
 10
2928.704989654849
 20
2953.485831557613
 30
0.0
 11
3195.371656321516
 21
2953.485831557613
 31
0.0
  0
LINE
  5
3E2
330
29F
100
AcDbEntity
  8
_1-0_
  6
Continuous
 62
     7
100
AcDbLine
 10
3195.371656321516
 20
3046.819164890946
 30
0.0
 11
3195.371656321516
 21
2953.485831557613
 31
0.0
  0
LINE
  5
3E3
330
29F
100
AcDbEntity
  8
_1-0_
  6
Continuous
 62
     7
100
AcDbLine
 10
2928.704989654849
 20
3046.819164890946
 30
0.0
 11
3195.371656321516
 21
3046.819164890946
 31
0.0
  0
LINE
  5
3E4
330
29F
100
AcDbEntity
  8
_1-0_
  6
Continuous
 62
     7
100
AcDbLine
 10
2928.704989654849
 20
2820.152089359429
 30
0.0
 11
3195.371656321516
 21
2820.152089359429
 31
0.0
  0
LINE
  5
3E5
330
29F
100
AcDbEntity
  8
_1-0_
  6
Continuous
 62
     7
100
AcDbLine
 10
2928.704989654849
 20
2820.152089359429
 30
0.0
 11
2848.704989654849
 21
2773.485422692763
 31
0.0
  0
LINE
  5
3E6
330
29F
100
AcDbEntity
  8
_1-0_
  6
Continuous
 62
     7
100
AcDbLine
 10
2848.704989654849
 20
2773.485422692763
 30
0.0
 11
2928.704989654849
 21
2726.818756026096
 31
0.0
  0
LINE
  5
3E7
330
29F
100
AcDbEntity
  8
_1-0_
  6
Continuous
 62
     7
100
AcDbLine
 10
2928.704989654849
 20
2726.818756026096
 30
0.0
 11
3195.371656321516
 21
2726.818756026096
 31
0.0
  0
LINE
  5
3E8
330
29F
100
AcDbEntity
  8
_1-0_
  6
Continuous
 62
     7
100
AcDbLine
 10
3195.371656321516
 20
2820.152089359429
 30
0.0
 11
3195.371656321516
 21
2726.818756026096
 31
0.0
  0
LINE
  5
3E9
330
29F
100
AcDbEntity
  8
_1-0_
  6
Continuous
 62
     7
100
AcDbLine
 10
2928.704989654849
 20
2166.8184980799
 30
0.0
 11
3195.371656321516
 21
2166.8184980799
 31
0.0
  0
LINE
  5
3EA
330
29F
100
AcDbEntity
  8
_1-0_
  6
Continuous
 62
     7
100
AcDbLine
 10
2928.704989654849
 20
2166.8184980799
 30
0.0
 11
2848.704989654849
 21
2120.151831413234
 31
0.0
  0
LINE
  5
3EB
330
29F
100
AcDbEntity
  8
_1-0_
  6
Continuous
 62
     7
100
AcDbLine
 10
2848.704989654849
 20
2120.151831413234
 30
0.0
 11
2928.704989654849
 21
2073.485164746567
 31
0.0
  0
LINE
  5
3EC
330
29F
100
AcDbEntity
  8
_1-0_
  6
Continuous
 62
     7
100
AcDbLine
 10
2928.704989654849
 20
2073.485164746567
 30
0.0
 11
3195.371656321516
 21
2073.485164746567
 31
0.0
  0
LINE
  5
3ED
330
29F
100
AcDbEntity
  8
_1-0_
  6
Continuous
 62
     7
100
AcDbLine
 10
3195.371656321516
 20
2166.8184980799
 30
0.0
 11
3195.371656321516
 21
2073.485164746567
 31
0.0
  0
LINE
  5
3EE
330
29F
100
AcDbEntity
  8
_1-0_
  6
Continuous
 62
     4
100
AcDbLine
 10
2582.038322988181
 20
926.8183253629763
 30
0.0
 11
1195.369456561853
 21
926.8183253629763
 31
0.0
  0
LINE
  5
3EF
330
29F
100
AcDbEntity
  8
_1-0_
  6
Continuous
 62
     4
100
AcDbLine
 10
1195.369456561853
 20
1606.818325362976
 30
0.0
 11
1195.369456561853
 21
913.4849920296433
 31
0.0
  0
LINE
  5
3F0
330
29F
100
AcDbEntity
  8
_1-0_
  6
Continuous
 62
     4
100
AcDbLine
 10
2582.038322988181
 20
1606.818325362976
 30
0.0
 11
2582.038322988181
 21
913.4849920296433
 31
0.0
  0
LINE
  5
3F1
330
29F
100
AcDbEntity
  8
_1-0_
  6
Continuous
 62
     4
100
AcDbLine
 10
2022.037914123332
 20
1606.818325362976
 30
0.0
 11
2022.037914123332
 21
1433.484992029643
 31
0.0
  0
LINE
  5
3F2
330
29F
100
AcDbEntity
  8
_1-0_
  6
Continuous
 62
     4
100
AcDbLine
 10
2008.704446072762
 20
1606.818325362976
 30
0.0
 11
2008.704446072762
 21
1433.484992029643
 31
0.0
  0
LINE
  5
3F3
330
29F
100
AcDbEntity
  8
_1-0_
  6
Continuous
 62
     4
100
AcDbLine
 10
1768.703770915531
 20
1606.818325362976
 30
0.0
 11
1768.703770915531
 21
1433.484992029643
 31
0.0
  0
LINE
  5
3F4
330
29F
100
AcDbEntity
  8
_1-0_
  6
Continuous
 62
     4
100
AcDbLine
 10
1755.37135271678
 20
1606.818325362976
 30
0.0
 11
1755.37135271678
 21
1433.484992029643
 31
0.0
  0
LINE
  5
3F5
330
29F
100
AcDbEntity
  8
_1-0_
  6
Continuous
 62
     4
100
AcDbLine
 10
1755.37135271678
 20
1446.818325362976
 30
0.0
 11
1688.704686050114
 21
1446.818325362976
 31
0.0
  0
LINE
  5
3F6
330
29F
100
AcDbEntity
  8
_1-0_
  6
Continuous
 62
     4
100
AcDbLine
 10
2088.704580789999
 20
1446.818325362976
 30
0.0
 11
2022.037914123332
 21
1446.818325362976
 31
0.0
  0
LINE
  5
3F7
330
29F
100
AcDbEntity
  8
_1-0_
  6
Continuous
 62
     4
100
AcDbLine
 10
2008.704446072762
 20
1446.818325362976
 30
0.0
 11
1768.703770915531
 21
1446.818325362976
 31
0.0
  0
LINE
  5
3F8
330
29F
100
AcDbEntity
  8
_1-0_
  6
Continuous
 62
     4
100
AcDbLine
 10
2022.037914123332
 20
1446.818325362976
 30
0.0
 11
2008.704446072762
 21
1446.818325362976
 31
0.0
  0
LINE
  5
3F9
330
29F
100
AcDbEntity
  8
_1-0_
  6
Continuous
 62
     4
100
AcDbLine
 10
1768.703770915531
 20
1446.818325362976
 30
0.0
 11
1755.37135271678
 21
1446.818325362976
 31
0.0
  0
LINE
  5
3FA
330
29F
100
AcDbEntity
  8
_1-0_
  6
Continuous
 62
     4
100
AcDbLine
 10
2288.703775628671
 20
1606.818325362976
 30
0.0
 11
2288.703775628671
 21
1260.15165869631
 31
0.0
  0
LINE
  5
3FB
330
29F
100
AcDbEntity
  8
_1-0_
  6
Continuous
 62
     4
100
AcDbLine
 10
1488.703916433713
 20
1606.818325362976
 30
0.0
 11
1488.703916433713
 21
1260.15165869631
 31
0.0
  0
LINE
  5
3FC
330
29F
100
AcDbEntity
  8
_1-0_
  6
Continuous
 62
     4
100
AcDbLine
 10
2288.703775628671
 20
1273.484992029643
 30
0.0
 11
1488.703916433713
 21
1273.484992029643
 31
0.0
  0
LINE
  5
3FD
330
29F
100
AcDbEntity
  8
_1-0_
  6
Continuous
 62
     4
100
AcDbLine
 10
1288.702789895187
 20
1606.818325362976
 30
0.0
 11
1288.702789895187
 21
1086.818325362977
 31
0.0
  0
LINE
  5
3FE
330
29F
100
AcDbEntity
  8
_1-0_
  6
Continuous
 62
     4
100
AcDbLine
 10
2488.704989654849
 20
1606.818325362976
 30
0.0
 11
2488.704989654849
 21
1086.818325362977
 31
0.0
  0
LINE
  5
3FF
330
29F
100
AcDbEntity
  8
_1-0_
  6
Continuous
 62
     4
100
AcDbLine
 10
2582.038322988181
 20
1100.15165869631
 30
0.0
 11
2488.704989654849
 21
1100.15165869631
 31
0.0
  0
LINE
  5
400
330
29F
100
AcDbEntity
  8
_1-0_
  6
Continuous
 62
     4
100
AcDbLine
 10
1288.702789895187
 20
1100.15165869631
 30
0.0
 11
1195.369456561853
 21
1100.15165869631
 31
0.0
  0
LINE
  5
401
330
29F
100
AcDbEntity
  8
_1-0_
  6
Continuous
 62
     4
100
AcDbLine
 10
2488.704989654849
 20
1100.15165869631
 30
0.0
 11
1288.702789895187
 21
1100.15165869631
 31
0.0
  0
LINE
  5
402
330
29F
100
AcDbEntity
  8
_1-0_
  6
Continuous
 62
     4
100
AcDbLine
 10
1768.703770915531
 20
1446.818325362976
 30
0.0
 11
1803.477100661939
 21
1456.135810986667
 31
0.0
  0
LINE
  5
403
330
29F
100
AcDbEntity
  8
_1-0_
  6
Continuous
 62
     4
100
AcDbLine
 10
1768.703770915531
 20
1446.818325362976
 30
0.0
 11
1803.477100661939
 21
1437.500839739285
 31
0.0
  0
LINE
  5
404
330
29F
100
AcDbEntity
  8
_1-0_
  6
Continuous
 62
     4
100
AcDbLine
 10
2008.704446072762
 20
1446.818325362976
 30
0.0
 11
1973.931116326355
 21
1437.500839739285
 31
0.0
  0
LINE
  5
405
330
29F
100
AcDbEntity
  8
_1-0_
  6
Continuous
 62
     4
100
AcDbLine
 10
2008.704446072762
 20
1446.818325362976
 30
0.0
 11
1973.931116326355
 21
1456.135810986667
 31
0.0
  0
LINE
  5
406
330
29F
100
AcDbEntity
  8
_1-0_
  6
Continuous
 62
     4
100
AcDbLine
 10
2022.037914123332
 20
1446.818325362976
 30
0.0
 11
2056.811243869739
 21
1456.135810986667
 31
0.0
  0
LINE
  5
407
330
29F
100
AcDbEntity
  8
_1-0_
  6
Continuous
 62
     4
100
AcDbLine
 10
2022.037914123332
 20
1446.818325362976
 30
0.0
 11
2056.811243869739
 21
1437.500839739285
 31
0.0
  0
LINE
  5
408
330
29F
100
AcDbEntity
  8
_1-0_
  6
Continuous
 62
     4
100
AcDbLine
 10
1755.37135271678
 20
1446.818325362976
 30
0.0
 11
1720.598022970373
 21
1437.500839739285
 31
0.0
  0
LINE
  5
409
330
29F
100
AcDbEntity
  8
_1-0_
  6
Continuous
 62
     4
100
AcDbLine
 10
1755.37135271678
 20
1446.818325362976
 30
0.0
 11
1720.598022970373
 21
1456.135810986667
 31
0.0
  0
LINE
  5
40A
330
29F
100
AcDbEntity
  8
_1-0_
  6
Continuous
 62
     4
100
AcDbLine
 10
1488.703916433713
 20
1273.484992029643
 30
0.0
 11
1523.47724618012
 21
1282.802477653334
 31
0.0
  0
LINE
  5
40B
330
29F
100
AcDbEntity
  8
_1-0_
  6
Continuous
 62
     4
100
AcDbLine
 10
1488.703916433713
 20
1273.484992029643
 30
0.0
 11
1523.47724618012
 21
1264.167506405952
 31
0.0
  0
LINE
  5
40C
330
29F
100
AcDbEntity
  8
_1-0_
  6
Continuous
 62
     4
100
AcDbLine
 10
2288.703775628671
 20
1273.484992029643
 30
0.0
 11
2253.930445882265
 21
1264.167506405952
 31
0.0
  0
LINE
  5
40D
330
29F
100
AcDbEntity
  8
_1-0_
  6
Continuous
 62
     4
100
AcDbLine
 10
2288.703775628671
 20
1273.484992029643
 30
0.0
 11
2253.930445882265
 21
1282.802477653334
 31
0.0
  0
LINE
  5
40E
330
29F
100
AcDbEntity
  8
_1-0_
  6
Continuous
 62
     4
100
AcDbLine
 10
2488.704989654849
 20
1100.15165869631
 30
0.0
 11
2453.931659908442
 21
1090.834173072619
 31
0.0
  0
LINE
  5
40F
330
29F
100
AcDbEntity
  8
_1-0_
  6
Continuous
 62
     4
100
AcDbLine
 10
2488.704989654849
 20
1100.15165869631
 30
0.0
 11
2453.931659908442
 21
1109.46914432
 31
0.0
  0
LINE
  5
410
330
29F
100
AcDbEntity
  8
_1-0_
  6
Continuous
 62
     4
100
AcDbLine
 10
1288.702789895187
 20
1100.15165869631
 30
0.0
 11
1323.476119641593
 21
1109.46914432
 31
0.0
  0
LINE
  5
411
330
29F
100
AcDbEntity
  8
_1-0_
  6
Continuous
 62
     4
100
AcDbLine
 10
1288.702789895187
 20
1100.15165869631
 30
0.0
 11
1323.476119641593
 21
1090.834173072619
 31
0.0
  0
LINE
  5
412
330
29F
100
AcDbEntity
  8
_1-0_
  6
Continuous
 62
     4
100
AcDbLine
 10
1288.702789895187
 20
1100.15165869631
 30
0.0
 11
1253.929460148781
 21
1090.834173072619
 31
0.0
  0
LINE
  5
413
330
29F
100
AcDbEntity
  8
_1-0_
  6
Continuous
 62
     4
100
AcDbLine
 10
1288.702789895187
 20
1100.15165869631
 30
0.0
 11
1253.929460148781
 21
1109.46914432
 31
0.0
  0
LINE
  5
414
330
29F
100
AcDbEntity
  8
_1-0_
  6
Continuous
 62
     4
100
AcDbLine
 10
1195.369456561853
 20
1100.15165869631
 30
0.0
 11
1230.142786308261
 21
1109.46914432
 31
0.0
  0
LINE
  5
415
330
29F
100
AcDbEntity
  8
_1-0_
  6
Continuous
 62
     4
100
AcDbLine
 10
1195.369456561853
 20
1100.15165869631
 30
0.0
 11
1230.142786308261
 21
1090.834173072619
 31
0.0
  0
LINE
  5
416
330
29F
100
AcDbEntity
  8
_1-0_
  6
Continuous
 62
     4
100
AcDbLine
 10
1195.369456561853
 20
926.8183253629763
 30
0.0
 11
1230.142786308261
 21
936.1358109866671
 31
0.0
  0
LINE
  5
417
330
29F
100
AcDbEntity
  8
_1-0_
  6
Continuous
 62
     4
100
AcDbLine
 10
1195.369456561853
 20
926.8183253629763
 30
0.0
 11
1230.142786308261
 21
917.5008397392856
 31
0.0
  0
LINE
  5
418
330
29F
100
AcDbEntity
  8
_1-0_
  6
Continuous
 62
     4
100
AcDbLine
 10
2582.038322988181
 20
926.8183253629763
 30
0.0
 11
2547.264993241775
 21
917.5008397392856
 31
0.0
  0
LINE
  5
419
330
29F
100
AcDbEntity
  8
_1-0_
  6
Continuous
 62
     4
100
AcDbLine
 10
2582.038322988181
 20
926.8183253629763
 30
0.0
 11
2547.264993241775
 21
936.1358109866671
 31
0.0
  0
LINE
  5
41A
330
29F
100
AcDbEntity
  8
_1-0_
  6
Continuous
 62
     4
100
AcDbLine
 10
2582.038322988181
 20
1100.15165869631
 30
0.0
 11
2547.264993241775
 21
1090.834173072619
 31
0.0
  0
LINE
  5
41B
330
29F
100
AcDbEntity
  8
_1-0_
  6
Continuous
 62
     4
100
AcDbLine
 10
2582.038322988181
 20
1100.15165869631
 30
0.0
 11
2547.264993241775
 21
1109.46914432
 31
0.0
  0
LINE
  5
41C
330
29F
100
AcDbEntity
  8
_1-0_
  6
Continuous
 62
     4
100
AcDbLine
 10
2488.704989654849
 20
1100.15165869631
 30
0.0
 11
2523.478319401255
 21
1109.46914432
 31
0.0
  0
LINE
  5
41D
330
29F
100
AcDbEntity
  8
_1-0_
  6
Continuous
 62
     4
100
AcDbLine
 10
2488.704989654849
 20
1100.15165869631
 30
0.0
 11
2523.478319401255
 21
1090.834173072619
 31
0.0
  0
ARC
  5
41E
330
29F
100
AcDbEntity
  8
_1-0_
  6
Continuous
 62
     7
100
AcDbCircle
 10
1328.704049579903
 20
3053.486370426559
 30
0.0
 40
13.33333408510362
100
AcDbArc
 50
90.0
 51
180.0
  0
LINE
  5
41F
330
29F
100
AcDbEntity
  8
_1-0_
  6
Continuous
 62
     4
100
AcDbLine
 10
2468.701569879395
 20
3420.152821859858
 30
0.0
 11
1308.704022479351
 21
3420.152821859858
 31
0.0
  0
LINE
  5
420
330
29F
100
AcDbEntity
  8
_1-0_
  6
Continuous
 62
     4
100
AcDbLine
 10
1308.704022479351
 20
3086.819488526524
 30
0.0
 11
1308.704022479351
 21
3433.486155193191
 31
0.0
  0
LINE
  5
421
330
29F
100
AcDbEntity
  8
_1-0_
  6
Continuous
 62
     4
100
AcDbLine
 10
2468.701569879395
 20
3086.819488526524
 30
0.0
 11
2468.701569879395
 21
3433.486155193191
 31
0.0
  0
LINE
  5
422
330
29F
100
AcDbEntity
  8
_1-0_
  6
Continuous
 62
     4
100
AcDbLine
 10
1488.704022479351
 20
3086.819488526524
 30
0.0
 11
1488.704022479351
 21
3260.152821859858
 31
0.0
  0
LINE
  5
423
330
29F
100
AcDbEntity
  8
_1-0_
  6
Continuous
 62
     4
100
AcDbLine
 10
2288.701569879395
 20
3086.819488526524
 30
0.0
 11
2288.701569879395
 21
3260.152821859858
 31
0.0
  0
LINE
  5
424
330
29F
100
AcDbEntity
  8
_1-0_
  6
Continuous
 62
     4
100
AcDbLine
 10
2468.701569879395
 20
3246.819488526524
 30
0.0
 11
2288.701569879395
 21
3246.819488526524
 31
0.0
  0
LINE
  5
425
330
29F
100
AcDbEntity
  8
_1-0_
  6
Continuous
 62
     4
100
AcDbLine
 10
1488.704022479351
 20
3246.819488526524
 30
0.0
 11
1308.704022479351
 21
3246.819488526524
 31
0.0
  0
LINE
  5
426
330
29F
100
AcDbEntity
  8
_1-0_
  6
Continuous
 62
     4
100
AcDbLine
 10
2288.701569879395
 20
3246.819488526524
 30
0.0
 11
1488.704022479351
 21
3246.819488526524
 31
0.0
  0
LINE
  5
427
330
29F
100
AcDbEntity
  8
_1-0_
  6
Continuous
 62
     4
100
AcDbLine
 10
2468.701569879395
 20
3420.152821859858
 30
0.0
 11
2433.928240132989
 21
3410.835336236166
 31
0.0
  0
LINE
  5
428
330
29F
100
AcDbEntity
  8
_1-0_
  6
Continuous
 62
     4
100
AcDbLine
 10
2468.701569879395
 20
3420.152821859858
 30
0.0
 11
2433.928240132989
 21
3429.470307483548
 31
0.0
  0
LINE
  5
429
330
29F
100
AcDbEntity
  8
_1-0_
  6
Continuous
 62
     4
100
AcDbLine
 10
1308.704022479351
 20
3420.152821859858
 30
0.0
 11
1343.477352225757
 21
3429.470307483548
 31
0.0
  0
LINE
  5
42A
330
29F
100
AcDbEntity
  8
_1-0_
  6
Continuous
 62
     4
100
AcDbLine
 10
1308.704022479351
 20
3420.152821859858
 30
0.0
 11
1343.477352225757
 21
3410.835336236166
 31
0.0
  0
LINE
  5
42B
330
29F
100
AcDbEntity
  8
_1-0_
  6
Continuous
 62
     4
100
AcDbLine
 10
1308.704022479351
 20
3246.819488526524
 30
0.0
 11
1343.477352225757
 21
3256.136974150215
 31
0.0
  0
LINE
  5
42C
330
29F
100
AcDbEntity
  8
_1-0_
  6
Continuous
 62
     4
100
AcDbLine
 10
1308.704022479351
 20
3246.819488526524
 30
0.0
 11
1343.477352225757
 21
3237.502002902834
 31
0.0
  0
LINE
  5
42D
330
29F
100
AcDbEntity
  8
_1-0_
  6
Continuous
 62
     4
100
AcDbLine
 10
1488.704022479351
 20
3246.819488526524
 30
0.0
 11
1453.930692732944
 21
3237.502002902834
 31
0.0
  0
LINE
  5
42E
330
29F
100
AcDbEntity
  8
_1-0_
  6
Continuous
 62
     4
100
AcDbLine
 10
1488.704022479351
 20
3246.819488526524
 30
0.0
 11
1453.930692732944
 21
3256.136974150215
 31
0.0
  0
LINE
  5
42F
330
29F
100
AcDbEntity
  8
_1-0_
  6
Continuous
 62
     4
100
AcDbLine
 10
1488.704022479351
 20
3246.819488526524
 30
0.0
 11
1523.477352225757
 21
3256.136974150215
 31
0.0
  0
LINE
  5
430
330
29F
100
AcDbEntity
  8
_1-0_
  6
Continuous
 62
     4
100
AcDbLine
 10
1488.704022479351
 20
3246.819488526524
 30
0.0
 11
1523.477352225757
 21
3237.502002902834
 31
0.0
  0
LINE
  5
431
330
29F
100
AcDbEntity
  8
_1-0_
  6
Continuous
 62
     4
100
AcDbLine
 10
2288.701569879395
 20
3246.819488526524
 30
0.0
 11
2253.928240132989
 21
3237.502002902834
 31
0.0
  0
LINE
  5
432
330
29F
100
AcDbEntity
  8
_1-0_
  6
Continuous
 62
     4
100
AcDbLine
 10
2288.701569879395
 20
3246.819488526524
 30
0.0
 11
2253.928240132989
 21
3256.136974150215
 31
0.0
  0
LINE
  5
433
330
29F
100
AcDbEntity
  8
_1-0_
  6
Continuous
 62
     4
100
AcDbLine
 10
2288.701569879395
 20
3246.819488526524
 30
0.0
 11
2323.474899625801
 21
3256.136974150215
 31
0.0
  0
LINE
  5
434
330
29F
100
AcDbEntity
  8
_1-0_
  6
Continuous
 62
     4
100
AcDbLine
 10
2288.701569879395
 20
3246.819488526524
 30
0.0
 11
2323.474899625801
 21
3237.502002902834
 31
0.0
  0
LINE
  5
435
330
29F
100
AcDbEntity
  8
_1-0_
  6
Continuous
 62
     4
100
AcDbLine
 10
2468.701569879395
 20
3246.819488526524
 30
0.0
 11
2433.928240132989
 21
3237.502002902834
 31
0.0
  0
LINE
  5
436
330
29F
100
AcDbEntity
  8
_1-0_
  6
Continuous
 62
     4
100
AcDbLine
 10
2468.701569879395
 20
3246.819488526524
 30
0.0
 11
2433.928240132989
 21
3256.136974150215
 31
0.0
  0
LINE
  5
437
330
29F
100
AcDbEntity
  8
_1-0_
  6
Continuous
 62
     4
100
AcDbLine
 10
495.3694565618533
 20
3066.819704511663
 30
0.0
 11
495.3694565618533
 21
1626.818325362976
 31
0.0
  0
LINE
  5
438
330
29F
100
AcDbEntity
  8
_1-0_
  6
Continuous
 62
     4
100
AcDbLine
 10
1175.369456561853
 20
1626.818325362976
 30
0.0
 11
482.03612322852
 21
1626.818325362976
 31
0.0
  0
LINE
  5
439
330
29F
100
AcDbEntity
  8
_1-0_
  6
Continuous
 62
     4
100
AcDbLine
 10
1288.704022479351
 20
3066.819704511663
 30
0.0
 11
482.03612322852
 21
3066.819704511663
 31
0.0
  0
LINE
  5
43A
330
29F
100
AcDbEntity
  8
_1-0_
  6
Continuous
 62
     4
100
AcDbLine
 10
1175.369456561853
 20
2933.48637117833
 30
0.0
 11
655.3694565618534
 21
2933.48637117833
 31
0.0
  0
LINE
  5
43B
330
29F
100
AcDbEntity
  8
_1-0_
  6
Continuous
 62
     4
100
AcDbLine
 10
1175.369456561853
 20
2813.48637117833
 30
0.0
 11
655.3694565618534
 21
2813.48637117833
 31
0.0
  0
LINE
  5
43C
330
29F
100
AcDbEntity
  8
_1-0_
  6
Continuous
 62
     4
100
AcDbLine
 10
1175.369456561853
 20
2613.485337463491
 30
0.0
 11
828.7027898951869
 21
2613.485337463491
 31
0.0
  0
LINE
  5
43D
330
29F
100
AcDbEntity
  8
_1-0_
  6
Continuous
 62
     4
100
AcDbLine
 10
1175.369456561853
 20
2226.818963404233
 30
0.0
 11
1002.03612322852
 21
2226.818963404233
 31
0.0
  0
LINE
  5
43E
330
29F
100
AcDbEntity
  8
_1-0_
  6
Continuous
 62
     4
100
AcDbLine
 10
1175.369456561853
 20
1826.818963404233
 30
0.0
 11
1002.03612322852
 21
1826.818963404233
 31
0.0
  0
LINE
  5
43F
330
29F
100
AcDbEntity
  8
_1-0_
  6
Continuous
 62
     4
100
AcDbLine
 10
1175.369456561853
 20
1746.818325362976
 30
0.0
 11
655.3694565618534
 21
1746.818325362976
 31
0.0
  0
LINE
  5
440
330
29F
100
AcDbEntity
  8
_1-0_
  6
Continuous
 62
     4
100
AcDbLine
 10
668.7027898951868
 20
1746.818325362976
 30
0.0
 11
668.7027898951868
 21
1626.818325362976
 31
0.0
  0
LINE
  5
441
330
29F
100
AcDbEntity
  8
_1-0_
  6
Continuous
 62
     4
100
AcDbLine
 10
668.7027898951868
 20
2813.48637117833
 30
0.0
 11
668.7027898951868
 21
1746.818325362976
 31
0.0
  0
LINE
  5
442
330
29F
100
AcDbEntity
  8
_1-0_
  6
Continuous
 62
     4
100
AcDbLine
 10
668.7027898951868
 20
3066.819704511663
 30
0.0
 11
668.7027898951868
 21
2933.48637117833
 31
0.0
  0
LINE
  5
443
330
29F
100
AcDbEntity
  8
_1-0_
  6
Continuous
 62
     4
100
AcDbLine
 10
668.7027898951868
 20
2933.48637117833
 30
0.0
 11
668.7027898951868
 21
2813.48637117833
 31
0.0
  0
LINE
  5
444
330
29F
100
AcDbEntity
  8
_1-0_
  6
Continuous
 62
     4
100
AcDbLine
 10
842.0361232285204
 20
2613.485337463491
 30
0.0
 11
842.0361232285204
 21
1746.818325362976
 31
0.0
  0
LINE
  5
445
330
29F
100
AcDbEntity
  8
_1-0_
  6
Continuous
 62
     4
100
AcDbLine
 10
842.0361232285204
 20
2613.485337463491
 30
0.0
 11
842.0361232285204
 21
2813.48637117833
 31
0.0
  0
LINE
  5
446
330
29F
100
AcDbEntity
  8
_1-0_
  6
Continuous
 62
     4
100
AcDbLine
 10
1015.369456561853
 20
2226.818963404233
 30
0.0
 11
1015.369456561853
 21
1826.818963404233
 31
0.0
  0
LINE
  5
447
330
29F
100
AcDbEntity
  8
_1-0_
  6
Continuous
 62
     4
100
AcDbLine
 10
1015.369456561853
 20
2613.485337463491
 30
0.0
 11
1015.369456561853
 21
2226.818963404233
 31
0.0
  0
LINE
  5
448
330
29F
100
AcDbEntity
  8
_1-0_
  6
Continuous
 62
     4
100
AcDbLine
 10
668.7027898951868
 20
3066.819704511663
 30
0.0
 11
678.0202755188776
 21
3032.046374765257
 31
0.0
  0
LINE
  5
449
330
29F
100
AcDbEntity
  8
_1-0_
  6
Continuous
 62
     4
100
AcDbLine
 10
668.7027898951868
 20
3066.819704511663
 30
0.0
 11
659.385304271496
 21
3032.046374765257
 31
0.0
  0
LINE
  5
44A
330
29F
100
AcDbEntity
  8
_1-0_
  6
Continuous
 62
     4
100
AcDbLine
 10
668.7027898951868
 20
2933.48637117833
 30
0.0
 11
659.385304271496
 21
2968.259700924737
 31
0.0
  0
LINE
  5
44B
330
29F
100
AcDbEntity
  8
_1-0_
  6
Continuous
 62
     4
100
AcDbLine
 10
668.7027898951868
 20
2933.48637117833
 30
0.0
 11
678.0202755188776
 21
2968.259700924737
 31
0.0
  0
LINE
  5
44C
330
29F
100
AcDbEntity
  8
_1-0_
  6
Continuous
 62
     4
100
AcDbLine
 10
668.7027898951868
 20
2933.48637117833
 30
0.0
 11
678.0202755188776
 21
2898.713041431924
 31
0.0
  0
LINE
  5
44D
330
29F
100
AcDbEntity
  8
_1-0_
  6
Continuous
 62
     4
100
AcDbLine
 10
668.7027898951868
 20
2933.48637117833
 30
0.0
 11
659.385304271496
 21
2898.713041431924
 31
0.0
  0
LINE
  5
44E
330
29F
100
AcDbEntity
  8
_1-0_
  6
Continuous
 62
     4
100
AcDbLine
 10
668.7027898951868
 20
2813.48637117833
 30
0.0
 11
659.385304271496
 21
2848.259700924737
 31
0.0
  0
LINE
  5
44F
330
29F
100
AcDbEntity
  8
_1-0_
  6
Continuous
 62
     4
100
AcDbLine
 10
668.7027898951868
 20
2813.48637117833
 30
0.0
 11
678.0202755188776
 21
2848.259700924737
 31
0.0
  0
LINE
  5
450
330
29F
100
AcDbEntity
  8
_1-0_
  6
Continuous
 62
     4
100
AcDbLine
 10
495.3694565618533
 20
3066.819704511663
 30
0.0
 11
504.6869421855442
 21
3032.046374765257
 31
0.0
  0
LINE
  5
451
330
29F
100
AcDbEntity
  8
_1-0_
  6
Continuous
 62
     4
100
AcDbLine
 10
495.3694565618533
 20
3066.819704511663
 30
0.0
 11
486.0519709381625
 21
3032.046374765257
 31
0.0
  0
LINE
  5
452
330
29F
100
AcDbEntity
  8
_1-0_
  6
Continuous
 62
     4
100
AcDbLine
 10
842.0361232285204
 20
2813.48637117833
 30
0.0
 11
851.3536088522108
 21
2778.713041431924
 31
0.0
  0
LINE
  5
453
330
29F
100
AcDbEntity
  8
_1-0_
  6
Continuous
 62
     4
100
AcDbLine
 10
842.0361232285204
 20
2813.48637117833
 30
0.0
 11
832.7186376048295
 21
2778.713041431924
 31
0.0
  0
LINE
  5
454
330
29F
100
AcDbEntity
  8
_1-0_
  6
Continuous
 62
     4
100
AcDbLine
 10
842.0361232285204
 20
2613.485337463491
 30
0.0
 11
832.7186376048295
 21
2648.258667209897
 31
0.0
  0
LINE
  5
455
330
29F
100
AcDbEntity
  8
_1-0_
  6
Continuous
 62
     4
100
AcDbLine
 10
842.0361232285204
 20
2613.485337463491
 30
0.0
 11
851.3536088522108
 21
2648.258667209897
 31
0.0
  0
LINE
  5
456
330
29F
100
AcDbEntity
  8
_1-0_
  6
Continuous
 62
     4
100
AcDbLine
 10
842.0361232285204
 20
2613.485337463491
 30
0.0
 11
851.3536088522108
 21
2578.712007717084
 31
0.0
  0
LINE
  5
457
330
29F
100
AcDbEntity
  8
_1-0_
  6
Continuous
 62
     4
100
AcDbLine
 10
842.0361232285204
 20
2613.485337463491
 30
0.0
 11
832.7186376048295
 21
2578.712007717084
 31
0.0
  0
LINE
  5
458
330
29F
100
AcDbEntity
  8
_1-0_
  6
Continuous
 62
     4
100
AcDbLine
 10
1015.369456561853
 20
2613.485337463491
 30
0.0
 11
1024.686942185544
 21
2578.712007717084
 31
0.0
  0
LINE
  5
459
330
29F
100
AcDbEntity
  8
_1-0_
  6
Continuous
 62
     4
100
AcDbLine
 10
1015.369456561853
 20
2613.485337463491
 30
0.0
 11
1006.051970938163
 21
2578.712007717084
 31
0.0
  0
LINE
  5
45A
330
29F
100
AcDbEntity
  8
_1-0_
  6
Continuous
 62
     4
100
AcDbLine
 10
1015.369456561853
 20
2226.818963404233
 30
0.0
 11
1006.051970938163
 21
2261.59229315064
 31
0.0
  0
LINE
  5
45B
330
29F
100
AcDbEntity
  8
_1-0_
  6
Continuous
 62
     4
100
AcDbLine
 10
1015.369456561853
 20
2226.818963404233
 30
0.0
 11
1024.686942185544
 21
2261.59229315064
 31
0.0
  0
LINE
  5
45C
330
29F
100
AcDbEntity
  8
_1-0_
  6
Continuous
 62
     4
100
AcDbLine
 10
1015.369456561853
 20
2226.818963404233
 30
0.0
 11
1024.686942185544
 21
2192.045633657827
 31
0.0
  0
LINE
  5
45D
330
29F
100
AcDbEntity
  8
_1-0_
  6
Continuous
 62
     4
100
AcDbLine
 10
1015.369456561853
 20
2226.818963404233
 30
0.0
 11
1006.051970938163
 21
2192.045633657827
 31
0.0
  0
LINE
  5
45E
330
29F
100
AcDbEntity
  8
_1-0_
  6
Continuous
 62
     4
100
AcDbLine
 10
1015.369456561853
 20
1826.818963404233
 30
0.0
 11
1006.051970938163
 21
1861.592293150639
 31
0.0
  0
LINE
  5
45F
330
29F
100
AcDbEntity
  8
_1-0_
  6
Continuous
 62
     4
100
AcDbLine
 10
1015.369456561853
 20
1826.818963404233
 30
0.0
 11
1024.686942185544
 21
1861.592293150639
 31
0.0
  0
LINE
  5
460
330
29F
100
AcDbEntity
  8
_1-0_
  6
Continuous
 62
     4
100
AcDbLine
 10
842.0361232285204
 20
1746.818325362976
 30
0.0
 11
832.7186376048295
 21
1781.591655109383
 31
0.0
  0
LINE
  5
461
330
29F
100
AcDbEntity
  8
_1-0_
  6
Continuous
 62
     4
100
AcDbLine
 10
842.0361232285204
 20
1746.818325362976
 30
0.0
 11
851.3536088522108
 21
1781.591655109383
 31
0.0
  0
LINE
  5
462
330
29F
100
AcDbEntity
  8
_1-0_
  6
Continuous
 62
     4
100
AcDbLine
 10
668.7027898951868
 20
1746.818325362976
 30
0.0
 11
659.385304271496
 21
1781.591655109383
 31
0.0
  0
LINE
  5
463
330
29F
100
AcDbEntity
  8
_1-0_
  6
Continuous
 62
     4
100
AcDbLine
 10
668.7027898951868
 20
1746.818325362976
 30
0.0
 11
678.0202755188776
 21
1781.591655109383
 31
0.0
  0
LINE
  5
464
330
29F
100
AcDbEntity
  8
_1-0_
  6
Continuous
 62
     4
100
AcDbLine
 10
668.7027898951868
 20
2813.48637117833
 30
0.0
 11
678.0202755188776
 21
2778.713041431924
 31
0.0
  0
LINE
  5
465
330
29F
100
AcDbEntity
  8
_1-0_
  6
Continuous
 62
     4
100
AcDbLine
 10
668.7027898951868
 20
2813.48637117833
 30
0.0
 11
659.385304271496
 21
2778.713041431924
 31
0.0
  0
LINE
  5
466
330
29F
100
AcDbEntity
  8
_1-0_
  6
Continuous
 62
     4
100
AcDbLine
 10
668.7027898951868
 20
1626.818325362976
 30
0.0
 11
659.385304271496
 21
1661.591655109382
 31
0.0
  0
LINE
  5
467
330
29F
100
AcDbEntity
  8
_1-0_
  6
Continuous
 62
     4
100
AcDbLine
 10
668.7027898951868
 20
1626.818325362976
 30
0.0
 11
678.0202755188776
 21
1661.591655109382
 31
0.0
  0
LINE
  5
468
330
29F
100
AcDbEntity
  8
_1-0_
  6
Continuous
 62
     4
100
AcDbLine
 10
668.7027898951868
 20
1746.818325362976
 30
0.0
 11
678.0202755188776
 21
1712.04499561657
 31
0.0
  0
LINE
  5
469
330
29F
100
AcDbEntity
  8
_1-0_
  6
Continuous
 62
     4
100
AcDbLine
 10
668.7027898951868
 20
1746.818325362976
 30
0.0
 11
659.385304271496
 21
1712.04499561657
 31
0.0
  0
LINE
  5
46A
330
29F
100
AcDbEntity
  8
_1-0_
  6
Continuous
 62
     4
100
AcDbLine
 10
495.3694565618533
 20
1626.818325362976
 30
0.0
 11
486.0519709381625
 21
1661.591655109382
 31
0.0
  0
LINE
  5
46B
330
29F
100
AcDbEntity
  8
_1-0_
  6
Continuous
 62
     4
100
AcDbLine
 10
495.3694565618533
 20
1626.818325362976
 30
0.0
 11
504.6869421855442
 21
1661.591655109382
 31
0.0
  0
TEXT
  5
46C
330
29F
100
AcDbEntity
  8
_1-0_
 62
     7
100
AcDbText
 10
3565.44584717608
 20
2785.378212161014
 30
0.0
 40
60.0
  1
70
 50
90.0
100
AcDbText
  0
TEXT
  5
46D
330
29F
100
AcDbEntity
  8
_1-0_
 62
     7
100
AcDbText
 10
3735.150065921796
 20
2701.917120974596
 30
0.0
 40
60.0
  1
50
 50
90.0
100
AcDbText
  0
TEXT
  5
46E
330
29F
100
AcDbEntity
  8
_1-0_
 62
     7
100
AcDbText
 10
3740.714138667558
 20
2255.400283127261
 30
0.0
 40
60.0
  1
200
 50
90.0
100
AcDbText
  0
TEXT
  5
46F
330
29F
100
AcDbEntity
  8
_1-0_
 62
     7
100
AcDbText
 10
3740.679348408531
 20
1986.794019933554
 30
0.0
 40
60.0
  1
200
 50
90.0
100
AcDbText
  0
TEXT
  5
470
330
29F
100
AcDbEntity
  8
_1-0_
 62
     7
100
AcDbText
 10
3565.203943843104
 20
2122.228057014253
 30
0.0
 40
60.0
  1
900
 50
90.0
100
AcDbText
  0
TEXT
  5
471
330
29F
100
AcDbEntity
  8
_1-0_
 62
     7
100
AcDbText
 10
3394.439288393527
 20
2103.385060550852
 30
0.0
 40
60.0
  1
1040
 50
90.0
100
AcDbText
  0
TEXT
  5
472
330
29F
100
AcDbEntity
  8
_1-0_
 62
     7
100
AcDbText
 10
3735.332011574323
 20
1577.340799485586
 30
0.0
 40
60.0
  1
50
 50
90.0
100
AcDbText
  0
TEXT
  5
473
330
29F
100
AcDbEntity
  8
_1-0_
 62
     7
100
AcDbText
 10
3564.121744721895
 20
1492.260850927017
 30
0.0
 40
60.0
  1
70
 50
90.0
100
AcDbText
  0
TEXT
  5
474
330
29F
100
AcDbEntity
  8
_1-0_
 62
     7
100
AcDbText
 10
2751.422034079949
 20
2463.661879755653
 30
0.0
 40
60.0
  1
150
 50
90.0
100
AcDbText
  0
TEXT
  5
475
330
29F
100
AcDbEntity
  8
_1-0_
 62
     7
100
AcDbText
 10
1803.590992588503
 20
3431.887781647519
 30
0.0
 40
60.0
  1
φ870
100
AcDbText
  0
TEXT
  5
476
330
29F
100
AcDbEntity
  8
_1-0_
 62
     7
100
AcDbText
 10
1803.590992588503
 20
3257.241261228737
 30
0.0
 40
60.0
  1
φ600
100
AcDbText
  0
TEXT
  5
477
330
29F
100
AcDbEntity
  8
_1-0_
 62
     7
100
AcDbText
 10
2330.889140775977
 20
3258.920554694302
 30
0.0
 40
60.0
  1
135
100
AcDbText
  0
TEXT
  5
478
330
29F
100
AcDbEntity
  8
_1-0_
 62
     7
100
AcDbText
 10
1348.502463420332
 20
3258.920554694302
 30
0.0
 40
60.0
  1
135
100
AcDbText
  0
TEXT
  5
479
330
29F
100
AcDbEntity
  8
_1-0_
 62
     7
100
AcDbText
 10
1802.684331797235
 20
1462.202690649621
 30
0.0
 40
60.0
  1
φ180
100
AcDbText
  0
TEXT
  5
47A
330
29F
100
AcDbEntity
  8
_1-0_
 62
     7
100
AcDbText
 10
2031.273227292999
 20
1460.105544819384
 30
0.0
 40
60.0
  1
10
100
AcDbText
  0
TEXT
  5
47B
330
29F
100
AcDbEntity
  8
_1-0_
 62
     7
100
AcDbText
 10
1681.049873643526
 20
1460.105544819384
 30
0.0
 40
60.0
  1
10
100
AcDbText
  0
TEXT
  5
47C
330
29F
100
AcDbEntity
  8
_1-0_
 62
     7
100
AcDbText
 10
1840.432956741489
 20
1286.042440909766
 30
0.0
 40
60.0
  1
600
100
AcDbText
  0
TEXT
  5
47D
330
29F
100
AcDbEntity
  8
_1-0_
 62
     7
100
AcDbText
 10
1840.432956741489
 20
1111.979337000148
 30
0.0
 40
60.0
  1
900
100
AcDbText
  0
TEXT
  5
47E
330
29F
100
AcDbEntity
  8
_1-0_
 62
     7
100
AcDbText
 10
1821.558644269362
 20
940.013378920767
 30
0.0
 40
60.0
  1
1040
100
AcDbText
  0
TEXT
  5
47F
330
29F
100
AcDbEntity
  8
_1-0_
 62
     7
100
AcDbText
 10
1209.192061840345
 20
1114.076482830385
 30
0.0
 40
60.0
  1
70
100
AcDbText
  0
TEXT
  5
480
330
29F
100
AcDbEntity
  8
_1-0_
 62
     7
100
AcDbText
 10
2503.13103909618
 20
1114.076482830385
 30
0.0
 40
60.0
  1
70
100
AcDbText
  0
TEXT
  5
481
330
29F
100
AcDbEntity
  8
_1-0_
 62
     7
100
AcDbText
 10
657.1757582252707
 20
2949.441967634766
 30
0.0
 40
60.0
  1
100
 50
90.0
100
AcDbText
  0
TEXT
  5
482
330
29F
100
AcDbEntity
  8
_1-0_
 62
     7
100
AcDbText
 10
657.1757582252707
 20
2841.126567356125
 30
0.0
 40
60.0
  1
90
 50
90.0
100
AcDbText
  0
TEXT
  5
483
330
29F
100
AcDbEntity
  8
_1-0_
 62
     7
100
AcDbText
 10
830.8050584074589
 20
2661.369296144635
 30
0.0
 40
60.0
  1
150
 50
90.0
100
AcDbText
  0
TEXT
  5
484
330
29F
100
AcDbEntity
  8
_1-0_
 62
     7
100
AcDbText
 10
1002.545815025185
 20
2370.550316150467
 30
0.0
 40
60.0
  1
290
 50
90.0
100
AcDbText
  0
TEXT
  5
485
330
29F
100
AcDbEntity
  8
_1-0_
 62
     7
100
AcDbText
 10
1004.08423534455
 20
1975.176294073518
 30
0.0
 40
60.0
  1
300
 50
90.0
100
AcDbText
  0
TEXT
  5
486
330
29F
100
AcDbEntity
  8
_1-0_
 62
     7
100
AcDbText
 10
830.2427392562425
 20
2130.55674632944
 30
0.0
 40
60.0
  1
650
 50
90.0
100
AcDbText
  0
TEXT
  5
487
330
29F
100
AcDbEntity
  8
_1-0_
 62
     7
100
AcDbText
 10
657.9396634873003
 20
2230.554067088201
 30
0.0
 40
60.0
  1
800
 50
90.0
100
AcDbText
  0
TEXT
  5
488
330
29F
100
AcDbEntity
  8
_1-0_
 62
     7
100
AcDbText
 10
658.0988104168901
 20
1655.227306826707
 30
0.0
 40
60.0
  1
90
 50
90.0
100
AcDbText
  0
TEXT
  5
489
330
29F
100
AcDbEntity
  8
_1-0_
 62
     7
100
AcDbText
 10
484.7347551173507
 20
2277.513021112421
 30
0.0
 40
60.0
  1
1080
 50
90.0
100
AcDbText
  0
LINE
  5
48A
330
29F
100
AcDbEntity
  8
_1-0_
  6
Continuous
 62
     4
100
AcDbLine
 10
4346.329079281854
 20
1543.46233386816
 30
0.0
 11
4105.598071513551
 21
1299.120360983332
 31
0.0
  0
LINE
  5
48B
330
29F
100
AcDbEntity
  8
_1-0_
  6
Continuous
 62
     4
100
AcDbLine
 10
4346.329079281854
 20
1543.46233386816
 30
0.0
 11
4328.561657784052
 21
1512.152291815818
 31
0.0
  0
LINE
  5
48C
330
29F
100
AcDbEntity
  8
_1-0_
  6
Continuous
 62
     4
100
AcDbLine
 10
4346.329079281854
 20
1543.46233386816
 30
0.0
 11
4315.28701987884
 21
1525.230752806174
 31
0.0
  0
TEXT
  5
48D
330
29F
100
AcDbEntity
  8
_1-0_
 62
     7
100
AcDbText
 10
3604.621408396866
 20
1307.321375480473
 30
0.0
 40
60.0
  1
インサート M12
100
AcDbText
  0
LINE
  5
48E
330
29F
100
AcDbEntity
  8
_1-0_
  6
Continuous
 62
     4
100
AcDbLine
 10
4105.598071513551
 20
1299.120360983332
 30
0.0
 11
3570.359239949882
 21
1299.120360983332
 31
0.0
  0
LINE
  5
48F
330
29F
100
AcDbEntity
  8
_1-0_
  6
Continuous
 62
     4
100
AcDbLine
 10
1627.480603250524
 20
2404.312076689107
 30
0.0
 11
1655.011117803774
 21
2381.115724207881
 31
0.0
  0
LINE
  5
490
330
29F
100
AcDbEntity
  8
_1-0_
  6
Continuous
 62
     4
100
AcDbLine
 10
1627.480603250524
 20
2404.312076689107
 30
0.0
 11
1639.724551992283
 21
2370.458188888601
 31
0.0
  0
LINE
  5
491
330
29F
100
AcDbEntity
  8
_1-0_
  6
Continuous
 62
     4
100
AcDbLine
 10
1627.480603250524
 20
2404.312076689107
 30
0.0
 11
1716.369673556427
 21
2276.814622310944
 31
0.0
  0
TEXT
  5
492
330
29F
100
AcDbEntity
  8
_1-0_
 62
     7
100
AcDbText
 10
1732.619162649451
 20
2281.989610100023
 30
0.0
 40
60.0
  1
インサート M12
100
AcDbText
  0
LINE
  5
493
330
29F
100
AcDbEntity
  8
_1-0_
  6
Continuous
 62
     4
100
AcDbLine
 10
1716.369673556427
 20
2276.814622310944
 30
0.0
 11
2238.545493639704
 21
2276.814622310944
 31
0.0
  0
ENDBLK
  5
495
330
29F
100
AcDbEntity
  8
0
100
AcDbBlockEnd
  0
ENDSEC
  0
SECTION
  2
ENTITIES
  0
LINE
  5
4C
330
20
100
AcDbEntity
  8
_0-0_
  6
Continuous
 62
     7
100
AcDbLine
 10
5727.857142857143
 20
242.2591440716368
 30
0.0
 11
212.1428571428572
 21
242.2591440716368
 31
0.0
  0
LINE
  5
4D
330
20
100
AcDbEntity
  8
_0-0_
  6
Continuous
 62
     7
100
AcDbLine
 10
4627.857142857143
 20
842.2591440716368
 30
0.0
 11
4627.857142857143
 21
242.2591440716368
 31
0.0
  0
LINE
  5
4E
330
20
100
AcDbEntity
  8
_0-0_
  6
Continuous
 62
     7
100
AcDbLine
 10
3727.857142857143
 20
842.2591440716368
 30
0.0
 11
3727.857142857143
 21
242.2591440716368
 31
0.0
  0
LINE
  5
4F
330
20
100
AcDbEntity
  8
_0-0_
  6
Continuous
 62
     7
100
AcDbLine
 10
3427.857142857143
 20
842.2591440716368
 30
0.0
 11
3427.857142857143
 21
242.2591440716368
 31
0.0
  0
LINE
  5
50
330
20
100
AcDbEntity
  8
_0-0_
  6
Continuous
 62
     7
100
AcDbLine
 10
4927.857142857143
 20
842.2591440716368
 30
0.0
 11
4927.857142857143
 21
342.2591440716368
 31
0.0
  0
LINE
  5
51
330
20
100
AcDbEntity
  8
_0-0_
  6
Continuous
 62
     7
100
AcDbLine
 10
5727.857142857143
 20
342.2591440716368
 30
0.0
 11
3427.857142857143
 21
342.2591440716368
 31
0.0
  0
LINE
  5
52
330
20
100
AcDbEntity
  8
_0-0_
  6
Continuous
 62
     7
100
AcDbLine
 10
5727.857142857143
 20
442.2591440716368
 30
0.0
 11
3427.857142857143
 21
442.2591440716368
 31
0.0
  0
LINE
  5
53
330
20
100
AcDbEntity
  8
_0-0_
  6
Continuous
 62
     7
100
AcDbLine
 10
5727.857142857143
 20
542.2591440716368
 30
0.0
 11
3427.857142857143
 21
542.2591440716368
 31
0.0
  0
LINE
  5
54
330
20
100
AcDbEntity
  8
_0-0_
  6
Continuous
 62
     7
100
AcDbLine
 10
5727.857142857143
 20
642.2591440716368
 30
0.0
 11
3427.857142857143
 21
642.2591440716368
 31
0.0
  0
LINE
  5
55
330
20
100
AcDbEntity
  8
_0-0_
  6
Continuous
 62
     7
100
AcDbLine
 10
5727.857142857143
 20
742.2591440716368
 30
0.0
 11
3427.857142857143
 21
742.2591440716368
 31
0.0
  0
LINE
  5
56
330
20
100
AcDbEntity
  8
_0-0_
  6
Continuous
 62
     7
100
AcDbLine
 10
5727.857142857143
 20
842.2591440716368
 30
0.0
 11
3427.857142857143
 21
842.2591440716368
 31
0.0
  0
LINE
  5
57
330
20
100
AcDbEntity
  8
_0-0_
  6
Continuous
 62
     7
100
AcDbLine
 10
4027.857142857143
 20
342.2591440716368
 30
0.0
 11
4027.857142857143
 21
242.2591440716368
 31
0.0
  0
LINE
  5
58
330
20
100
AcDbEntity
  8
_0-0_
  6
Continuous
 62
     7
100
AcDbLine
 10
4327.857142857143
 20
342.2591440716368
 30
0.0
 11
4327.857142857143
 21
242.2591440716368
 31
0.0
  0
LINE
  5
59
330
20
100
AcDbEntity
  8
_0-0_
  6
Continuous
 62
     7
100
AcDbLine
 10
212.1428571428572
 20
242.2591440716368
 30
0.0
 11
212.1428571428572
 21
4006.084028864264
 31
0.0
  0
LINE
  5
5A
330
20
100
AcDbEntity
  8
_0-0_
  6
Continuous
 62
     7
100
AcDbLine
 10
212.1428571428572
 20
4006.084028864264
 30
0.0
 11
5727.857142857143
 21
4006.084028864264
 31
0.0
  0
LINE
  5
5B
330
20
100
AcDbEntity
  8
_0-0_
  6
Continuous
 62
     7
100
AcDbLine
 10
5727.857142857143
 20
4006.084028864264
 30
0.0
 11
5727.857142857143
 21
242.2591440716368
 31
0.0
  0
TEXT
  5
5C
330
20
100
AcDbEntity
  8
_0-0_
 62
     7
100
AcDbText
 10
3444.643639737597
 20
760.6562484909282
 30
0.0
 40
60.0
  1
製 品 名
100
AcDbText
  0
TEXT
  5
5D
330
20
100
AcDbEntity
  8
_0-0_
 62
     7
100
AcDbText
 10
3441.639833116092
 20
562.4050114716667
 30
0.0
 40
60.0
  1
呼 び 名
100
AcDbText
  0
TEXT
  5
5E
330
20
100
AcDbEntity
  8
_0-0_
 62
     7
100
AcDbText
 10
3444.643639737597
 20
259.0205426997667
 30
0.0
 40
60.0
  1
検　　図
100
AcDbText
  0
TEXT
  5
5F
330
20
100
AcDbEntity
  8
_0-0_
 62
     7
100
AcDbText
 10
4047.011350106283
 20
259.0205426997667
 30
0.0
 40
60.0
  1
製　　図
100
AcDbText
  0
TEXT
  5
60
330
20
100
AcDbEntity
  8
_0-0_
 62
     7
100
AcDbText
 10
4429.479469727538
 20
259.0205426997667
 30
0.0
 40
60.0
  1
H.O
100
AcDbText
  0
TEXT
  5
61
330
20
100
AcDbEntity
  8
_0-0_
 62
     7
100
AcDbText
 10
4648.264411052555
 20
763.6600551124319
 30
0.0
 40
60.0
  1
縮　　尺
100
AcDbText
  0
TEXT
  5
62
330
20
100
AcDbEntity
  8
_0-0_
 62
     7
100
AcDbText
 10
5249.518677398119
 20
760.6562484909282
 30
0.0
 40
60.0
  1
1/20
100
AcDbText
  0
TEXT
  5
63
330
20
100
AcDbEntity
  8
_0-0_
 62
     7
100
AcDbText
 10
4642.256797809547
 20
661.5306299812973
 30
0.0
 40
60.0
  1
参考重量
100
AcDbText
  0
TEXT
  5
64
330
20
100
AcDbEntity
  8
_0-0_
 62
     7
100
AcDbText
 10
4642.256797809547
 20
562.4050114716667
 30
0.0
 40
60.0
  1
設計Ｎｏ
100
AcDbText
  0
TEXT
  5
65
330
20
100
AcDbEntity
  8
_0-0_
 62
     7
100
AcDbText
 10
4648.264411052555
 20
463.2793929620359
 30
0.0
 40
60.0
  1
図面Ｎｏ
100
AcDbText
  0
TEXT
  5
66
330
20
100
AcDbEntity
  8
_0-0_
 62
     7
100
AcDbText
 10
4645.260604431051
 20
364.1537744524054
 30
0.0
 40
60.0
  1
製 図 日
100
AcDbText
  0
TEXT
  5
67
330
20
100
AcDbEntity
  8
_0-0_
 62
     7
100
AcDbText
 10
4942.477694078547
 20
360.5357939221474
 30
0.0
 40
60.0
  1
平成　　年　　月　　日
100
AcDbText
  0
TEXT
  5
68
330
20
100
AcDbEntity
  8
_0-0_
 62
     7
100
AcDbText
 10
4647.939081026667
 20
262.0243493212706
 30
0.0
 40
60.0
  1
株式会社　丸治コンクリート工業所
 41
0.93
100
AcDbText
  0
TEXT
  5
69
330
20
100
AcDbEntity
  8
_0-0_
 62
     7
100
AcDbText
 10
3444.643639737597
 20
661.5306299812973
 30
0.0
 40
60.0
  1
型　　式
100
AcDbText
  0
TEXT
  5
6A
330
20
100
AcDbEntity
  8
_0-0_
 62
     7
100
AcDbText
 10
3441.639833116092
 20
463.2793929620359
 30
0.0
 40
60.0
  1
寸　　法
100
AcDbText
  0
TEXT
  5
6B
330
20
100
AcDbEntity
  8
_0-0_
 62
     7
100
AcDbText
 10
3444.643639737597
 20
361.1499678309014
 30
0.0
 40
60.0
  1
特記事項
100
AcDbText
  0
TEXT
  5
6C
330
20
100
AcDbEntity
  8
_0-0_
 62
     7
100
AcDbText
 10
3921.694238569518
 20
761.7371360615006
 30
0.0
 40
60.0
  1
ＦＫ式ハンドホール
100
AcDbText
  0
TEXT
  5
6D
330
20
100
AcDbEntity
  8
_0-0_
 62
     7
100
AcDbText
 10
4070.922720805284
 20
661.7048567606025
 30
0.0
 40
60.0
  1
1200型
100
AcDbText
  0
TEXT
  5
6E
330
20
100
AcDbEntity
  8
_0-0_
 62
     7
100
AcDbText
 10
3834.503700459265
 20
460.0004247276436
 30
0.0
 40
60.0
  1
1200×1200×1500
100
AcDbText
  0
TEXT
  5
6F
330
20
100
AcDbEntity
  8
_0-0_
 62
     7
100
AcDbText
 10
5215.333623563889
 20
661.5471766229904
 30
0.0
 40
60.0
  1
2995kg
100
AcDbText
  0
LINE
  5
70
330
20
100
AcDbEntity
  8
_0-0_
  6
Continuous
 62
     7
100
AcDbLine
 10
1160.611099979964
 20
2105.94470046083
 30
0.0
 11
2560.611099979964
 21
2105.94470046083
 31
0.0
  0
LINE
  5
71
330
20
100
AcDbEntity
  8
_0-0_
  6
Continuous
 62
     7
100
AcDbLine
 10
2560.611099979964
 20
2965.94470046083
 30
0.0
 11
2560.611099979964
 21
2105.94470046083
 31
0.0
  0
LINE
  5
72
330
20
100
AcDbEntity
  8
_0-0_
  6
Continuous
 62
     7
100
AcDbLine
 10
2550.611099979964
 20
2975.94470046083
 30
0.0
 11
2560.611099979964
 21
2965.94470046083
 31
0.0
  0
LINE
  5
73
330
20
100
AcDbEntity
  8
_0-0_
  6
Continuous
 62
     7
100
AcDbLine
 10
1160.611099979964
 20
2965.94470046083
 30
0.0
 11
1160.611099979964
 21
2105.94470046083
 31
0.0
  0
LINE
  5
74
330
20
100
AcDbEntity
  8
_0-0_
  6
Continuous
 62
     7
100
AcDbLine
 10
1170.611099979964
 20
2975.94470046083
 30
0.0
 11
1160.611099979964
 21
2965.94470046083
 31
0.0
  0
LINE
  5
75
330
20
100
AcDbEntity
  8
_0-0_
  6
Continuous
 62
     7
100
AcDbLine
 10
1170.611099979964
 20
2975.94470046083
 30
0.0
 11
2550.611099979964
 21
2975.94470046083
 31
0.0
  0
LINE
  5
76
330
20
100
AcDbEntity
  8
_0-0_
  6
Continuous
 62
     7
100
AcDbLine
 10
1160.611099979964
 20
2105.94470046083
 30
0.0
 11
1160.611099979964
 21
1265.944700460829
 31
0.0
  0
LINE
  5
77
330
20
100
AcDbEntity
  8
_0-0_
  6
Continuous
 62
     7
100
AcDbLine
 10
1160.611099979964
 20
1265.944700460829
 30
0.0
 11
1170.611099979964
 21
1255.944700460829
 31
0.0
  0
LINE
  5
78
330
20
100
AcDbEntity
  8
_0-0_
  6
Continuous
 62
     7
100
AcDbLine
 10
2560.611099979964
 20
2105.94470046083
 30
0.0
 11
2560.611099979964
 21
1265.944700460829
 31
0.0
  0
LINE
  5
79
330
20
100
AcDbEntity
  8
_0-0_
  6
Continuous
 62
     7
100
AcDbLine
 10
2560.611099979964
 20
1265.944700460829
 30
0.0
 11
2550.611099979964
 21
1255.944700460829
 31
0.0
  0
LINE
  5
7A
330
20
100
AcDbEntity
  8
_0-0_
  6
Continuous
 62
     7
100
AcDbLine
 10
1170.611099979964
 20
1255.944700460829
 30
0.0
 11
2550.611099979964
 21
1255.944700460829
 31
0.0
  0
LINE
  5
7B
330
20
100
AcDbEntity
  8
_0-0_
  6
DASHED1
 62
   136
100
AcDbLine
 10
1921.282210893562
 20
2855.94470046083
 30
0.0
 11
1921.282210893562
 21
2975.94470046083
 31
0.0
  0
LINE
  5
7C
330
20
100
AcDbEntity
  8
_0-0_
  6
Continuous
 62
     4
100
AcDbLine
 10
1160.611099979964
 20
3095.94470046083
 30
0.0
 11
1160.611099979964
 21
3485.94470046083
 31
0.0
  0
LINE
  5
7D
330
20
100
AcDbEntity
  8
_0-0_
  6
Continuous
 62
     4
100
AcDbLine
 10
1160.611099979964
 20
3475.94470046083
 30
0.0
 11
2560.611099979964
 21
3475.94470046083
 31
0.0
  0
LINE
  5
7E
330
20
100
AcDbEntity
  8
_0-0_
  6
Continuous
 62
     4
100
AcDbLine
 10
2056.282210893562
 20
3095.94470046083
 30
0.0
 11
2056.282210893562
 21
3225.94470046083
 31
0.0
  0
LINE
  5
7F
330
20
100
AcDbEntity
  8
_0-0_
  6
Continuous
 62
     4
100
AcDbLine
 10
2560.611099979964
 20
3475.94470046083
 30
0.0
 11
2537.428880149027
 21
3469.733043378369
 31
0.0
  0
LINE
  5
80
330
20
100
AcDbEntity
  8
_0-0_
  6
Continuous
 62
     4
100
AcDbLine
 10
2560.611099979964
 20
3475.94470046083
 30
0.0
 11
2537.428880149027
 21
3482.15635754329
 31
0.0
  0
LINE
  5
81
330
20
100
AcDbEntity
  8
_0-0_
  6
Continuous
 62
     4
100
AcDbLine
 10
1160.611099979964
 20
3475.94470046083
 30
0.0
 11
1183.793319810901
 21
3482.15635754329
 31
0.0
  0
LINE
  5
82
330
20
100
AcDbEntity
  8
_0-0_
  6
Continuous
 62
     4
100
AcDbLine
 10
1160.611099979964
 20
3475.94470046083
 30
0.0
 11
1183.793319810901
 21
3469.733043378369
 31
0.0
  0
LINE
  5
83
330
20
100
AcDbEntity
  8
_0-0_
  6
Continuous
 62
     4
100
AcDbLine
 10
2056.282210893562
 20
3215.94470046083
 30
0.0
 11
2033.099991062624
 21
3209.733043378369
 31
0.0
  0
LINE
  5
84
330
20
100
AcDbEntity
  8
_0-0_
  6
Continuous
 62
     4
100
AcDbLine
 10
2056.282210893562
 20
3215.94470046083
 30
0.0
 11
2033.099991062624
 21
3222.15635754329
 31
0.0
  0
LINE
  5
85
330
20
100
AcDbEntity
  8
_0-0_
  6
Continuous
 62
     4
100
AcDbLine
 10
1321.282210893562
 20
3215.94470046083
 30
0.0
 11
1344.464430724499
 21
3222.15635754329
 31
0.0
  0
LINE
  5
86
330
20
100
AcDbEntity
  8
_0-0_
  6
Continuous
 62
     4
100
AcDbLine
 10
1321.282210893562
 20
3215.94470046083
 30
0.0
 11
1344.464430724499
 21
3209.733043378369
 31
0.0
  0
TEXT
  5
87
330
20
100
AcDbEntity
  8
_0-0_
 62
     7
100
AcDbText
 10
1798.665213744186
 20
3490.809769797618
 30
0.0
 40
60.0
  1
1400
100
AcDbText
  0
LINE
  5
88
330
20
100
AcDbEntity
  8
_0-0_
  6
Continuous
 62
     4
100
AcDbLine
 10
2580.611099979964
 20
2655.94470046083
 30
0.0
 11
2710.611099979964
 21
2655.94470046083
 31
0.0
  0
LINE
  5
89
330
20
100
AcDbEntity
  8
_0-0_
  6
Continuous
 62
     4
100
AcDbLine
 10
2580.611099979964
 20
2255.94470046083
 30
0.0
 11
2710.611099979964
 21
2255.94470046083
 31
0.0
  0
LINE
  5
8A
330
20
100
AcDbEntity
  8
_0-0_
  6
Continuous
 62
     4
100
AcDbLine
 10
2580.611099979964
 20
1855.944700460829
 30
0.0
 11
2710.611099979964
 21
1855.944700460829
 31
0.0
  0
LINE
  5
8B
330
20
100
AcDbEntity
  8
_0-0_
  6
Continuous
 62
     4
100
AcDbLine
 10
2580.611099979964
 20
2105.94470046083
 30
0.0
 11
2710.611099979964
 21
2105.94470046083
 31
0.0
  0
LINE
  5
8C
330
20
100
AcDbEntity
  8
_0-0_
  6
Continuous
 62
     4
100
AcDbLine
 10
2700.611099979964
 20
2255.94470046083
 30
0.0
 11
2700.611099979964
 21
2105.94470046083
 31
0.0
  0
LINE
  5
8D
330
20
100
AcDbEntity
  8
_0-0_
  6
Continuous
 62
     4
100
AcDbLine
 10
2700.611099979964
 20
2655.94470046083
 30
0.0
 11
2700.611099979964
 21
2255.94470046083
 31
0.0
  0
LINE
  5
8E
330
20
100
AcDbEntity
  8
_0-0_
  6
Continuous
 62
     4
100
AcDbLine
 10
2700.611099979964
 20
2105.94470046083
 30
0.0
 11
2700.611099979964
 21
1855.944700460829
 31
0.0
  0
LINE
  5
8F
330
20
100
AcDbEntity
  8
_0-0_
  6
Continuous
 62
     4
100
AcDbLine
 10
2700.611099979964
 20
2655.94470046083
 30
0.0
 11
2706.822757062424
 21
2632.762480629892
 31
0.0
  0
LINE
  5
90
330
20
100
AcDbEntity
  8
_0-0_
  6
Continuous
 62
     4
100
AcDbLine
 10
2700.611099979964
 20
2655.94470046083
 30
0.0
 11
2694.399442897504
 21
2632.762480629892
 31
0.0
  0
LINE
  5
91
330
20
100
AcDbEntity
  8
_0-0_
  6
Continuous
 62
     4
100
AcDbLine
 10
2700.611099979964
 20
2255.94470046083
 30
0.0
 11
2694.399442897504
 21
2279.126920291767
 31
0.0
  0
LINE
  5
92
330
20
100
AcDbEntity
  8
_0-0_
  6
Continuous
 62
     4
100
AcDbLine
 10
2700.611099979964
 20
2255.94470046083
 30
0.0
 11
2706.822757062424
 21
2279.126920291767
 31
0.0
  0
LINE
  5
93
330
20
100
AcDbEntity
  8
_0-0_
  6
Continuous
 62
     4
100
AcDbLine
 10
2700.611099979964
 20
2255.94470046083
 30
0.0
 11
2706.822757062424
 21
2232.762480629892
 31
0.0
  0
LINE
  5
94
330
20
100
AcDbEntity
  8
_0-0_
  6
Continuous
 62
     4
100
AcDbLine
 10
2700.611099979964
 20
2255.94470046083
 30
0.0
 11
2694.399442897504
 21
2232.762480629892
 31
0.0
  0
LINE
  5
95
330
20
100
AcDbEntity
  8
_0-0_
  6
Continuous
 62
     4
100
AcDbLine
 10
2700.611099979964
 20
2105.94470046083
 30
0.0
 11
2694.399442897504
 21
2129.126920291767
 31
0.0
  0
LINE
  5
96
330
20
100
AcDbEntity
  8
_0-0_
  6
Continuous
 62
     4
100
AcDbLine
 10
2700.611099979964
 20
2105.94470046083
 30
0.0
 11
2706.822757062424
 21
2129.126920291767
 31
0.0
  0
LINE
  5
97
330
20
100
AcDbEntity
  8
_0-0_
  6
Continuous
 62
     4
100
AcDbLine
 10
2700.611099979964
 20
2105.94470046083
 30
0.0
 11
2706.822757062424
 21
2082.762480629892
 31
0.0
  0
LINE
  5
98
330
20
100
AcDbEntity
  8
_0-0_
  6
Continuous
 62
     4
100
AcDbLine
 10
2700.611099979964
 20
2105.94470046083
 30
0.0
 11
2694.399442897504
 21
2082.762480629892
 31
0.0
  0
LINE
  5
99
330
20
100
AcDbEntity
  8
_0-0_
  6
Continuous
 62
     4
100
AcDbLine
 10
2700.611099979964
 20
1855.944700460829
 30
0.0
 11
2694.399442897504
 21
1879.126920291767
 31
0.0
  0
LINE
  5
9A
330
20
100
AcDbEntity
  8
_0-0_
  6
Continuous
 62
     4
100
AcDbLine
 10
2700.611099979964
 20
1855.944700460829
 30
0.0
 11
2706.822757062424
 21
1879.126920291767
 31
0.0
  0
TEXT
  5
9B
330
20
100
AcDbEntity
  8
_0-0_
 62
     7
100
AcDbText
 10
2687.036759189797
 20
2413.837745150573
 30
0.0
 40
60.0
  1
400
 50
90.0
100
AcDbText
  0
TEXT
  5
9C
330
20
100
AcDbEntity
  8
_0-0_
 62
     7
100
AcDbText
 10
2685.126996034723
 20
2110.337076765259
 30
0.0
 40
60.0
  1
150
 50
90.0
100
AcDbText
  0
TEXT
  5
9D
330
20
100
AcDbEntity
  8
_0-0_
 62
     7
100
AcDbText
 10
2687.036759189797
 20
1911.721708637513
 30
0.0
 40
60.0
  1
250
 50
90.0
100
AcDbText
  0
LINE
  5
9E
330
20
100
AcDbEntity
  8
_0-0_
  6
DASHED1
 62
   136
100
AcDbLine
 10
1750.611099979964
 20
1345.944700460829
 30
0.0
 11
1760.611099979964
 21
1315.944700460829
 31
0.0
  0
LINE
  5
9F
330
20
100
AcDbEntity
  8
_0-0_
  6
DASHED1
 62
   136
100
AcDbLine
 10
1760.611099979964
 20
1315.944700460829
 30
0.0
 11
1960.611099979964
 21
1315.944700460829
 31
0.0
  0
LINE
  5
A0
330
20
100
AcDbEntity
  8
_0-0_
  6
DASHED1
 62
   136
100
AcDbLine
 10
1970.611099979964
 20
1345.944700460829
 30
0.0
 11
1960.611099979964
 21
1315.944700460829
 31
0.0
  0
LINE
  5
A1
330
20
100
AcDbEntity
  8
_0-0_
  6
Continuous
 62
     4
100
AcDbLine
 10
1970.611099979964
 20
1235.944700460829
 30
0.0
 11
1970.611099979964
 21
1105.944700460829
 31
0.0
  0
LINE
  5
A2
330
20
100
AcDbEntity
  8
_0-0_
  6
Continuous
 62
     4
100
AcDbLine
 10
1960.611099979964
 20
1235.944700460829
 30
0.0
 11
1960.611099979964
 21
1105.944700460829
 31
0.0
  0
LINE
  5
A3
330
20
100
AcDbEntity
  8
_0-0_
  6
Continuous
 62
     4
100
AcDbLine
 10
1760.611099979964
 20
1235.944700460829
 30
0.0
 11
1760.611099979964
 21
1105.944700460829
 31
0.0
  0
LINE
  5
A4
330
20
100
AcDbEntity
  8
_0-0_
  6
Continuous
 62
     4
100
AcDbLine
 10
1750.611099979964
 20
1235.944700460829
 30
0.0
 11
1750.611099979964
 21
1105.944700460829
 31
0.0
  0
LINE
  5
A5
330
20
100
AcDbEntity
  8
_0-0_
  6
Continuous
 62
     4
100
AcDbLine
 10
1700.611099979964
 20
1115.944700460829
 30
0.0
 11
1750.611099979964
 21
1115.944700460829
 31
0.0
  0
LINE
  5
A6
330
20
100
AcDbEntity
  8
_0-0_
  6
Continuous
 62
     4
100
AcDbLine
 10
1760.611099979964
 20
1115.944700460829
 30
0.0
 11
1960.611099979964
 21
1115.944700460829
 31
0.0
  0
LINE
  5
A7
330
20
100
AcDbEntity
  8
_0-0_
  6
Continuous
 62
     4
100
AcDbLine
 10
1970.611099979964
 20
1115.944700460829
 30
0.0
 11
2020.611099979964
 21
1115.944700460829
 31
0.0
  0
LINE
  5
A8
330
20
100
AcDbEntity
  8
_0-0_
  6
Continuous
 62
     4
100
AcDbLine
 10
1760.611099979964
 20
1115.944700460829
 30
0.0
 11
1750.611099979964
 21
1115.944700460829
 31
0.0
  0
LINE
  5
A9
330
20
100
AcDbEntity
  8
_0-0_
  6
Continuous
 62
     4
100
AcDbLine
 10
1970.611099979964
 20
1115.944700460829
 30
0.0
 11
1960.611099979964
 21
1115.944700460829
 31
0.0
  0
LINE
  5
AA
330
20
100
AcDbEntity
  8
_0-0_
  6
Continuous
 62
     4
100
AcDbLine
 10
1970.611099979964
 20
1115.944700460829
 30
0.0
 11
1993.793319810901
 21
1122.15635754329
 31
0.0
  0
LINE
  5
AB
330
20
100
AcDbEntity
  8
_0-0_
  6
Continuous
 62
     4
100
AcDbLine
 10
1970.611099979964
 20
1115.944700460829
 30
0.0
 11
1993.793319810901
 21
1109.733043378368
 31
0.0
  0
LINE
  5
AC
330
20
100
AcDbEntity
  8
_0-0_
  6
Continuous
 62
     4
100
AcDbLine
 10
1960.611099979964
 20
1115.944700460829
 30
0.0
 11
1937.428880149026
 21
1109.733043378368
 31
0.0
  0
LINE
  5
AD
330
20
100
AcDbEntity
  8
_0-0_
  6
Continuous
 62
     4
100
AcDbLine
 10
1960.611099979964
 20
1115.944700460829
 30
0.0
 11
1937.428880149026
 21
1122.15635754329
 31
0.0
  0
LINE
  5
AE
330
20
100
AcDbEntity
  8
_0-0_
  6
Continuous
 62
     4
100
AcDbLine
 10
1760.611099979964
 20
1115.944700460829
 30
0.0
 11
1783.793319810901
 21
1122.15635754329
 31
0.0
  0
LINE
  5
AF
330
20
100
AcDbEntity
  8
_0-0_
  6
Continuous
 62
     4
100
AcDbLine
 10
1760.611099979964
 20
1115.944700460829
 30
0.0
 11
1783.793319810901
 21
1109.733043378368
 31
0.0
  0
LINE
  5
B0
330
20
100
AcDbEntity
  8
_0-0_
  6
Continuous
 62
     4
100
AcDbLine
 10
1750.611099979964
 20
1115.944700460829
 30
0.0
 11
1727.428880149026
 21
1109.733043378368
 31
0.0
  0
LINE
  5
B1
330
20
100
AcDbEntity
  8
_0-0_
  6
Continuous
 62
     4
100
AcDbLine
 10
1750.611099979964
 20
1115.944700460829
 30
0.0
 11
1727.428880149026
 21
1122.15635754329
 31
0.0
  0
LINE
  5
B2
330
20
100
AcDbEntity
  8
_0-0_
  6
Continuous
 62
     4
100
AcDbLine
 10
2250.611099979964
 20
1235.944700460829
 30
0.0
 11
2250.611099979964
 21
975.9447004608295
 31
0.0
  0
LINE
  5
B3
330
20
100
AcDbEntity
  8
_0-0_
  6
Continuous
 62
     4
100
AcDbLine
 10
1470.611099979964
 20
1235.944700460829
 30
0.0
 11
1470.611099979964
 21
975.9447004608295
 31
0.0
  0
LINE
  5
B4
330
20
100
AcDbEntity
  8
_0-0_
  6
Continuous
 62
     4
100
AcDbLine
 10
1470.611099979964
 20
985.9447004608297
 30
0.0
 11
2250.611099979964
 21
985.9447004608297
 31
0.0
  0
LINE
  5
B5
330
20
100
AcDbEntity
  8
_0-0_
  6
Continuous
 62
     4
100
AcDbLine
 10
1260.611099979964
 20
1235.944700460829
 30
0.0
 11
1260.611099979964
 21
845.9447004608296
 31
0.0
  0
LINE
  5
B6
330
20
100
AcDbEntity
  8
_0-0_
  6
Continuous
 62
     4
100
AcDbLine
 10
2460.611099979964
 20
1235.944700460829
 30
0.0
 11
2460.611099979964
 21
845.9447004608296
 31
0.0
  0
LINE
  5
B7
330
20
100
AcDbEntity
  8
_0-0_
  6
Continuous
 62
     4
100
AcDbLine
 10
1160.611099979964
 20
855.9447004608296
 30
0.0
 11
1260.611099979964
 21
855.9447004608296
 31
0.0
  0
LINE
  5
B8
330
20
100
AcDbEntity
  8
_0-0_
  6
Continuous
 62
     4
100
AcDbLine
 10
2460.611099979964
 20
855.9447004608296
 30
0.0
 11
2560.611099979964
 21
855.9447004608296
 31
0.0
  0
LINE
  5
B9
330
20
100
AcDbEntity
  8
_0-0_
  6
Continuous
 62
     4
100
AcDbLine
 10
2460.611099979964
 20
855.9447004608296
 30
0.0
 11
1260.611099979964
 21
855.9447004608296
 31
0.0
  0
LINE
  5
BA
330
20
100
AcDbEntity
  8
_0-0_
  6
Continuous
 62
     4
100
AcDbLine
 10
2250.611099979964
 20
985.9447004608297
 30
0.0
 11
2227.428880149027
 21
979.7330433783686
 31
0.0
  0
LINE
  5
BB
330
20
100
AcDbEntity
  8
_0-0_
  6
Continuous
 62
     4
100
AcDbLine
 10
2250.611099979964
 20
985.9447004608297
 30
0.0
 11
2227.428880149027
 21
992.1563575432898
 31
0.0
  0
LINE
  5
BC
330
20
100
AcDbEntity
  8
_0-0_
  6
Continuous
 62
     4
100
AcDbLine
 10
1470.611099979964
 20
985.9447004608297
 30
0.0
 11
1493.793319810901
 21
992.1563575432898
 31
0.0
  0
LINE
  5
BD
330
20
100
AcDbEntity
  8
_0-0_
  6
Continuous
 62
     4
100
AcDbLine
 10
1470.611099979964
 20
985.9447004608297
 30
0.0
 11
1493.793319810901
 21
979.7330433783686
 31
0.0
  0
LINE
  5
BE
330
20
100
AcDbEntity
  8
_0-0_
  6
Continuous
 62
     4
100
AcDbLine
 10
1160.611099979964
 20
855.9447004608296
 30
0.0
 11
1183.793319810901
 21
862.1563575432899
 31
0.0
  0
LINE
  5
BF
330
20
100
AcDbEntity
  8
_0-0_
  6
Continuous
 62
     4
100
AcDbLine
 10
1160.611099979964
 20
855.9447004608296
 30
0.0
 11
1183.793319810901
 21
849.7330433783689
 31
0.0
  0
LINE
  5
C0
330
20
100
AcDbEntity
  8
_0-0_
  6
Continuous
 62
     4
100
AcDbLine
 10
1260.611099979964
 20
855.9447004608296
 30
0.0
 11
1237.428880149026
 21
849.7330433783689
 31
0.0
  0
LINE
  5
C1
330
20
100
AcDbEntity
  8
_0-0_
  6
Continuous
 62
     4
100
AcDbLine
 10
1260.611099979964
 20
855.9447004608296
 30
0.0
 11
1237.428880149026
 21
862.1563575432899
 31
0.0
  0
LINE
  5
C2
330
20
100
AcDbEntity
  8
_0-0_
  6
Continuous
 62
     4
100
AcDbLine
 10
1260.611099979964
 20
855.9447004608296
 30
0.0
 11
1283.793319810901
 21
862.1563575432899
 31
0.0
  0
LINE
  5
C3
330
20
100
AcDbEntity
  8
_0-0_
  6
Continuous
 62
     4
100
AcDbLine
 10
1260.611099979964
 20
855.9447004608296
 30
0.0
 11
1283.793319810901
 21
849.7330433783689
 31
0.0
  0
LINE
  5
C4
330
20
100
AcDbEntity
  8
_0-0_
  6
Continuous
 62
     4
100
AcDbLine
 10
2460.611099979964
 20
855.9447004608296
 30
0.0
 11
2437.428880149027
 21
849.7330433783689
 31
0.0
  0
LINE
  5
C5
330
20
100
AcDbEntity
  8
_0-0_
  6
Continuous
 62
     4
100
AcDbLine
 10
2460.611099979964
 20
855.9447004608296
 30
0.0
 11
2437.428880149027
 21
862.1563575432899
 31
0.0
  0
LINE
  5
C6
330
20
100
AcDbEntity
  8
_0-0_
  6
Continuous
 62
     4
100
AcDbLine
 10
2460.611099979964
 20
855.9447004608296
 30
0.0
 11
2483.793319810902
 21
862.1563575432899
 31
0.0
  0
LINE
  5
C7
330
20
100
AcDbEntity
  8
_0-0_
  6
Continuous
 62
     4
100
AcDbLine
 10
2460.611099979964
 20
855.9447004608296
 30
0.0
 11
2483.793319810902
 21
849.7330433783689
 31
0.0
  0
LINE
  5
C8
330
20
100
AcDbEntity
  8
_0-0_
  6
Continuous
 62
     4
100
AcDbLine
 10
2560.611099979964
 20
855.9447004608296
 30
0.0
 11
2537.428880149027
 21
849.7330433783689
 31
0.0
  0
LINE
  5
C9
330
20
100
AcDbEntity
  8
_0-0_
  6
Continuous
 62
     4
100
AcDbLine
 10
2560.611099979964
 20
855.9447004608296
 30
0.0
 11
2537.428880149027
 21
862.1563575432899
 31
0.0
  0
TEXT
  5
CA
330
20
100
AcDbEntity
  8
_0-0_
 62
     7
100
AcDbText
 10
1766.745747299529
 20
1128.974176559281
 30
0.0
 40
60.0
  1
φ200
 41
0.8699999999999999
100
AcDbText
  0
TEXT
  5
CB
330
20
100
AcDbEntity
  8
_0-0_
 62
     7
100
AcDbText
 10
1977.513909830321
 20
1128.974176559281
 30
0.0
 40
60.0
  1
10
100
AcDbText
  0
TEXT
  5
CC
330
20
100
AcDbEntity
  8
_0-0_
 62
     7
100
AcDbText
 10
1673.199782848444
 20
1128.974176559281
 30
0.0
 40
60.0
  1
10
100
AcDbText
  0
TEXT
  5
CD
330
20
100
AcDbEntity
  8
_0-0_
 62
     7
100
AcDbText
 10
1816.82208159018
 20
998.7934549470152
 30
0.0
 40
60.0
  1
780
100
AcDbText
  0
TEXT
  5
CE
330
20
100
AcDbEntity
  8
_0-0_
 62
     7
100
AcDbText
 10
1165.918473528849
 20
870.6468071099408
 30
0.0
 40
60.0
  1
100
100
AcDbText
  0
TEXT
  5
CF
330
20
100
AcDbEntity
  8
_0-0_
 62
     7
100
AcDbText
 10
2463.657542101128
 20
868.612733334749
 30
0.0
 40
60.0
  1
100
100
AcDbText
  0
TEXT
  5
D0
330
20
100
AcDbEntity
  8
_0-0_
 62
     7
100
AcDbText
 10
1801.337892076706
 20
868.4235171696149
 30
0.0
 40
60.0
  1
1200
100
AcDbText
  0
LINE
  5
D1
330
20
100
AcDbEntity
  8
_0-0_
  6
Continuous
 62
     4
100
AcDbLine
 10
1160.611099979964
 20
3095.94470046083
 30
0.0
 11
1160.611099979964
 21
2995.94470046083
 31
0.0
  0
LINE
  5
D2
330
20
100
AcDbEntity
  8
_0-0_
  6
Continuous
 62
     4
100
AcDbLine
 10
2560.611099979964
 20
3485.94470046083
 30
0.0
 11
2560.611099979964
 21
2995.94470046083
 31
0.0
  0
TEXT
  5
D3
330
20
100
AcDbEntity
  8
_0-0_
 62
     7
100
AcDbText
 10
2826.629334876511
 20
2996.451002357239
 30
0.0
 40
60.0
  1
CR-600
 41
0.58
100
AcDbText
  0
TEXT
  5
D4
330
20
100
AcDbEntity
  8
_0-0_
 62
     7
100
AcDbText
 10
2823.175830799382
 20
2510.057978780409
 30
0.0
 40
60.0
  1
B2-750
 41
0.58
100
AcDbText
  0
TEXT
  5
D5
330
20
100
AcDbEntity
  8
_0-0_
 62
     7
100
AcDbText
 10
2830.640338656092
 20
1650.48419247669
 30
0.0
 40
60.0
  1
B1-750
 41
0.58
100
AcDbText
  0
LINE
  5
D6
330
20
100
AcDbEntity
  8
_0-0_
  6
Continuous
 62
     7
100
AcDbLine
 10
2820.611099979964
 20
3055.94470046083
 30
0.0
 11
3020.611099979964
 21
3055.94470046083
 31
0.0
  0
LINE
  5
D7
330
20
100
AcDbEntity
  8
_0-0_
  6
Continuous
 62
     7
100
AcDbLine
 10
2820.611099979964
 20
3055.94470046083
 30
0.0
 11
2760.611099979964
 21
3025.94470046083
 31
0.0
  0
LINE
  5
D8
330
20
100
AcDbEntity
  8
_0-0_
  6
Continuous
 62
     7
100
AcDbLine
 10
2760.611099979964
 20
3025.94470046083
 30
0.0
 11
2820.611099979964
 21
2995.94470046083
 31
0.0
  0
LINE
  5
D9
330
20
100
AcDbEntity
  8
_0-0_
  6
Continuous
 62
     7
100
AcDbLine
 10
2820.611099979964
 20
2995.94470046083
 30
0.0
 11
3020.611099979964
 21
2995.94470046083
 31
0.0
  0
LINE
  5
DA
330
20
100
AcDbEntity
  8
_0-0_
  6
Continuous
 62
     7
100
AcDbLine
 10
3020.611099979964
 20
3055.94470046083
 30
0.0
 11
3020.611099979964
 21
2995.94470046083
 31
0.0
  0
LINE
  5
DB
330
20
100
AcDbEntity
  8
_0-0_
  6
Continuous
 62
     7
100
AcDbLine
 10
2820.611099979964
 20
2570.94470046083
 30
0.0
 11
3020.611099979964
 21
2570.94470046083
 31
0.0
  0
LINE
  5
DC
330
20
100
AcDbEntity
  8
_0-0_
  6
Continuous
 62
     7
100
AcDbLine
 10
2820.611099979964
 20
2510.94470046083
 30
0.0
 11
3020.611099979964
 21
2510.94470046083
 31
0.0
  0
LINE
  5
DD
330
20
100
AcDbEntity
  8
_0-0_
  6
Continuous
 62
     7
100
AcDbLine
 10
2760.611099979964
 20
2540.94470046083
 30
0.0
 11
2820.611099979964
 21
2510.94470046083
 31
0.0
  0
LINE
  5
DE
330
20
100
AcDbEntity
  8
_0-0_
  6
Continuous
 62
     7
100
AcDbLine
 10
2820.611099979964
 20
2570.94470046083
 30
0.0
 11
2760.611099979964
 21
2540.94470046083
 31
0.0
  0
LINE
  5
DF
330
20
100
AcDbEntity
  8
_0-0_
  6
Continuous
 62
     7
100
AcDbLine
 10
3020.611099979964
 20
2570.94470046083
 30
0.0
 11
3020.611099979964
 21
2510.94470046083
 31
0.0
  0
LINE
  5
E0
330
20
100
AcDbEntity
  8
_0-0_
  6
Continuous
 62
     7
100
AcDbLine
 10
2820.611099979964
 20
1710.944700460829
 30
0.0
 11
3020.611099979964
 21
1710.944700460829
 31
0.0
  0
LINE
  5
E1
330
20
100
AcDbEntity
  8
_0-0_
  6
Continuous
 62
     7
100
AcDbLine
 10
2820.611099979964
 20
1650.944700460829
 30
0.0
 11
3020.611099979964
 21
1650.944700460829
 31
0.0
  0
LINE
  5
E2
330
20
100
AcDbEntity
  8
_0-0_
  6
Continuous
 62
     7
100
AcDbLine
 10
3020.611099979964
 20
1710.944700460829
 30
0.0
 11
3020.611099979964
 21
1650.944700460829
 31
0.0
  0
LINE
  5
E3
330
20
100
AcDbEntity
  8
_0-0_
  6
Continuous
 62
     7
100
AcDbLine
 10
2760.611099979964
 20
1680.944700460829
 30
0.0
 11
2820.611099979964
 21
1650.944700460829
 31
0.0
  0
LINE
  5
E4
330
20
100
AcDbEntity
  8
_0-0_
  6
Continuous
 62
     7
100
AcDbLine
 10
2820.611099979964
 20
1710.944700460829
 30
0.0
 11
2760.611099979964
 21
1680.944700460829
 31
0.0
  0
LINE
  5
E5
330
20
100
AcDbEntity
  8
_0-0_
  6
Continuous
 62
     4
100
AcDbLine
 10
1140.611099979964
 20
2105.94470046083
 30
0.0
 11
880.6110999799638
 21
2105.94470046083
 31
0.0
  0
LINE
  5
E6
330
20
100
AcDbEntity
  8
_0-0_
  6
Continuous
 62
     4
100
AcDbLine
 10
1140.611099979964
 20
1765.944700460829
 30
0.0
 11
1010.611099979964
 21
1765.944700460829
 31
0.0
  0
LINE
  5
E7
330
20
100
AcDbEntity
  8
_0-0_
  6
Continuous
 62
     4
100
AcDbLine
 10
1140.611099979964
 20
1415.944700460829
 30
0.0
 11
1010.611099979964
 21
1415.944700460829
 31
0.0
  0
LINE
  5
E8
330
20
100
AcDbEntity
  8
_0-0_
  6
Continuous
 62
     4
100
AcDbLine
 10
1020.611099979964
 20
2105.94470046083
 30
0.0
 11
1020.611099979964
 21
1765.944700460829
 31
0.0
  0
LINE
  5
E9
330
20
100
AcDbEntity
  8
_0-0_
  6
Continuous
 62
     4
100
AcDbLine
 10
1020.611099979964
 20
1765.944700460829
 30
0.0
 11
1020.611099979964
 21
1415.944700460829
 31
0.0
  0
LINE
  5
EA
330
20
100
AcDbEntity
  8
_0-0_
  6
Continuous
 62
     4
100
AcDbLine
 10
1140.611099979964
 20
1355.944700460829
 30
0.0
 11
750.6110999799638
 21
1355.944700460829
 31
0.0
  0
LINE
  5
EB
330
20
100
AcDbEntity
  8
_0-0_
  6
Continuous
 62
     4
100
AcDbLine
 10
760.6110999799637
 20
1355.944700460829
 30
0.0
 11
760.6110999799637
 21
1255.944700460829
 31
0.0
  0
LINE
  5
EC
330
20
100
AcDbEntity
  8
_0-0_
  6
Continuous
 62
     4
100
AcDbLine
 10
630.6110999799638
 20
3075.94470046083
 30
0.0
 11
636.8227570624244
 21
3052.762480629892
 31
0.0
  0
LINE
  5
ED
330
20
100
AcDbEntity
  8
_0-0_
  6
Continuous
 62
     4
100
AcDbLine
 10
630.6110999799638
 20
3075.94470046083
 30
0.0
 11
624.3994428975033
 21
3052.762480629892
 31
0.0
  0
LINE
  5
EE
330
20
100
AcDbEntity
  8
_0-0_
  6
Continuous
 62
     4
100
AcDbLine
 10
760.6110999799637
 20
2975.94470046083
 30
0.0
 11
766.8227570624243
 21
2952.762480629892
 31
0.0
  0
LINE
  5
EF
330
20
100
AcDbEntity
  8
_0-0_
  6
Continuous
 62
     4
100
AcDbLine
 10
760.6110999799637
 20
2975.94470046083
 30
0.0
 11
754.3994428975033
 21
2952.762480629892
 31
0.0
  0
LINE
  5
F0
330
20
100
AcDbEntity
  8
_0-0_
  6
Continuous
 62
     4
100
AcDbLine
 10
760.6110999799637
 20
1355.944700460829
 30
0.0
 11
754.3994428975033
 21
1379.126920291767
 31
0.0
  0
LINE
  5
F1
330
20
100
AcDbEntity
  8
_0-0_
  6
Continuous
 62
     4
100
AcDbLine
 10
760.6110999799637
 20
1355.944700460829
 30
0.0
 11
766.8227570624243
 21
1379.126920291767
 31
0.0
  0
LINE
  5
F2
330
20
100
AcDbEntity
  8
_0-0_
  6
Continuous
 62
     4
100
AcDbLine
 10
630.6110999799638
 20
1255.944700460829
 30
0.0
 11
624.3994428975033
 21
1279.126920291767
 31
0.0
  0
LINE
  5
F3
330
20
100
AcDbEntity
  8
_0-0_
  6
Continuous
 62
     4
100
AcDbLine
 10
630.6110999799638
 20
1255.944700460829
 30
0.0
 11
636.8227570624244
 21
1279.126920291767
 31
0.0
  0
LINE
  5
F4
330
20
100
AcDbEntity
  8
_0-0_
  6
Continuous
 62
     4
100
AcDbLine
 10
760.6110999799637
 20
1255.944700460829
 30
0.0
 11
754.3994428975033
 21
1279.126920291767
 31
0.0
  0
LINE
  5
F5
330
20
100
AcDbEntity
  8
_0-0_
  6
Continuous
 62
     4
100
AcDbLine
 10
760.6110999799637
 20
1255.944700460829
 30
0.0
 11
766.8227570624243
 21
1279.126920291767
 31
0.0
  0
LINE
  5
F6
330
20
100
AcDbEntity
  8
_0-0_
  6
Continuous
 62
     4
100
AcDbLine
 10
760.6110999799637
 20
1355.944700460829
 30
0.0
 11
766.8227570624243
 21
1332.762480629892
 31
0.0
  0
LINE
  5
F7
330
20
100
AcDbEntity
  8
_0-0_
  6
Continuous
 62
     4
100
AcDbLine
 10
760.6110999799637
 20
1355.944700460829
 30
0.0
 11
754.3994428975033
 21
1332.762480629892
 31
0.0
  0
LINE
  5
F8
330
20
100
AcDbEntity
  8
_0-0_
  6
Continuous
 62
     4
100
AcDbLine
 10
890.6110999799638
 20
1355.944700460829
 30
0.0
 11
884.3994428975033
 21
1379.126920291767
 31
0.0
  0
LINE
  5
F9
330
20
100
AcDbEntity
  8
_0-0_
  6
Continuous
 62
     4
100
AcDbLine
 10
890.6110999799638
 20
1355.944700460829
 30
0.0
 11
896.8227570624243
 21
1379.126920291767
 31
0.0
  0
LINE
  5
FA
330
20
100
AcDbEntity
  8
_0-0_
  6
Continuous
 62
     4
100
AcDbLine
 10
1020.611099979964
 20
1415.944700460829
 30
0.0
 11
1014.399442897503
 21
1439.126920291767
 31
0.0
  0
LINE
  5
FB
330
20
100
AcDbEntity
  8
_0-0_
  6
Continuous
 62
     4
100
AcDbLine
 10
1020.611099979964
 20
1415.944700460829
 30
0.0
 11
1026.822757062424
 21
1439.126920291767
 31
0.0
  0
LINE
  5
FC
330
20
100
AcDbEntity
  8
_0-0_
  6
Continuous
 62
     4
100
AcDbLine
 10
1020.611099979964
 20
1765.944700460829
 30
0.0
 11
1026.822757062424
 21
1742.762480629891
 31
0.0
  0
LINE
  5
FD
330
20
100
AcDbEntity
  8
_0-0_
  6
Continuous
 62
     4
100
AcDbLine
 10
1020.611099979964
 20
1765.944700460829
 30
0.0
 11
1014.399442897503
 21
1742.762480629891
 31
0.0
  0
LINE
  5
FE
330
20
100
AcDbEntity
  8
_0-0_
  6
Continuous
 62
     4
100
AcDbLine
 10
1020.611099979964
 20
1765.944700460829
 30
0.0
 11
1014.399442897503
 21
1789.126920291767
 31
0.0
  0
LINE
  5
FF
330
20
100
AcDbEntity
  8
_0-0_
  6
Continuous
 62
     4
100
AcDbLine
 10
1020.611099979964
 20
1765.944700460829
 30
0.0
 11
1026.822757062424
 21
1789.126920291767
 31
0.0
  0
LINE
  5
100
330
20
100
AcDbEntity
  8
_0-0_
  6
Continuous
 62
     4
100
AcDbLine
 10
1020.611099979964
 20
2105.94470046083
 30
0.0
 11
1026.822757062424
 21
2082.762480629892
 31
0.0
  0
LINE
  5
101
330
20
100
AcDbEntity
  8
_0-0_
  6
Continuous
 62
     4
100
AcDbLine
 10
1020.611099979964
 20
2105.94470046083
 30
0.0
 11
1014.399442897503
 21
2082.762480629892
 31
0.0
  0
LINE
  5
102
330
20
100
AcDbEntity
  8
_0-0_
  6
Continuous
 62
     4
100
AcDbLine
 10
890.6110999799638
 20
1355.944700460829
 30
0.0
 11
884.3994428975033
 21
1379.126920291767
 31
0.0
  0
LINE
  5
103
330
20
100
AcDbEntity
  8
_0-0_
  6
Continuous
 62
     4
100
AcDbLine
 10
890.6110999799638
 20
1355.944700460829
 30
0.0
 11
896.8227570624243
 21
1379.126920291767
 31
0.0
  0
LINE
  5
104
330
20
100
AcDbEntity
  8
_0-0_
  6
Continuous
 62
     4
100
AcDbLine
 10
890.6110999799638
 20
2105.94470046083
 30
0.0
 11
890.6110999799638
 21
1355.944700460829
 31
0.0
  0
LINE
  5
105
330
20
100
AcDbEntity
  8
_0-0_
  6
Continuous
 62
     4
100
AcDbLine
 10
890.6110999799638
 20
2855.94470046083
 30
0.0
 11
890.6110999799638
 21
2105.94470046083
 31
0.0
  0
LINE
  5
106
330
20
100
AcDbEntity
  8
_0-0_
  6
Continuous
 62
     4
100
AcDbLine
 10
890.6110999799638
 20
2105.94470046083
 30
0.0
 11
896.8227570624243
 21
2082.762480629892
 31
0.0
  0
LINE
  5
107
330
20
100
AcDbEntity
  8
_0-0_
  6
Continuous
 62
     4
100
AcDbLine
 10
890.6110999799638
 20
2105.94470046083
 30
0.0
 11
884.3994428975033
 21
2082.762480629892
 31
0.0
  0
LINE
  5
108
330
20
100
AcDbEntity
  8
_0-0_
  6
Continuous
 62
     4
100
AcDbLine
 10
890.6110999799638
 20
2105.94470046083
 30
0.0
 11
884.3994428975033
 21
2129.126920291767
 31
0.0
  0
LINE
  5
109
330
20
100
AcDbEntity
  8
_0-0_
  6
Continuous
 62
     4
100
AcDbLine
 10
890.6110999799638
 20
2105.94470046083
 30
0.0
 11
896.8227570624243
 21
2129.126920291767
 31
0.0
  0
LINE
  5
10A
330
20
100
AcDbEntity
  8
_0-0_
  6
Continuous
 62
     4
100
AcDbLine
 10
890.6110999799638
 20
2855.94470046083
 30
0.0
 11
896.8227570624243
 21
2832.762480629892
 31
0.0
  0
LINE
  5
10B
330
20
100
AcDbEntity
  8
_0-0_
  6
Continuous
 62
     4
100
AcDbLine
 10
890.6110999799638
 20
2855.94470046083
 30
0.0
 11
884.3994428975033
 21
2832.762480629892
 31
0.0
  0
TEXT
  5
10C
330
20
100
AcDbEntity
  8
_0-0_
 62
     7
100
AcDbText
 10
878.8730039652772
 20
2435.14221412496
 30
0.0
 40
60.0
  1
750
 50
90.0
100
AcDbText
  0
TEXT
  5
10D
330
20
100
AcDbEntity
  8
_0-0_
 62
     7
100
AcDbText
 10
1011.962276283357
 20
1866.297241787172
 30
0.0
 40
60.0
  1
340
 50
90.0
100
AcDbText
  0
TEXT
  5
10E
330
20
100
AcDbEntity
  8
_0-0_
 62
     7
100
AcDbText
 10
878.3637337905908
 20
1685.040295788233
 30
0.0
 40
60.0
  1
750
 50
90.0
100
AcDbText
  0
TEXT
  5
10F
330
20
100
AcDbEntity
  8
_0-0_
 62
     7
100
AcDbText
 10
1006.731647197514
 20
1524.34353907578
 30
0.0
 40
60.0
  1
350
 50
90.0
100
AcDbText
  0
TEXT
  5
110
330
20
100
AcDbEntity
  8
_0-0_
 62
     7
100
AcDbText
 10
749.9958203836674
 20
1278.253386960989
 30
0.0
 40
60.0
  1
100
 50
90.0
100
AcDbText
  0
LINE
  5
111
330
20
100
AcDbEntity
  8
_0-0_
  6
Continuous
 62
     4
100
AcDbLine
 10
1140.611099979964
 20
3075.94470046083
 30
0.0
 11
490.6110999799639
 21
3075.94470046083
 31
0.0
  0
LINE
  5
112
330
20
100
AcDbEntity
  8
_0-0_
  6
Continuous
 62
     4
100
AcDbLine
 10
500.611099979964
 20
3075.94470046083
 30
0.0
 11
500.611099979964
 21
1255.944700460829
 31
0.0
  0
LINE
  5
113
330
20
100
AcDbEntity
  8
_0-0_
  6
Continuous
 62
     4
100
AcDbLine
 10
1140.611099979964
 20
1255.944700460829
 30
0.0
 11
490.6110999799639
 21
1255.944700460829
 31
0.0
  0
LINE
  5
114
330
20
100
AcDbEntity
  8
_0-0_
  6
Continuous
 62
     4
100
AcDbLine
 10
1140.611099979964
 20
2975.94470046083
 30
0.0
 11
620.6110999799639
 21
2975.94470046083
 31
0.0
  0
LINE
  5
115
330
20
100
AcDbEntity
  8
_0-0_
  6
Continuous
 62
     4
100
AcDbLine
 10
630.6110999799638
 20
3075.94470046083
 30
0.0
 11
630.6110999799638
 21
2975.94470046083
 31
0.0
  0
LINE
  5
116
330
20
100
AcDbEntity
  8
_0-0_
  6
Continuous
 62
     4
100
AcDbLine
 10
630.6110999799638
 20
2975.94470046083
 30
0.0
 11
630.6110999799638
 21
1255.944700460829
 31
0.0
  0
LINE
  5
117
330
20
100
AcDbEntity
  8
_0-0_
  6
Continuous
 62
     4
100
AcDbLine
 10
630.6110999799638
 20
2975.94470046083
 30
0.0
 11
636.8227570624244
 21
2952.762480629892
 31
0.0
  0
LINE
  5
118
330
20
100
AcDbEntity
  8
_0-0_
  6
Continuous
 62
     4
100
AcDbLine
 10
630.6110999799638
 20
2975.94470046083
 30
0.0
 11
624.3994428975033
 21
2952.762480629892
 31
0.0
  0
LINE
  5
119
330
20
100
AcDbEntity
  8
_0-0_
  6
Continuous
 62
     4
100
AcDbLine
 10
500.611099979964
 20
1255.944700460829
 30
0.0
 11
494.3994428975034
 21
1279.126920291767
 31
0.0
  0
LINE
  5
11A
330
20
100
AcDbEntity
  8
_0-0_
  6
Continuous
 62
     4
100
AcDbLine
 10
500.611099979964
 20
1255.944700460829
 30
0.0
 11
506.8227570624244
 21
1279.126920291767
 31
0.0
  0
LINE
  5
11B
330
20
100
AcDbEntity
  8
_0-0_
  6
Continuous
 62
     4
100
AcDbLine
 10
500.611099979964
 20
3075.94470046083
 30
0.0
 11
506.8227570624244
 21
3052.762480629892
 31
0.0
  0
LINE
  5
11C
330
20
100
AcDbEntity
  8
_0-0_
  6
Continuous
 62
     4
100
AcDbLine
 10
500.611099979964
 20
3075.94470046083
 30
0.0
 11
494.3994428975034
 21
3052.762480629892
 31
0.0
  0
TEXT
  5
11D
330
20
100
AcDbEntity
  8
_0-0_
 62
     7
100
AcDbText
 10
620.5457078555353
 20
2937.321001127773
 30
0.0
 40
60.0
  1
100
 50
90.0
100
AcDbText
  0
LINE
  5
11E
330
20
100
AcDbEntity
  8
_0-0_
  6
Continuous
 62
     4
100
AcDbLine
 10
630.6110999799638
 20
2975.94470046083
 30
0.0
 11
624.3994428975033
 21
2999.126920291767
 31
0.0
  0
LINE
  5
11F
330
20
100
AcDbEntity
  8
_0-0_
  6
Continuous
 62
     4
100
AcDbLine
 10
630.6110999799638
 20
2975.94470046083
 30
0.0
 11
636.8227570624244
 21
2999.126920291767
 31
0.0
  0
TEXT
  5
120
330
20
100
AcDbEntity
  8
_0-0_
 62
     7
100
AcDbText
 10
483.3398349587398
 20
2105.686850284
 30
0.0
 40
60.0
  1
1820
 50
90.0
100
AcDbText
  0
TEXT
  5
121
330
20
100
AcDbEntity
  8
_0-0_
 62
     7
100
AcDbText
 10
617.1293537670132
 20
2052.17104276069
 30
0.0
 40
60.0
  1
1720
 50
90.0
100
AcDbText
  0
LINE
  5
122
330
20
100
AcDbEntity
  8
_0-0_
  6
Continuous
 62
     4
100
AcDbLine
 10
1140.611099979964
 20
2855.94470046083
 30
0.0
 11
750.6110999799638
 21
2855.94470046083
 31
0.0
  0
LINE
  5
123
330
20
100
AcDbEntity
  8
_0-0_
  6
Continuous
 62
     4
100
AcDbLine
 10
760.6110999799637
 20
2855.94470046083
 30
0.0
 11
760.6110999799637
 21
1355.944700460829
 31
0.0
  0
LINE
  5
124
330
20
100
AcDbEntity
  8
_0-0_
  6
Continuous
 62
     4
100
AcDbLine
 10
760.6110999799637
 20
2975.94470046083
 30
0.0
 11
760.6110999799637
 21
2855.94470046083
 31
0.0
  0
TEXT
  5
125
330
20
100
AcDbEntity
  8
_0-0_
 62
     7
100
AcDbText
 10
745.8155610331153
 20
2828.22047599649
 30
0.0
 40
60.0
  1
120
 50
90.0
100
AcDbText
  0
TEXT
  5
126
330
20
100
AcDbEntity
  8
_0-0_
 62
     7
100
AcDbText
 10
745.8155610331153
 20
2045.709677419355
 30
0.0
 40
60.0
  1
1500
 50
90.0
100
AcDbText
  0
LINE
  5
127
330
20
100
AcDbEntity
  8
_0-0_
  6
Continuous
 62
     4
100
AcDbLine
 10
760.6110999799637
 20
2855.94470046083
 30
0.0
 11
754.3994428975033
 21
2879.126920291767
 31
0.0
  0
LINE
  5
128
330
20
100
AcDbEntity
  8
_0-0_
  6
Continuous
 62
     4
100
AcDbLine
 10
760.6110999799637
 20
2855.94470046083
 30
0.0
 11
766.8227570624243
 21
2879.126920291767
 31
0.0
  0
LINE
  5
129
330
20
100
AcDbEntity
  8
_0-0_
  6
Continuous
 62
     4
100
AcDbLine
 10
760.6110999799637
 20
2855.94470046083
 30
0.0
 11
766.8227570624243
 21
2832.762480629892
 31
0.0
  0
LINE
  5
12A
330
20
100
AcDbEntity
  8
_0-0_
  6
Continuous
 62
     4
100
AcDbLine
 10
760.6110999799637
 20
2855.94470046083
 30
0.0
 11
754.3994428975033
 21
2832.762480629892
 31
0.0
  0
LINE
  5
12B
330
20
100
AcDbEntity
  8
_0-0_
  6
Continuous
 62
     4
100
AcDbLine
 10
3826.521249359958
 20
3362.258064516129
 30
0.0
 11
5226.521249359958
 21
3362.258064516129
 31
0.0
  0
LINE
  5
12C
330
20
100
AcDbEntity
  8
_0-0_
  6
Continuous
 62
     4
100
AcDbLine
 10
3426.521249359959
 20
2962.258064516129
 30
0.0
 11
3426.521249359959
 21
1562.258064516129
 31
0.0
  0
LINE
  5
12D
330
20
100
AcDbEntity
  8
_0-0_
  6
Continuous
 62
     4
100
AcDbLine
 10
5226.521249359958
 20
2982.258064516129
 30
0.0
 11
5226.521249359958
 21
3372.25806451613
 31
0.0
  0
LINE
  5
12E
330
20
100
AcDbEntity
  8
_0-0_
  6
Continuous
 62
     4
100
AcDbLine
 10
3826.521249359958
 20
2982.258064516129
 30
0.0
 11
3826.521249359958
 21
3372.25806451613
 31
0.0
  0
LINE
  5
12F
330
20
100
AcDbEntity
  8
_0-0_
  6
Continuous
 62
     4
100
AcDbLine
 10
3806.521249359958
 20
2962.258064516129
 30
0.0
 11
3416.521249359958
 21
2962.258064516129
 31
0.0
  0
LINE
  5
130
330
20
100
AcDbEntity
  8
_0-0_
  6
Continuous
 62
     4
100
AcDbLine
 10
3806.521249359958
 20
1562.258064516129
 30
0.0
 11
3416.521249359958
 21
1562.258064516129
 31
0.0
  0
LINE
  5
131
330
20
100
AcDbEntity
  8
_0-0_
  6
Continuous
 62
     7
100
AcDbLine
 10
3826.521249359958
 20
1572.258064516129
 30
0.0
 11
3836.521249359959
 21
1562.258064516129
 31
0.0
  0
LINE
  5
132
330
20
100
AcDbEntity
  8
_0-0_
  6
Continuous
 62
     7
100
AcDbLine
 10
3826.521249359958
 20
2952.25806451613
 30
0.0
 11
3826.521249359958
 21
1572.258064516129
 31
0.0
  0
LINE
  5
133
330
20
100
AcDbEntity
  8
_0-0_
  6
Continuous
 62
     7
100
AcDbLine
 10
3836.521249359959
 20
2962.258064516129
 30
0.0
 11
3826.521249359958
 21
2952.25806451613
 31
0.0
  0
LINE
  5
134
330
20
100
AcDbEntity
  8
_0-0_
  6
Continuous
 62
     7
100
AcDbLine
 10
3836.521249359959
 20
2962.258064516129
 30
0.0
 11
5216.521249359957
 21
2962.258064516129
 31
0.0
  0
LINE
  5
135
330
20
100
AcDbEntity
  8
_0-0_
  6
Continuous
 62
     7
100
AcDbLine
 10
5216.521249359957
 20
2962.258064516129
 30
0.0
 11
5226.521249359958
 21
2952.25806451613
 31
0.0
  0
LINE
  5
136
330
20
100
AcDbEntity
  8
_0-0_
  6
Continuous
 62
     7
100
AcDbLine
 10
5226.521249359958
 20
2952.25806451613
 30
0.0
 11
5226.521249359958
 21
1572.258064516129
 31
0.0
  0
LINE
  5
137
330
20
100
AcDbEntity
  8
_0-0_
  6
Continuous
 62
     7
100
AcDbLine
 10
5226.521249359958
 20
1572.258064516129
 30
0.0
 11
5216.521249359957
 21
1562.258064516129
 31
0.0
  0
LINE
  5
138
330
20
100
AcDbEntity
  8
_0-0_
  6
Continuous
 62
     7
100
AcDbLine
 10
3836.521249359959
 20
1562.258064516129
 30
0.0
 11
5216.521249359957
 21
1562.258064516129
 31
0.0
  0
LINE
  5
139
330
20
100
AcDbEntity
  8
_0-0_
  6
DASHED1
 62
   136
100
AcDbLine
 10
3976.521249359958
 20
2862.258064516129
 30
0.0
 11
3976.521249359958
 21
1662.258064516129
 31
0.0
  0
LINE
  5
13A
330
20
100
AcDbEntity
  8
_0-0_
  6
DASHED1
 62
   136
100
AcDbLine
 10
3926.521249359959
 20
2812.258064516129
 30
0.0
 11
5126.521249359957
 21
2812.258064516129
 31
0.0
  0
LINE
  5
13B
330
20
100
AcDbEntity
  8
_0-0_
  6
DASHED1
 62
   136
100
AcDbLine
 10
5076.521249359958
 20
2862.258064516129
 30
0.0
 11
5076.521249359958
 21
1662.258064516129
 31
0.0
  0
LINE
  5
13C
330
20
100
AcDbEntity
  8
_0-0_
  6
DASHED1
 62
   136
100
AcDbLine
 10
3926.521249359959
 20
1712.258064516129
 30
0.0
 11
5126.521249359957
 21
1712.258064516129
 31
0.0
  0
LINE
  5
13D
330
20
100
AcDbEntity
  8
_0-0_
  6
DASHED1
 62
   136
100
AcDbLine
 10
3976.521249359958
 20
2862.258064516129
 30
0.0
 11
3926.521249359959
 21
2812.258064516129
 31
0.0
  0
LINE
  5
13E
330
20
100
AcDbEntity
  8
_0-0_
  6
DASHED1
 62
   136
100
AcDbLine
 10
3976.521249359958
 20
2862.258064516129
 30
0.0
 11
5076.521249359958
 21
2862.258064516129
 31
0.0
  0
LINE
  5
13F
330
20
100
AcDbEntity
  8
_0-0_
  6
DASHED1
 62
   136
100
AcDbLine
 10
5076.521249359958
 20
2862.258064516129
 30
0.0
 11
5126.521249359957
 21
2812.258064516129
 31
0.0
  0
LINE
  5
140
330
20
100
AcDbEntity
  8
_0-0_
  6
DASHED1
 62
   136
100
AcDbLine
 10
5126.521249359957
 20
2812.258064516129
 30
0.0
 11
5126.521249359957
 21
1712.258064516129
 31
0.0
  0
LINE
  5
141
330
20
100
AcDbEntity
  8
_0-0_
  6
DASHED1
 62
   136
100
AcDbLine
 10
5126.521249359957
 20
1712.258064516129
 30
0.0
 11
5076.521249359958
 21
1662.258064516129
 31
0.0
  0
LINE
  5
142
330
20
100
AcDbEntity
  8
_0-0_
  6
DASHED1
 62
   136
100
AcDbLine
 10
3976.521249359958
 20
1662.258064516129
 30
0.0
 11
5076.521249359958
 21
1662.258064516129
 31
0.0
  0
LINE
  5
143
330
20
100
AcDbEntity
  8
_0-0_
  6
DASHED1
 62
   136
100
AcDbLine
 10
3926.521249359959
 20
1712.258064516129
 30
0.0
 11
3976.521249359958
 21
1662.258064516129
 31
0.0
  0
LINE
  5
144
330
20
100
AcDbEntity
  8
_0-0_
  6
DASHED1
 62
   136
100
AcDbLine
 10
3926.521249359959
 20
2812.258064516129
 30
0.0
 11
3926.521249359959
 21
1712.258064516129
 31
0.0
  0
LINE
  5
145
330
20
100
AcDbEntity
  8
_0-0_
  6
DASHED1
 62
   136
100
AcDbLine
 10
1160.611099979964
 20
1775.944700460829
 30
0.0
 11
1190.611099979964
 21
1765.944700460829
 31
0.0
  0
LINE
  5
146
330
20
100
AcDbEntity
  8
_0-0_
  6
DASHED1
 62
   136
100
AcDbLine
 10
1190.611099979964
 20
1765.944700460829
 30
0.0
 11
1190.611099979964
 21
1415.944700460829
 31
0.0
  0
LINE
  5
147
330
20
100
AcDbEntity
  8
_0-0_
  6
DASHED1
 62
   136
100
AcDbLine
 10
1190.611099979964
 20
1415.944700460829
 30
0.0
 11
1160.611099979964
 21
1406.611307876137
 31
0.0
  0
LINE
  5
148
330
20
100
AcDbEntity
  8
_0-0_
  6
DASHED1
 62
   136
100
AcDbLine
 10
2560.611099979964
 20
1775.944700460829
 30
0.0
 11
2530.611099979964
 21
1765.944700460829
 31
0.0
  0
LINE
  5
149
330
20
100
AcDbEntity
  8
_0-0_
  6
DASHED1
 62
   136
100
AcDbLine
 10
2530.611099979964
 20
1765.944700460829
 30
0.0
 11
2530.611099979964
 21
1415.944700460829
 31
0.0
  0
LINE
  5
14A
330
20
100
AcDbEntity
  8
_0-0_
  6
DASHED1
 62
   136
100
AcDbLine
 10
2530.611099979964
 20
1415.944700460829
 30
0.0
 11
2560.611099979964
 21
1405.944700460829
 31
0.0
  0
LINE
  5
14B
330
20
100
AcDbEntity
  8
_0-0_
  6
Continuous
 62
     4
100
AcDbLine
 10
3926.521249359959
 20
2982.258064516129
 30
0.0
 11
3926.521249359959
 21
3242.258064516129
 31
0.0
  0
LINE
  5
14C
330
20
100
AcDbEntity
  8
_0-0_
  6
Continuous
 62
     4
100
AcDbLine
 10
5126.521249359957
 20
2982.258064516129
 30
0.0
 11
5126.521249359957
 21
3242.258064516129
 31
0.0
  0
LINE
  5
14D
330
20
100
AcDbEntity
  8
_0-0_
  6
Continuous
 62
     4
100
AcDbLine
 10
3826.521249359958
 20
3232.25806451613
 30
0.0
 11
3926.521249359959
 21
3232.25806451613
 31
0.0
  0
LINE
  5
14E
330
20
100
AcDbEntity
  8
_0-0_
  6
Continuous
 62
     4
100
AcDbLine
 10
5126.521249359957
 20
3232.25806451613
 30
0.0
 11
5226.521249359958
 21
3232.25806451613
 31
0.0
  0
LINE
  5
14F
330
20
100
AcDbEntity
  8
_0-0_
  6
Continuous
 62
     4
100
AcDbLine
 10
5126.521249359957
 20
3232.25806451613
 30
0.0
 11
3926.521249359959
 21
3232.25806451613
 31
0.0
  0
LINE
  5
150
330
20
100
AcDbEntity
  8
_0-0_
  6
Continuous
 62
     4
100
AcDbLine
 10
3976.521249359958
 20
2982.258064516129
 30
0.0
 11
3976.521249359958
 21
3112.258064516129
 31
0.0
  0
LINE
  5
151
330
20
100
AcDbEntity
  8
_0-0_
  6
Continuous
 62
     4
100
AcDbLine
 10
5076.521249359958
 20
2982.258064516129
 30
0.0
 11
5076.521249359958
 21
3112.258064516129
 31
0.0
  0
LINE
  5
152
330
20
100
AcDbEntity
  8
_0-0_
  6
Continuous
 62
     4
100
AcDbLine
 10
3876.521249359959
 20
3102.25806451613
 30
0.0
 11
3926.521249359959
 21
3102.25806451613
 31
0.0
  0
LINE
  5
153
330
20
100
AcDbEntity
  8
_0-0_
  6
Continuous
 62
     4
100
AcDbLine
 10
3976.521249359958
 20
3102.25806451613
 30
0.0
 11
4026.521249359958
 21
3102.25806451613
 31
0.0
  0
LINE
  5
154
330
20
100
AcDbEntity
  8
_0-0_
  6
Continuous
 62
     4
100
AcDbLine
 10
5026.521249359958
 20
3102.25806451613
 30
0.0
 11
5076.521249359958
 21
3102.25806451613
 31
0.0
  0
LINE
  5
155
330
20
100
AcDbEntity
  8
_0-0_
  6
Continuous
 62
     4
100
AcDbLine
 10
5126.521249359957
 20
3102.25806451613
 30
0.0
 11
5176.521249359957
 21
3102.25806451613
 31
0.0
  0
LINE
  5
156
330
20
100
AcDbEntity
  8
_0-0_
  6
Continuous
 62
     4
100
AcDbLine
 10
3976.521249359958
 20
3102.25806451613
 30
0.0
 11
3926.521249359959
 21
3102.25806451613
 31
0.0
  0
LINE
  5
157
330
20
100
AcDbEntity
  8
_0-0_
  6
Continuous
 62
     4
100
AcDbLine
 10
5126.521249359957
 20
3102.25806451613
 30
0.0
 11
5076.521249359958
 21
3102.25806451613
 31
0.0
  0
LINE
  5
158
330
20
100
AcDbEntity
  8
_0-0_
  6
Continuous
 62
     4
100
AcDbLine
 10
5226.521249359958
 20
3362.258064516129
 30
0.0
 11
5203.339029529021
 21
3356.046407433669
 31
0.0
  0
LINE
  5
159
330
20
100
AcDbEntity
  8
_0-0_
  6
Continuous
 62
     4
100
AcDbLine
 10
5226.521249359958
 20
3362.258064516129
 30
0.0
 11
5203.339029529021
 21
3368.469721598589
 31
0.0
  0
LINE
  5
15A
330
20
100
AcDbEntity
  8
_0-0_
  6
Continuous
 62
     4
100
AcDbLine
 10
3826.521249359958
 20
3362.258064516129
 30
0.0
 11
3849.703469190897
 21
3368.469721598589
 31
0.0
  0
LINE
  5
15B
330
20
100
AcDbEntity
  8
_0-0_
  6
Continuous
 62
     4
100
AcDbLine
 10
3826.521249359958
 20
3362.258064516129
 30
0.0
 11
3849.703469190897
 21
3356.046407433669
 31
0.0
  0
LINE
  5
15C
330
20
100
AcDbEntity
  8
_0-0_
  6
Continuous
 62
     4
100
AcDbLine
 10
3826.521249359958
 20
3232.25806451613
 30
0.0
 11
3849.703469190897
 21
3238.469721598589
 31
0.0
  0
LINE
  5
15D
330
20
100
AcDbEntity
  8
_0-0_
  6
Continuous
 62
     4
100
AcDbLine
 10
3826.521249359958
 20
3232.25806451613
 30
0.0
 11
3849.703469190897
 21
3226.046407433668
 31
0.0
  0
LINE
  5
15E
330
20
100
AcDbEntity
  8
_0-0_
  6
Continuous
 62
     4
100
AcDbLine
 10
3926.521249359959
 20
3232.25806451613
 30
0.0
 11
3903.339029529021
 21
3226.046407433668
 31
0.0
  0
LINE
  5
15F
330
20
100
AcDbEntity
  8
_0-0_
  6
Continuous
 62
     4
100
AcDbLine
 10
3926.521249359959
 20
3232.25806451613
 30
0.0
 11
3903.339029529021
 21
3238.469721598589
 31
0.0
  0
LINE
  5
160
330
20
100
AcDbEntity
  8
_0-0_
  6
Continuous
 62
     4
100
AcDbLine
 10
3926.521249359959
 20
3232.25806451613
 30
0.0
 11
3949.703469190897
 21
3238.469721598589
 31
0.0
  0
LINE
  5
161
330
20
100
AcDbEntity
  8
_0-0_
  6
Continuous
 62
     4
100
AcDbLine
 10
3926.521249359959
 20
3232.25806451613
 30
0.0
 11
3949.703469190897
 21
3226.046407433668
 31
0.0
  0
LINE
  5
162
330
20
100
AcDbEntity
  8
_0-0_
  6
Continuous
 62
     4
100
AcDbLine
 10
5126.521249359957
 20
3232.25806451613
 30
0.0
 11
5103.339029529021
 21
3226.046407433668
 31
0.0
  0
LINE
  5
163
330
20
100
AcDbEntity
  8
_0-0_
  6
Continuous
 62
     4
100
AcDbLine
 10
5126.521249359957
 20
3232.25806451613
 30
0.0
 11
5103.339029529021
 21
3238.469721598589
 31
0.0
  0
LINE
  5
164
330
20
100
AcDbEntity
  8
_0-0_
  6
Continuous
 62
     4
100
AcDbLine
 10
5126.521249359957
 20
3232.25806451613
 30
0.0
 11
5149.703469190896
 21
3238.469721598589
 31
0.0
  0
LINE
  5
165
330
20
100
AcDbEntity
  8
_0-0_
  6
Continuous
 62
     4
100
AcDbLine
 10
5126.521249359957
 20
3232.25806451613
 30
0.0
 11
5149.703469190896
 21
3226.046407433668
 31
0.0
  0
LINE
  5
166
330
20
100
AcDbEntity
  8
_0-0_
  6
Continuous
 62
     4
100
AcDbLine
 10
5226.521249359958
 20
3232.25806451613
 30
0.0
 11
5203.339029529021
 21
3226.046407433668
 31
0.0
  0
LINE
  5
167
330
20
100
AcDbEntity
  8
_0-0_
  6
Continuous
 62
     4
100
AcDbLine
 10
5226.521249359958
 20
3232.25806451613
 30
0.0
 11
5203.339029529021
 21
3238.469721598589
 31
0.0
  0
LINE
  5
168
330
20
100
AcDbEntity
  8
_0-0_
  6
Continuous
 62
     4
100
AcDbLine
 10
5126.521249359957
 20
3102.25806451613
 30
0.0
 11
5149.703469190896
 21
3108.46972159859
 31
0.0
  0
LINE
  5
169
330
20
100
AcDbEntity
  8
_0-0_
  6
Continuous
 62
     4
100
AcDbLine
 10
5126.521249359957
 20
3102.25806451613
 30
0.0
 11
5149.703469190896
 21
3096.046407433669
 31
0.0
  0
LINE
  5
16A
330
20
100
AcDbEntity
  8
_0-0_
  6
Continuous
 62
     4
100
AcDbLine
 10
5076.521249359958
 20
3102.25806451613
 30
0.0
 11
5053.339029529021
 21
3096.046407433669
 31
0.0
  0
LINE
  5
16B
330
20
100
AcDbEntity
  8
_0-0_
  6
Continuous
 62
     4
100
AcDbLine
 10
5076.521249359958
 20
3102.25806451613
 30
0.0
 11
5053.339029529021
 21
3108.46972159859
 31
0.0
  0
LINE
  5
16C
330
20
100
AcDbEntity
  8
_0-0_
  6
Continuous
 62
     4
100
AcDbLine
 10
3976.521249359958
 20
3102.25806451613
 30
0.0
 11
3999.703469190897
 21
3108.46972159859
 31
0.0
  0
LINE
  5
16D
330
20
100
AcDbEntity
  8
_0-0_
  6
Continuous
 62
     4
100
AcDbLine
 10
3976.521249359958
 20
3102.25806451613
 30
0.0
 11
3999.703469190897
 21
3096.046407433669
 31
0.0
  0
LINE
  5
16E
330
20
100
AcDbEntity
  8
_0-0_
  6
Continuous
 62
     4
100
AcDbLine
 10
3926.521249359959
 20
3102.25806451613
 30
0.0
 11
3903.339029529021
 21
3096.046407433669
 31
0.0
  0
LINE
  5
16F
330
20
100
AcDbEntity
  8
_0-0_
  6
Continuous
 62
     4
100
AcDbLine
 10
3926.521249359959
 20
3102.25806451613
 30
0.0
 11
3903.339029529021
 21
3108.46972159859
 31
0.0
  0
TEXT
  5
170
330
20
100
AcDbEntity
  8
_0-0_
 62
     7
100
AcDbText
 10
4473.598372231307
 20
3376.56262609102
 30
0.0
 40
60.0
  1
1400
100
AcDbText
  0
TEXT
  5
171
330
20
100
AcDbEntity
  8
_0-0_
 62
     7
100
AcDbText
 10
4469.577528722207
 20
3245.885212045276
 30
0.0
 40
60.0
  1
1200
100
AcDbText
  0
TEXT
  5
172
330
20
100
AcDbEntity
  8
_0-0_
 62
     7
100
AcDbText
 10
5095.059960875943
 20
3247.895633799827
 30
0.0
 40
60.0
  1
100
100
AcDbText
  0
TEXT
  5
173
330
20
100
AcDbEntity
  8
_0-0_
 62
     7
100
AcDbText
 10
3852.979303370878
 20
3247.895633799827
 30
0.0
 40
60.0
  1
100
100
AcDbText
  0
TEXT
  5
174
330
20
100
AcDbEntity
  8
_0-0_
 62
     7
100
AcDbText
 10
3955.510812852923
 20
3115.207797999533
 30
0.0
 40
60.0
  1
50
100
AcDbText
  0
TEXT
  5
175
330
20
100
AcDbEntity
  8
_0-0_
 62
     7
100
AcDbText
 10
5022.684777712146
 20
3115.207797999533
 30
0.0
 40
60.0
  1
50
100
AcDbText
  0
LINE
  5
176
330
20
100
AcDbEntity
  8
_0-0_
  6
Continuous
 62
     4
100
AcDbLine
 10
3806.521249359958
 20
2862.258064516129
 30
0.0
 11
3546.521249359959
 21
2862.258064516129
 31
0.0
  0
LINE
  5
177
330
20
100
AcDbEntity
  8
_0-0_
  6
Continuous
 62
     4
100
AcDbLine
 10
3806.521249359958
 20
1662.258064516129
 30
0.0
 11
3546.521249359959
 21
1662.258064516129
 31
0.0
  0
LINE
  5
178
330
20
100
AcDbEntity
  8
_0-0_
  6
Continuous
 62
     4
100
AcDbLine
 10
3556.521249359958
 20
2962.258064516129
 30
0.0
 11
3556.521249359958
 21
2862.258064516129
 31
0.0
  0
LINE
  5
179
330
20
100
AcDbEntity
  8
_0-0_
  6
Continuous
 62
     4
100
AcDbLine
 10
3556.521249359958
 20
1662.258064516129
 30
0.0
 11
3556.521249359958
 21
1562.258064516129
 31
0.0
  0
LINE
  5
17A
330
20
100
AcDbEntity
  8
_0-0_
  6
Continuous
 62
     4
100
AcDbLine
 10
3556.521249359958
 20
2862.258064516129
 30
0.0
 11
3556.521249359958
 21
1662.258064516129
 31
0.0
  0
LINE
  5
17B
330
20
100
AcDbEntity
  8
_0-0_
  6
Continuous
 62
     4
100
AcDbLine
 10
3806.521249359958
 20
2812.258064516129
 30
0.0
 11
3676.521249359959
 21
2812.258064516129
 31
0.0
  0
LINE
  5
17C
330
20
100
AcDbEntity
  8
_0-0_
  6
Continuous
 62
     4
100
AcDbLine
 10
3806.521249359958
 20
1712.258064516129
 30
0.0
 11
3676.521249359959
 21
1712.258064516129
 31
0.0
  0
LINE
  5
17D
330
20
100
AcDbEntity
  8
_0-0_
  6
Continuous
 62
     4
100
AcDbLine
 10
3686.521249359959
 20
2912.258064516129
 30
0.0
 11
3686.521249359959
 21
2862.258064516129
 31
0.0
  0
LINE
  5
17E
330
20
100
AcDbEntity
  8
_0-0_
  6
Continuous
 62
     4
100
AcDbLine
 10
3686.521249359959
 20
2812.258064516129
 30
0.0
 11
3686.521249359959
 21
2762.258064516129
 31
0.0
  0
LINE
  5
17F
330
20
100
AcDbEntity
  8
_0-0_
  6
Continuous
 62
     4
100
AcDbLine
 10
3686.521249359959
 20
1762.258064516129
 30
0.0
 11
3686.521249359959
 21
1712.258064516129
 31
0.0
  0
LINE
  5
180
330
20
100
AcDbEntity
  8
_0-0_
  6
Continuous
 62
     4
100
AcDbLine
 10
3686.521249359959
 20
1662.258064516129
 30
0.0
 11
3686.521249359959
 21
1612.258064516129
 31
0.0
  0
LINE
  5
181
330
20
100
AcDbEntity
  8
_0-0_
  6
Continuous
 62
     4
100
AcDbLine
 10
3686.521249359959
 20
2862.258064516129
 30
0.0
 11
3686.521249359959
 21
2812.258064516129
 31
0.0
  0
LINE
  5
182
330
20
100
AcDbEntity
  8
_0-0_
  6
Continuous
 62
     4
100
AcDbLine
 10
3686.521249359959
 20
1712.258064516129
 30
0.0
 11
3686.521249359959
 21
1662.258064516129
 31
0.0
  0
LINE
  5
183
330
20
100
AcDbEntity
  8
_0-0_
  6
Continuous
 62
     4
100
AcDbLine
 10
3686.521249359959
 20
2862.258064516129
 30
0.0
 11
3680.309592277497
 21
2885.440284347067
 31
0.0
  0
LINE
  5
184
330
20
100
AcDbEntity
  8
_0-0_
  6
Continuous
 62
     4
100
AcDbLine
 10
3686.521249359959
 20
2862.258064516129
 30
0.0
 11
3692.732906442419
 21
2885.440284347067
 31
0.0
  0
LINE
  5
185
330
20
100
AcDbEntity
  8
_0-0_
  6
Continuous
 62
     4
100
AcDbLine
 10
3686.521249359959
 20
2812.258064516129
 30
0.0
 11
3692.732906442419
 21
2789.075844685191
 31
0.0
  0
LINE
  5
186
330
20
100
AcDbEntity
  8
_0-0_
  6
Continuous
 62
     4
100
AcDbLine
 10
3686.521249359959
 20
2812.258064516129
 30
0.0
 11
3680.309592277497
 21
2789.075844685191
 31
0.0
  0
LINE
  5
187
330
20
100
AcDbEntity
  8
_0-0_
  6
Continuous
 62
     4
100
AcDbLine
 10
3556.521249359958
 20
2962.258064516129
 30
0.0
 11
3562.73290644242
 21
2939.075844685192
 31
0.0
  0
LINE
  5
188
330
20
100
AcDbEntity
  8
_0-0_
  6
Continuous
 62
     4
100
AcDbLine
 10
3556.521249359958
 20
2962.258064516129
 30
0.0
 11
3550.309592277499
 21
2939.075844685192
 31
0.0
  0
LINE
  5
189
330
20
100
AcDbEntity
  8
_0-0_
  6
Continuous
 62
     4
100
AcDbLine
 10
3556.521249359958
 20
2862.258064516129
 30
0.0
 11
3550.309592277499
 21
2885.440284347067
 31
0.0
  0
LINE
  5
18A
330
20
100
AcDbEntity
  8
_0-0_
  6
Continuous
 62
     4
100
AcDbLine
 10
3556.521249359958
 20
2862.258064516129
 30
0.0
 11
3562.73290644242
 21
2885.440284347067
 31
0.0
  0
LINE
  5
18B
330
20
100
AcDbEntity
  8
_0-0_
  6
Continuous
 62
     4
100
AcDbLine
 10
3556.521249359958
 20
2862.258064516129
 30
0.0
 11
3562.73290644242
 21
2839.075844685192
 31
0.0
  0
LINE
  5
18C
330
20
100
AcDbEntity
  8
_0-0_
  6
Continuous
 62
     4
100
AcDbLine
 10
3556.521249359958
 20
2862.258064516129
 30
0.0
 11
3550.309592277499
 21
2839.075844685192
 31
0.0
  0
LINE
  5
18D
330
20
100
AcDbEntity
  8
_0-0_
  6
Continuous
 62
     4
100
AcDbLine
 10
3426.521249359959
 20
2962.258064516129
 30
0.0
 11
3432.732906442419
 21
2939.075844685192
 31
0.0
  0
LINE
  5
18E
330
20
100
AcDbEntity
  8
_0-0_
  6
Continuous
 62
     4
100
AcDbLine
 10
3426.521249359959
 20
2962.258064516129
 30
0.0
 11
3420.309592277499
 21
2939.075844685192
 31
0.0
  0
LINE
  5
18F
330
20
100
AcDbEntity
  8
_0-0_
  6
Continuous
 62
     4
100
AcDbLine
 10
3426.521249359959
 20
1562.258064516129
 30
0.0
 11
3420.309592277499
 21
1585.440284347066
 31
0.0
  0
LINE
  5
190
330
20
100
AcDbEntity
  8
_0-0_
  6
Continuous
 62
     4
100
AcDbLine
 10
3426.521249359959
 20
1562.258064516129
 30
0.0
 11
3432.732906442419
 21
1585.440284347066
 31
0.0
  0
LINE
  5
191
330
20
100
AcDbEntity
  8
_0-0_
  6
Continuous
 62
     4
100
AcDbLine
 10
3556.521249359958
 20
1562.258064516129
 30
0.0
 11
3550.309592277499
 21
1585.440284347066
 31
0.0
  0
LINE
  5
192
330
20
100
AcDbEntity
  8
_0-0_
  6
Continuous
 62
     4
100
AcDbLine
 10
3556.521249359958
 20
1562.258064516129
 30
0.0
 11
3562.73290644242
 21
1585.440284347066
 31
0.0
  0
LINE
  5
193
330
20
100
AcDbEntity
  8
_0-0_
  6
Continuous
 62
     4
100
AcDbLine
 10
3556.521249359958
 20
1662.258064516129
 30
0.0
 11
3562.73290644242
 21
1639.075844685191
 31
0.0
  0
LINE
  5
194
330
20
100
AcDbEntity
  8
_0-0_
  6
Continuous
 62
     4
100
AcDbLine
 10
3556.521249359958
 20
1662.258064516129
 30
0.0
 11
3550.309592277499
 21
1639.075844685191
 31
0.0
  0
LINE
  5
195
330
20
100
AcDbEntity
  8
_0-0_
  6
Continuous
 62
     4
100
AcDbLine
 10
3556.521249359958
 20
1662.258064516129
 30
0.0
 11
3550.309592277499
 21
1685.440284347066
 31
0.0
  0
LINE
  5
196
330
20
100
AcDbEntity
  8
_0-0_
  6
Continuous
 62
     4
100
AcDbLine
 10
3556.521249359958
 20
1662.258064516129
 30
0.0
 11
3562.73290644242
 21
1685.440284347066
 31
0.0
  0
LINE
  5
197
330
20
100
AcDbEntity
  8
_0-0_
  6
Continuous
 62
     4
100
AcDbLine
 10
3686.521249359959
 20
1662.258064516129
 30
0.0
 11
3692.732906442419
 21
1639.075844685191
 31
0.0
  0
LINE
  5
198
330
20
100
AcDbEntity
  8
_0-0_
  6
Continuous
 62
     4
100
AcDbLine
 10
3686.521249359959
 20
1662.258064516129
 30
0.0
 11
3680.309592277497
 21
1639.075844685191
 31
0.0
  0
LINE
  5
199
330
20
100
AcDbEntity
  8
_0-0_
  6
Continuous
 62
     4
100
AcDbLine
 10
3686.521249359959
 20
1712.258064516129
 30
0.0
 11
3680.309592277497
 21
1735.440284347066
 31
0.0
  0
LINE
  5
19A
330
20
100
AcDbEntity
  8
_0-0_
  6
Continuous
 62
     4
100
AcDbLine
 10
3686.521249359959
 20
1712.258064516129
 30
0.0
 11
3692.732906442419
 21
1735.440284347066
 31
0.0
  0
TEXT
  5
19B
330
20
100
AcDbEntity
  8
_0-0_
 62
     7
100
AcDbText
 10
3409.298574643661
 20
2198.564998392455
 30
0.0
 40
60.0
  1
1400
 50
90.0
100
AcDbText
  0
TEXT
  5
19C
330
20
100
AcDbEntity
  8
_0-0_
 62
     7
100
AcDbText
 10
3536.669167291824
 20
2198.564998392455
 30
0.0
 40
60.0
  1
1200
 50
90.0
100
AcDbText
  0
TEXT
  5
19D
330
20
100
AcDbEntity
  8
_0-0_
 62
     7
100
AcDbText
 10
3541.867966991749
 20
1581.314010411978
 30
0.0
 40
60.0
  1
100
 50
90.0
100
AcDbText
  0
TEXT
  5
19E
330
20
100
AcDbEntity
  8
_0-0_
 62
     7
100
AcDbText
 10
3541.867966991749
 20
2833.784294571564
 30
0.0
 40
60.0
  1
100
 50
90.0
100
AcDbText
  0
TEXT
  5
19F
330
20
100
AcDbEntity
  8
_0-0_
 62
     7
100
AcDbText
 10
3671.837959489872
 20
2761.001098772614
 30
0.0
 40
60.0
  1
50
 50
90.0
100
AcDbText
  0
TEXT
  5
1A0
330
20
100
AcDbEntity
  8
_0-0_
 62
     7
100
AcDbText
 10
3669.23855963991
 20
1685.290004410478
 30
0.0
 40
60.0
  1
50
 50
90.0
100
AcDbText
  0
LINE
  5
1A1
330
20
100
AcDbEntity
  8
_0-0_
  6
DASHED1
 62
   136
100
AcDbLine
 10
4136.521249359958
 20
2932.258064516129
 30
0.0
 11
4916.521249359957
 21
2932.258064516129
 31
0.0
  0
LINE
  5
1A2
330
20
100
AcDbEntity
  8
_0-0_
  6
DASHED1
 62
   136
100
AcDbLine
 10
4136.521249359958
 20
1592.258064516129
 30
0.0
 11
4916.521249359957
 21
1592.258064516129
 31
0.0
  0
LINE
  5
1A3
330
20
100
AcDbEntity
  8
_0-0_
  6
DASHED1
 62
   136
100
AcDbLine
 10
4126.521249359958
 20
2962.258064516129
 30
0.0
 11
4136.521249359958
 21
2932.258064516129
 31
0.0
  0
LINE
  5
1A4
330
20
100
AcDbEntity
  8
_0-0_
  6
DASHED1
 62
   136
100
AcDbLine
 10
4926.521249359957
 20
2962.258064516129
 30
0.0
 11
4916.521249359957
 21
2932.258064516129
 31
0.0
  0
LINE
  5
1A5
330
20
100
AcDbEntity
  8
_0-0_
  6
DASHED1
 62
   136
100
AcDbLine
 10
4136.521249359958
 20
1592.258064516129
 30
0.0
 11
4126.521249359958
 21
1562.258064516129
 31
0.0
  0
LINE
  5
1A6
330
20
100
AcDbEntity
  8
_0-0_
  6
DASHED1
 62
   136
100
AcDbLine
 10
4916.521249359957
 20
1592.258064516129
 30
0.0
 11
4926.521249359957
 21
1562.258064516129
 31
0.0
  0
LINE
  5
1A7
330
20
100
AcDbEntity
  8
_0-0_
  6
DASHED1
 62
   136
100
AcDbLine
 10
3856.521249359958
 20
2652.258064516129
 30
0.0
 11
3826.521249359958
 21
2662.258064516129
 31
0.0
  0
LINE
  5
1A8
330
20
100
AcDbEntity
  8
_0-0_
  6
DASHED1
 62
   136
100
AcDbLine
 10
3856.521249359958
 20
2652.258064516129
 30
0.0
 11
3856.521249359958
 21
1872.258064516129
 31
0.0
  0
LINE
  5
1A9
330
20
100
AcDbEntity
  8
_0-0_
  6
DASHED1
 62
   136
100
AcDbLine
 10
3856.521249359958
 20
1872.258064516129
 30
0.0
 11
3826.521249359958
 21
1862.258064516129
 31
0.0
  0
LINE
  5
1AA
330
20
100
AcDbEntity
  8
_0-0_
  6
DASHED1
 62
   136
100
AcDbLine
 10
5226.521249359958
 20
2662.258064516129
 30
0.0
 11
5196.521249359957
 21
2652.258064516129
 31
0.0
  0
LINE
  5
1AB
330
20
100
AcDbEntity
  8
_0-0_
  6
DASHED1
 62
   136
100
AcDbLine
 10
5196.521249359957
 20
2652.258064516129
 30
0.0
 11
5196.521249359957
 21
1872.258064516129
 31
0.0
  0
LINE
  5
1AC
330
20
100
AcDbEntity
  8
_0-0_
  6
DASHED1
 62
   136
100
AcDbLine
 10
5196.521249359957
 20
1872.258064516129
 30
0.0
 11
5226.521249359958
 21
1862.258064516129
 31
0.0
  0
LINE
  5
1AD
330
20
100
AcDbEntity
  8
_0-0_
  6
DASHED1
 62
   136
100
AcDbLine
 10
1321.282210893562
 20
2975.94470046083
 30
0.0
 11
1321.282210893562
 21
3075.94470046083
 31
0.0
  0
LINE
  5
1AE
330
20
100
AcDbEntity
  8
_0-0_
  6
DASHED1
 62
   136
100
AcDbLine
 10
1921.282210893562
 20
2975.94470046083
 30
0.0
 11
1921.282210893562
 21
3075.94470046083
 31
0.0
  0
LINE
  5
1AF
330
20
100
AcDbEntity
  8
_0-0_
  6
Continuous
 62
     7
100
AcDbLine
 10
1190.807179702034
 20
3066.444076630269
 30
0.0
 11
1186.282210893562
 21
2975.94470046083
 31
0.0
  0
ARC
  5
1B0
330
20
100
AcDbEntity
  8
_0-0_
  6
Continuous
 62
     7
100
AcDbCircle
 10
1200.794703090813
 20
3065.94470046083
 30
0.0
 40
10.0
100
AcDbArc
 50
90.0
 51
177.1375947738882
  0
LINE
  5
1B1
330
20
100
AcDbEntity
  8
_0-0_
  6
Continuous
 62
     7
100
AcDbLine
 10
2041.769718696312
 20
3075.94470046083
 30
0.0
 11
1200.794703090813
 21
3075.94470046083
 31
0.0
  0
LINE
  5
1B2
330
20
100
AcDbEntity
  8
_0-0_
  6
Continuous
 62
     7
100
AcDbLine
 10
2051.757242085091
 20
3066.444076630269
 30
0.0
 11
2056.282210893562
 21
2975.94470046083
 31
0.0
  0
ARC
  5
1B3
330
20
100
AcDbEntity
  8
_0-0_
  6
Continuous
 62
     7
100
AcDbCircle
 10
2041.769718696312
 20
3065.94470046083
 30
0.0
 40
10.0
100
AcDbArc
 50
2.862405226111732
 51
90.00000000000003
  0
LINE
  5
1B4
330
20
100
AcDbEntity
  8
_0-0_
  6
Continuous
 62
     4
100
AcDbLine
 10
1921.282210893562
 20
3095.94470046083
 30
0.0
 11
1921.282210893562
 21
3225.94470046083
 31
0.0
  0
LINE
  5
1B5
330
20
100
AcDbEntity
  8
_0-0_
  6
Continuous
 62
     4
100
AcDbLine
 10
1321.282210893562
 20
3215.94470046083
 30
0.0
 11
1186.282210893562
 21
3215.94470046083
 31
0.0
  0
LINE
  5
1B6
330
20
100
AcDbEntity
  8
_0-0_
  6
Continuous
 62
     4
100
AcDbLine
 10
2056.282210893562
 20
3225.94470046083
 30
0.0
 11
2056.282210893562
 21
3355.94470046083
 31
0.0
  0
LINE
  5
1B7
330
20
100
AcDbEntity
  8
_0-0_
  6
Continuous
 62
     4
100
AcDbLine
 10
1321.282210893562
 20
3215.94470046083
 30
0.0
 11
1921.282210893562
 21
3215.94470046083
 31
0.0
  0
LINE
  5
1B8
330
20
100
AcDbEntity
  8
_0-0_
  6
Continuous
 62
     4
100
AcDbLine
 10
1921.282210893562
 20
3215.94470046083
 30
0.0
 11
2056.282210893562
 21
3215.94470046083
 31
0.0
  0
LINE
  5
1B9
330
20
100
AcDbEntity
  8
_0-0_
  6
Continuous
 62
     4
100
AcDbLine
 10
1921.282210893562
 20
3215.94470046083
 30
0.0
 11
1944.4644307245
 21
3222.15635754329
 31
0.0
  0
LINE
  5
1BA
330
20
100
AcDbEntity
  8
_0-0_
  6
Continuous
 62
     4
100
AcDbLine
 10
1921.282210893562
 20
3215.94470046083
 30
0.0
 11
1944.4644307245
 21
3209.733043378369
 31
0.0
  0
LINE
  5
1BB
330
20
100
AcDbEntity
  8
_0-0_
  6
Continuous
 62
     4
100
AcDbLine
 10
1921.282210893562
 20
3215.94470046083
 30
0.0
 11
1898.099991062624
 21
3209.733043378369
 31
0.0
  0
LINE
  5
1BC
330
20
100
AcDbEntity
  8
_0-0_
  6
Continuous
 62
     4
100
AcDbLine
 10
1921.282210893562
 20
3215.94470046083
 30
0.0
 11
1898.099991062624
 21
3222.15635754329
 31
0.0
  0
LINE
  5
1BD
330
20
100
AcDbEntity
  8
_0-0_
  6
Continuous
 62
     4
100
AcDbLine
 10
1186.282210893562
 20
3345.94470046083
 30
0.0
 11
2056.282210893562
 21
3345.94470046083
 31
0.0
  0
LINE
  5
1BE
330
20
100
AcDbEntity
  8
_0-0_
  6
Continuous
 62
     4
100
AcDbLine
 10
1186.282210893562
 20
3095.94470046083
 30
0.0
 11
1186.282210893562
 21
3355.94470046083
 31
0.0
  0
LINE
  5
1BF
330
20
100
AcDbEntity
  8
_0-0_
  6
Continuous
 62
     4
100
AcDbLine
 10
1321.282210893562
 20
3095.94470046083
 30
0.0
 11
1321.282210893562
 21
3225.94470046083
 31
0.0
  0
LINE
  5
1C0
330
20
100
AcDbEntity
  8
_0-0_
  6
Continuous
 62
     4
100
AcDbLine
 10
2056.282210893562
 20
3345.94470046083
 30
0.0
 11
2033.099991062624
 21
3339.73304337837
 31
0.0
  0
LINE
  5
1C1
330
20
100
AcDbEntity
  8
_0-0_
  6
Continuous
 62
     4
100
AcDbLine
 10
2056.282210893562
 20
3345.94470046083
 30
0.0
 11
2033.099991062624
 21
3352.15635754329
 31
0.0
  0
LINE
  5
1C2
330
20
100
AcDbEntity
  8
_0-0_
  6
Continuous
 62
     4
100
AcDbLine
 10
1186.282210893562
 20
3345.94470046083
 30
0.0
 11
1209.464430724499
 21
3352.15635754329
 31
0.0
  0
LINE
  5
1C3
330
20
100
AcDbEntity
  8
_0-0_
  6
Continuous
 62
     4
100
AcDbLine
 10
1186.282210893562
 20
3345.94470046083
 30
0.0
 11
1209.464430724499
 21
3339.73304337837
 31
0.0
  0
LINE
  5
1C4
330
20
100
AcDbEntity
  8
_0-0_
  6
Continuous
 62
     4
100
AcDbLine
 10
1186.282210893562
 20
3215.94470046083
 30
0.0
 11
1209.464430724499
 21
3222.15635754329
 31
0.0
  0
LINE
  5
1C5
330
20
100
AcDbEntity
  8
_0-0_
  6
Continuous
 62
     4
100
AcDbLine
 10
1186.282210893562
 20
3215.94470046083
 30
0.0
 11
1209.464430724499
 21
3209.733043378369
 31
0.0
  0
LINE
  5
1C6
330
20
100
AcDbEntity
  8
_0-0_
  6
Continuous
 62
     4
100
AcDbLine
 10
1321.282210893562
 20
3215.94470046083
 30
0.0
 11
1298.099991062624
 21
3209.733043378369
 31
0.0
  0
LINE
  5
1C7
330
20
100
AcDbEntity
  8
_0-0_
  6
Continuous
 62
     4
100
AcDbLine
 10
1321.282210893562
 20
3215.94470046083
 30
0.0
 11
1298.099991062624
 21
3222.15635754329
 31
0.0
  0
TEXT
  5
1C8
330
20
100
AcDbEntity
  8
_0-0_
 62
     7
100
AcDbText
 10
1542.300962008112
 20
3355.260039499671
 30
0.0
 40
60.0
  1
φ870
100
AcDbText
  0
TEXT
  5
1C9
330
20
100
AcDbEntity
  8
_0-0_
 62
     7
100
AcDbText
 10
1505.39280326268
 20
3227.602200089193
 30
0.0
 40
60.0
  1
φ600
100
AcDbText
  0
TEXT
  5
1CA
330
20
100
AcDbEntity
  8
_0-0_
 62
     7
100
AcDbText
 10
1907.792514447882
 20
3226.214614878209
 30
0.0
 40
60.0
  1
135
100
AcDbText
  0
TEXT
  5
1CB
330
20
100
AcDbEntity
  8
_0-0_
 62
     7
100
AcDbText
 10
1210.668096583066
 20
3227.602200089193
 30
0.0
 40
60.0
  1
135
100
AcDbText
  0
CIRCLE
  5
1CC
330
20
100
AcDbEntity
  8
_0-0_
  6
Continuous
 62
     7
100
AcDbCircle
 10
4276.521249359958
 20
2262.258064516129
 30
0.0
 40
300.0
  0
CIRCLE
  5
1CD
330
20
100
AcDbEntity
  8
_0-0_
  6
Continuous
 62
     7
100
AcDbCircle
 10
4276.521249359958
 20
2262.258064516129
 30
0.0
 40
435.0
  0
ARC
  5
1CE
330
20
100
AcDbEntity
  8
_0-0_
  6
Continuous
 62
   136
100
AcDbCircle
 10
4526.521249359958
 20
2262.258064516129
 30
0.0
 40
100.0
100
AcDbArc
 50
69.51268488527735
 51
290.4873151147226
  0
ARC
  5
1CF
330
20
100
AcDbEntity
  8
_0-0_
  6
Continuous
 62
   136
100
AcDbCircle
 10
4526.521249359958
 20
2262.258064516129
 30
0.0
 40
110.0
100
AcDbArc
 50
73.73979529168798
 51
290.4873151147226
  0
CIRCLE
  5
1D0
330
20
100
AcDbEntity
  8
_0-0_
  6
DASHED1
 62
   136
100
AcDbCircle
 10
4526.521249359958
 20
2262.258064516129
 30
0.0
 40
100.0
  0
CIRCLE
  5
1D1
330
20
100
AcDbEntity
  8
_0-0_
  6
DASHED1
 62
   136
100
AcDbCircle
 10
4526.521249359958
 20
2262.258064516129
 30
0.0
 40
110.0
  0
LINE
  5
1D2
330
20
100
AcDbEntity
  8
_0-0_
  6
Continuous
 62
     4
100
AcDbLine
 10
4488.653283715922
 20
2474.390098872093
 30
0.0
 11
4064.389215003994
 21
2050.126030160165
 31
0.0
  0
LINE
  5
1D3
330
20
100
AcDbEntity
  8
_0-0_
  6
Continuous
 62
     4
100
AcDbLine
 10
4064.389215003994
 20
2050.126030160165
 30
0.0
 11
3968.929799543811
 21
1954.666614699981
 31
0.0
  0
LINE
  5
1D4
330
20
100
AcDbEntity
  8
_0-0_
  6
Continuous
 62
     4
100
AcDbLine
 10
4584.112699176105
 20
2569.849514332277
 30
0.0
 11
4488.653283715922
 21
2474.390098872093
 31
0.0
  0
LINE
  5
1D5
330
20
100
AcDbEntity
  8
_0-0_
  6
Continuous
 62
     4
100
AcDbLine
 10
4584.112699176105
 20
2569.849514332277
 30
0.0
 11
4572.112699176106
 21
2549.064904641451
 31
0.0
  0
LINE
  5
1D6
330
20
100
AcDbEntity
  8
_0-0_
  6
Continuous
 62
     4
100
AcDbLine
 10
4584.112699176105
 20
2569.849514332277
 30
0.0
 11
4563.32808948528
 21
2557.849514332277
 31
0.0
  0
LINE
  5
1D7
330
20
100
AcDbEntity
  8
_0-0_
  6
Continuous
 62
     4
100
AcDbLine
 10
4488.653283715922
 20
2474.390098872093
 30
0.0
 11
4500.653283715922
 21
2495.174708562919
 31
0.0
  0
LINE
  5
1D8
330
20
100
AcDbEntity
  8
_0-0_
  6
Continuous
 62
     4
100
AcDbLine
 10
4488.653283715922
 20
2474.390098872093
 30
0.0
 11
4509.437893406749
 21
2486.390098872093
 31
0.0
  0
LINE
  5
1D9
330
20
100
AcDbEntity
  8
_0-0_
  6
Continuous
 62
     4
100
AcDbLine
 10
4488.653283715922
 20
2474.390098872093
 30
0.0
 11
4476.653283715923
 21
2453.605489181267
 31
0.0
  0
LINE
  5
1DA
330
20
100
AcDbEntity
  8
_0-0_
  6
Continuous
 62
     4
100
AcDbLine
 10
4488.653283715922
 20
2474.390098872093
 30
0.0
 11
4467.868674025096
 21
2462.390098872093
 31
0.0
  0
LINE
  5
1DB
330
20
100
AcDbEntity
  8
_0-0_
  6
Continuous
 62
     4
100
AcDbLine
 10
4064.389215003994
 20
2050.126030160165
 30
0.0
 11
4076.389215003993
 21
2070.910639850991
 31
0.0
  0
LINE
  5
1DC
330
20
100
AcDbEntity
  8
_0-0_
  6
Continuous
 62
     4
100
AcDbLine
 10
4064.389215003994
 20
2050.126030160165
 30
0.0
 11
4085.173824694821
 21
2062.126030160165
 31
0.0
  0
LINE
  5
1DD
330
20
100
AcDbEntity
  8
_0-0_
  6
Continuous
 62
     4
100
AcDbLine
 10
4064.389215003994
 20
2050.126030160165
 30
0.0
 11
4052.389215003994
 21
2029.341420469338
 31
0.0
  0
LINE
  5
1DE
330
20
100
AcDbEntity
  8
_0-0_
  6
Continuous
 62
     4
100
AcDbLine
 10
4064.389215003994
 20
2050.126030160165
 30
0.0
 11
4043.604605313167
 21
2038.126030160165
 31
0.0
  0
LINE
  5
1DF
330
20
100
AcDbEntity
  8
_0-0_
  6
Continuous
 62
     4
100
AcDbLine
 10
3968.929799543811
 20
1954.666614699981
 30
0.0
 11
3980.929799543811
 21
1975.451224390807
 31
0.0
  0
LINE
  5
1E0
330
20
100
AcDbEntity
  8
_0-0_
  6
Continuous
 62
     4
100
AcDbLine
 10
3968.929799543811
 20
1954.666614699981
 30
0.0
 11
3989.714409234638
 21
1966.666614699981
 31
0.0
  0
TEXT
  5
1E1
330
20
100
AcDbEntity
  8
_0-0_
 62
     7
100
AcDbText
 10
4211.106614859694
 20
2218.135728118076
 30
0.0
 40
60.0
  1
φ600
 50
44.99999999999997
100
AcDbText
  0
TEXT
  5
1E2
330
20
100
AcDbEntity
  8
_0-0_
 62
     7
100
AcDbText
 10
3978.181636106702
 20
1980.702523969862
 30
0.0
 40
60.0
  1
135
 50
45.00000000000002
100
AcDbText
  0
TEXT
  5
1E3
330
20
100
AcDbEntity
  8
_0-0_
 62
     7
100
AcDbText
 10
4493.622072960101
 20
2499.148444420075
 30
0.0
 40
60.0
  1
135
 50
45.00000000000002
100
AcDbText
  0
LINE
  5
1E4
330
20
100
AcDbEntity
  8
_0-0_
  6
Continuous
 62
     4
100
AcDbLine
 10
4916.521249359957
 20
1542.258064516129
 30
0.0
 11
4916.521249359957
 21
1412.258064516129
 31
0.0
  0
LINE
  5
1E5
330
20
100
AcDbEntity
  8
_0-0_
  6
Continuous
 62
     4
100
AcDbLine
 10
4136.521249359958
 20
1422.258064516129
 30
0.0
 11
4916.521249359957
 21
1422.258064516129
 31
0.0
  0
LINE
  5
1E6
330
20
100
AcDbEntity
  8
_0-0_
  6
Continuous
 62
     4
100
AcDbLine
 10
4136.521249359958
 20
1542.258064516129
 30
0.0
 11
4136.521249359958
 21
1412.258064516129
 31
0.0
  0
LINE
  5
1E7
330
20
100
AcDbEntity
  8
_0-0_
  6
Continuous
 62
     4
100
AcDbLine
 10
4916.521249359957
 20
1422.258064516129
 30
0.0
 11
4893.339029529021
 21
1416.046407433668
 31
0.0
  0
LINE
  5
1E8
330
20
100
AcDbEntity
  8
_0-0_
  6
Continuous
 62
     4
100
AcDbLine
 10
4916.521249359957
 20
1422.258064516129
 30
0.0
 11
4893.339029529021
 21
1428.469721598589
 31
0.0
  0
LINE
  5
1E9
330
20
100
AcDbEntity
  8
_0-0_
  6
Continuous
 62
     4
100
AcDbLine
 10
4136.521249359958
 20
1422.258064516129
 30
0.0
 11
4159.703469190896
 21
1428.469721598589
 31
0.0
  0
LINE
  5
1EA
330
20
100
AcDbEntity
  8
_0-0_
  6
Continuous
 62
     4
100
AcDbLine
 10
4136.521249359958
 20
1422.258064516129
 30
0.0
 11
4159.703469190896
 21
1416.046407433668
 31
0.0
  0
TEXT
  5
1EB
330
20
100
AcDbEntity
  8
_0-0_
 62
     7
100
AcDbText
 10
4432.850550320734
 20
1433.911794686657
 30
0.0
 40
60.0
  1
780
100
AcDbText
  0
LINE
  5
1EC
330
20
100
AcDbEntity
  8
_0-0_
  6
Continuous
 62
     4
100
AcDbLine
 10
1660.611099979964
 20
2005.94470046083
 30
0.0
 11
1660.611099979964
 21
1875.944700460829
 31
0.0
  0
LINE
  5
1ED
330
20
100
AcDbEntity
  8
_0-0_
  6
Continuous
 62
     4
100
AcDbLine
 10
1860.611099979964
 20
2005.94470046083
 30
0.0
 11
1860.611099979964
 21
1875.944700460829
 31
0.0
  0
LINE
  5
1EE
330
20
100
AcDbEntity
  8
_0-0_
  6
Continuous
 62
     4
100
AcDbLine
 10
2060.611099979964
 20
2005.94470046083
 30
0.0
 11
2060.611099979964
 21
1875.944700460829
 31
0.0
  0
LINE
  5
1EF
330
20
100
AcDbEntity
  8
_0-0_
  6
Continuous
 62
     4
100
AcDbLine
 10
2060.611099979964
 20
1995.944700460829
 30
0.0
 11
1860.611099979964
 21
1995.944700460829
 31
0.0
  0
LINE
  5
1F0
330
20
100
AcDbEntity
  8
_0-0_
  6
Continuous
 62
     4
100
AcDbLine
 10
1660.611099979964
 20
1995.944700460829
 30
0.0
 11
1860.611099979964
 21
1995.944700460829
 31
0.0
  0
LINE
  5
1F1
330
20
100
AcDbEntity
  8
_0-0_
  6
Continuous
 62
     4
100
AcDbLine
 10
1660.611099979964
 20
1995.944700460829
 30
0.0
 11
1683.793319810902
 21
2002.15635754329
 31
0.0
  0
LINE
  5
1F2
330
20
100
AcDbEntity
  8
_0-0_
  6
Continuous
 62
     4
100
AcDbLine
 10
1660.611099979964
 20
1995.944700460829
 30
0.0
 11
1683.793319810902
 21
1989.733043378369
 31
0.0
  0
LINE
  5
1F3
330
20
100
AcDbEntity
  8
_0-0_
  6
Continuous
 62
     4
100
AcDbLine
 10
1860.611099979964
 20
1995.944700460829
 30
0.0
 11
1837.428880149026
 21
1989.733043378369
 31
0.0
  0
LINE
  5
1F4
330
20
100
AcDbEntity
  8
_0-0_
  6
Continuous
 62
     4
100
AcDbLine
 10
1860.611099979964
 20
1995.944700460829
 30
0.0
 11
1837.428880149026
 21
2002.15635754329
 31
0.0
  0
LINE
  5
1F5
330
20
100
AcDbEntity
  8
_0-0_
  6
Continuous
 62
     4
100
AcDbLine
 10
1860.611099979964
 20
1995.944700460829
 30
0.0
 11
1883.793319810902
 21
2002.15635754329
 31
0.0
  0
LINE
  5
1F6
330
20
100
AcDbEntity
  8
_0-0_
  6
Continuous
 62
     4
100
AcDbLine
 10
1860.611099979964
 20
1995.944700460829
 30
0.0
 11
1883.793319810902
 21
1989.733043378369
 31
0.0
  0
LINE
  5
1F7
330
20
100
AcDbEntity
  8
_0-0_
  6
Continuous
 62
     4
100
AcDbLine
 10
2060.611099979964
 20
1995.944700460829
 30
0.0
 11
2037.428880149027
 21
1989.733043378369
 31
0.0
  0
LINE
  5
1F8
330
20
100
AcDbEntity
  8
_0-0_
  6
Continuous
 62
     4
100
AcDbLine
 10
2060.611099979964
 20
1995.944700460829
 30
0.0
 11
2037.428880149027
 21
2002.15635754329
 31
0.0
  0
TEXT
  5
1F9
330
20
100
AcDbEntity
  8
_0-0_
 62
     7
100
AcDbText
 10
1693.944249635815
 20
2005.565365584319
 30
0.0
 40
60.0
  1
200
100
AcDbText
  0
TEXT
  5
1FA
330
20
100
AcDbEntity
  8
_0-0_
 62
     7
100
AcDbText
 10
1893.046959398181
 20
2006.65335853384
 30
0.0
 40
60.0
  1
200
100
AcDbText
  0
LINE
  5
1FB
330
20
100
AcDbEntity
  8
_0-0_
  6
Continuous
 62
     4
100
AcDbLine
 10
1667.682167791829
 20
2263.015768272695
 30
0.0
 11
1810.611099979964
 21
2405.94470046083
 31
0.0
  0
LINE
  5
1FC
330
20
100
AcDbEntity
  8
_0-0_
  6
Continuous
 62
     4
100
AcDbLine
 10
1667.682167791829
 20
2263.015768272695
 30
0.0
 11
1679.682167791829
 21
2283.800377963521
 31
0.0
  0
LINE
  5
1FD
330
20
100
AcDbEntity
  8
_0-0_
  6
Continuous
 62
     4
100
AcDbLine
 10
1667.682167791829
 20
2263.015768272695
 30
0.0
 11
1688.466777482656
 21
2275.015768272695
 31
0.0
  0
TEXT
  5
1FE
330
20
100
AcDbEntity
  8
_0-0_
 62
     7
100
AcDbText
 10
1807.170317161139
 20
2416.330008069825
 30
0.0
 40
60.0
  1
インサート　M12
100
AcDbText
  0
LINE
  5
200
330
20
100
AcDbEntity
  8
_0-0_
  6
Continuous
 62
   136
100
AcDbLine
 10
1460.611099979964
 20
1775.944700460829
 30
0.0
 11
1460.611099979964
 21
1405.944700460829
 31
0.0
  0
LINE
  5
201
330
20
100
AcDbEntity
  8
_0-0_
  6
Continuous
 62
   136
100
AcDbLine
 10
1470.611099979964
 20
1765.944700460829
 30
0.0
 11
1470.611099979964
 21
1415.944700460829
 31
0.0
  0
LINE
  5
202
330
20
100
AcDbEntity
  8
_0-0_
  6
Continuous
 62
   136
100
AcDbLine
 10
1470.611099979964
 20
1765.944700460829
 30
0.0
 11
2250.611099979964
 21
1765.944700460829
 31
0.0
  0
LINE
  5
203
330
20
100
AcDbEntity
  8
_0-0_
  6
Continuous
 62
   136
100
AcDbLine
 10
1460.611099979964
 20
1775.944700460829
 30
0.0
 11
2260.611099979964
 21
1775.944700460829
 31
0.0
  0
LINE
  5
204
330
20
100
AcDbEntity
  8
_0-0_
  6
Continuous
 62
   136
100
AcDbLine
 10
1460.611099979964
 20
1775.944700460829
 30
0.0
 11
1470.611099979964
 21
1765.944700460829
 31
0.0
  0
LINE
  5
205
330
20
100
AcDbEntity
  8
_0-0_
  6
Continuous
 62
   136
100
AcDbLine
 10
1470.611099979964
 20
1415.944700460829
 30
0.0
 11
2250.611099979964
 21
1415.944700460829
 31
0.0
  0
LINE
  5
206
330
20
100
AcDbEntity
  8
_0-0_
  6
Continuous
 62
   136
100
AcDbLine
 10
1470.611099979964
 20
1415.944700460829
 30
0.0
 11
1460.611099979964
 21
1405.944700460829
 31
0.0
  0
LINE
  5
207
330
20
100
AcDbEntity
  8
_0-0_
  6
Continuous
 62
   136
100
AcDbLine
 10
2250.611099979964
 20
1415.944700460829
 30
0.0
 11
2260.611099979964
 21
1405.944700460829
 31
0.0
  0
LINE
  5
208
330
20
100
AcDbEntity
  8
_0-0_
  6
Continuous
 62
   136
100
AcDbLine
 10
2250.611099979964
 20
1765.944700460829
 30
0.0
 11
2250.611099979964
 21
1415.944700460829
 31
0.0
  0
LINE
  5
209
330
20
100
AcDbEntity
  8
_0-0_
  6
Continuous
 62
   136
100
AcDbLine
 10
2250.611099979964
 20
1765.944700460829
 30
0.0
 11
2260.611099979964
 21
1775.944700460829
 31
0.0
  0
LINE
  5
20A
330
20
100
AcDbEntity
  8
_0-0_
  6
Continuous
 62
   136
100
AcDbLine
 10
2260.611099979964
 20
1775.944700460829
 30
0.0
 11
2260.611099979964
 21
1405.944700460829
 31
0.0
  0
LINE
  5
20B
330
20
100
AcDbEntity
  8
_0-0_
  6
Continuous
 62
   136
100
AcDbLine
 10
1460.611099979964
 20
1405.944700460829
 30
0.0
 11
2260.611099979964
 21
1405.944700460829
 31
0.0
  0
LINE
  5
20C
330
20
100
AcDbEntity
  8
_0-0_
  6
DASHED1
 62
   136
100
AcDbLine
 10
1310.606656128024
 20
2106.611307876137
 30
0.0
 11
1320.615337121095
 21
1355.960233395822
 31
0.0
  0
LINE
  5
20D
330
20
100
AcDbEntity
  8
_0-0_
  6
DASHED1
 62
   136
100
AcDbLine
 10
1320.615337121095
 20
1355.960233395822
 30
0.0
 11
1750.611099979964
 21
1345.944700460829
 31
0.0
  0
LINE
  5
20E
330
20
100
AcDbEntity
  8
_0-0_
  6
DASHED1
 62
   136
100
AcDbLine
 10
1260.611099979964
 20
2105.94470046083
 30
0.0
 11
1269.944433313297
 21
1405.944700460829
 31
0.0
  0
LINE
  5
20F
330
20
100
AcDbEntity
  8
_0-0_
  6
DASHED1
 62
   136
100
AcDbLine
 10
1269.944433313297
 20
1405.944700460829
 30
0.0
 11
2260.611099979964
 21
1405.944700460829
 31
0.0
  0
LINE
  5
210
330
20
100
AcDbEntity
  8
_0-0_
  6
DASHED1
 62
   136
100
AcDbLine
 10
1269.944433313297
 20
1405.944700460829
 30
0.0
 11
1320.615337121095
 21
1355.960233395822
 31
0.0
  0
LINE
  5
211
330
20
100
AcDbEntity
  8
_0-0_
  6
DASHED1
 62
   136
100
AcDbLine
 10
2260.611099979964
 20
1405.944700460829
 30
0.0
 11
2451.277766646631
 21
1405.944700460829
 31
0.0
  0
LINE
  5
212
330
20
100
AcDbEntity
  8
_0-0_
  6
DASHED1
 62
   136
100
AcDbLine
 10
2460.611099979964
 20
2105.94470046083
 30
0.0
 11
2451.277766646631
 21
1405.944700460829
 31
0.0
  0
LINE
  5
213
330
20
100
AcDbEntity
  8
_0-0_
  6
DASHED1
 62
   136
100
AcDbLine
 10
2410.615543831904
 20
2106.611307876137
 30
0.0
 11
2400.606862838833
 21
1355.960233395822
 31
0.0
  0
LINE
  5
214
330
20
100
AcDbEntity
  8
_0-0_
  6
DASHED1
 62
   136
100
AcDbLine
 10
2400.606862838833
 20
1355.960233395822
 30
0.0
 11
1970.611099979964
 21
1345.944700460829
 31
0.0
  0
LINE
  5
215
330
20
100
AcDbEntity
  8
_0-0_
  6
DASHED1
 62
   136
100
AcDbLine
 10
2451.277766646631
 20
1405.944700460829
 30
0.0
 11
2400.606862838833
 21
1355.960233395822
 31
0.0
  0
LINE
  5
216
330
20
100
AcDbEntity
  8
_0-0_
  6
DASHED1
 62
   136
100
AcDbLine
 10
1320.615544226895
 20
2855.94470046083
 30
0.0
 11
1310.606656128024
 21
2105.278093045521
 31
0.0
  0
LINE
  5
217
330
20
100
AcDbEntity
  8
_0-0_
  6
DASHED1
 62
   136
100
AcDbLine
 10
1269.944433313297
 20
2805.94470046083
 30
0.0
 11
1260.611099979964
 21
2105.94470046083
 31
0.0
  0
LINE
  5
218
330
20
100
AcDbEntity
  8
_0-0_
  6
DASHED1
 62
   136
100
AcDbLine
 10
1320.615544226895
 20
2855.94470046083
 30
0.0
 11
1269.944433313297
 21
2805.94470046083
 31
0.0
  0
LINE
  5
219
330
20
100
AcDbEntity
  8
_0-0_
  6
DASHED1
 62
   136
100
AcDbLine
 10
1321.282210893562
 20
2975.94470046083
 30
0.0
 11
1320.615544226895
 21
2855.94470046083
 31
0.0
  0
LINE
  5
21A
330
20
100
AcDbEntity
  8
_0-0_
  6
DASHED1
 62
   136
100
AcDbLine
 10
1320.615544226895
 20
2855.94470046083
 30
0.0
 11
2400.606655733033
 21
2855.94470046083
 31
0.0
  0
LINE
  5
21B
330
20
100
AcDbEntity
  8
_0-0_
  6
DASHED1
 62
   136
100
AcDbLine
 10
2400.606655733033
 20
2855.94470046083
 30
0.0
 11
2410.615543831904
 21
2105.278093045521
 31
0.0
  0
LINE
  5
21C
330
20
100
AcDbEntity
  8
_0-0_
  6
DASHED1
 62
   136
100
AcDbLine
 10
1269.944433313297
 20
2805.94470046083
 30
0.0
 11
2451.277766646631
 21
2805.94470046083
 31
0.0
  0
LINE
  5
21D
330
20
100
AcDbEntity
  8
_0-0_
  6
DASHED1
 62
   136
100
AcDbLine
 10
2451.277766646631
 20
2805.94470046083
 30
0.0
 11
2460.611099979964
 21
2105.94470046083
 31
0.0
  0
LINE
  5
21E
330
20
100
AcDbEntity
  8
_0-0_
  6
DASHED1
 62
   136
100
AcDbLine
 10
2400.606655733033
 20
2855.94470046083
 30
0.0
 11
2451.277766646631
 21
2805.94470046083
 31
0.0
  0
LINE
  5
21F
330
20
100
AcDbEntity
  8
_0-0_
  6
Continuous
 62
     4
100
AcDbLine
 10
4316.521249359958
 20
1627.258064516129
 30
0.0
 11
3961.521249359959
 21
1272.258064516129
 31
0.0
  0
TEXT
  5
220
330
20
100
AcDbEntity
  8
_0-0_
 62
     7
100
AcDbText
 10
3386.220180139806
 20
1283.303611246788
 30
0.0
 40
60.0
  1
インサート　M12
100
AcDbText
  0
LINE
  5
221
330
20
100
AcDbEntity
  8
_0-0_
  6
Continuous
 62
     4
100
AcDbLine
 10
3961.521249359959
 20
1272.258064516129
 30
0.0
 11
3398.298600284813
 21
1272.258064516129
 31
0.0
  0
LINE
  5
222
330
20
100
AcDbEntity
  8
_0-0_
  6
Continuous
 62
     7
100
AcDbLine
 10
212.1428571428572
 20
3886.084028864264
 30
0.0
 11
812.1428571428571
 21
3886.084028864264
 31
0.0
  0
LINE
  5
223
330
20
100
AcDbEntity
  8
_0-0_
  6
Continuous
 62
     7
100
AcDbLine
 10
812.1428571428571
 20
3886.084028864264
 30
0.0
 11
812.1428571428571
 21
4006.084028864264
 31
0.0
  0
TEXT
  5
224
330
20
100
AcDbEntity
  8
_0-0_
 62
     3
100
AcDbText
 10
230.2296216509458
 20
3894.699558283251
 30
0.0
 40
100.0
  1
組立構造図
100
AcDbText
  0
TEXT
  5
225
330
20
100
AcDbEntity
  8
_0-0_
 62
     7
100
AcDbText
 10
3867.175024972424
 20
558.5426267281106
 30
0.0
 40
60.0
  1
H-1215(CR-600)
100
AcDbText
  0
TEXT
  5
226
330
20
100
AcDbEntity
  8
_0-0_
 62
     7
100
AcDbText
 10
4948.514262995111
 20
461.3643579179851
 30
0.0
 40
60.0
  1
FKHH-H1215-CR600
 41
0.8699999999999999
100
AcDbText
  0
LINE
  5
227
330
20
100
AcDbEntity
  8
_0-0_
  6
Continuous
 62
   136
100
AcDbLine
 10
4230.129884349932
 20
2558.649429526156
 30
0.0
 11
4448.739503429439
 21
2340.039810446649
 31
0.0
  0
LINE
  5
228
330
20
100
AcDbEntity
  8
_0-0_
  6
Continuous
 62
   136
100
AcDbLine
 10
4230.129884349932
 20
1965.866699506102
 30
0.0
 11
4448.739503429439
 21
2184.476318585609
 31
0.0
  0
LINE
  5
229
330
20
100
AcDbEntity
  8
_0-0_
  6
DASHED1
 62
   136
100
AcDbLine
 10
4230.129884349932
 20
2558.649429526156
 30
0.0
 11
3976.521249359958
 21
2812.258064516129
 31
0.0
  0
LINE
  5
22A
330
20
100
AcDbEntity
  8
_0-0_
  6
DASHED1
 62
   136
100
AcDbLine
 10
4230.129884349934
 20
1965.866699506102
 30
0.0
 11
3976.521249359958
 21
1712.258064516129
 31
0.0
  0
LINE
  5
22B
330
20
100
AcDbEntity
  8
_0-0_
  6
Continuous
 62
     4
100
AcDbLine
 10
2560.611099979964
 20
725.9447004608296
 30
0.0
 11
1160.611099979964
 21
725.9447004608296
 31
0.0
  0
LINE
  5
22C
330
20
100
AcDbEntity
  8
_0-0_
  6
Continuous
 62
     4
100
AcDbLine
 10
1160.611099979964
 20
1235.944700460829
 30
0.0
 11
1160.611099979964
 21
715.9447004608296
 31
0.0
  0
LINE
  5
22D
330
20
100
AcDbEntity
  8
_0-0_
  6
Continuous
 62
     4
100
AcDbLine
 10
2560.611099979964
 20
1235.944700460829
 30
0.0
 11
2560.611099979964
 21
715.9447004608296
 31
0.0
  0
LINE
  5
22E
330
20
100
AcDbEntity
  8
_0-0_
  6
Continuous
 62
     4
100
AcDbLine
 10
2560.611099979964
 20
725.9447004608296
 30
0.0
 11
2537.428880149027
 21
719.7330433783689
 31
0.0
  0
LINE
  5
22F
330
20
100
AcDbEntity
  8
_0-0_
  6
Continuous
 62
     4
100
AcDbLine
 10
2560.611099979964
 20
725.9447004608296
 30
0.0
 11
2537.428880149027
 21
732.1563575432901
 31
0.0
  0
LINE
  5
230
330
20
100
AcDbEntity
  8
_0-0_
  6
Continuous
 62
     4
100
AcDbLine
 10
1160.611099979964
 20
725.9447004608296
 30
0.0
 11
1183.793319810901
 21
732.1563575432901
 31
0.0
  0
LINE
  5
231
330
20
100
AcDbEntity
  8
_0-0_
  6
Continuous
 62
     4
100
AcDbLine
 10
1160.611099979964
 20
725.9447004608296
 30
0.0
 11
1183.793319810901
 21
719.7330433783689
 31
0.0
  0
TEXT
  5
232
330
20
100
AcDbEntity
  8
_0-0_
 62
     7
100
AcDbText
 10
1799.493498950775
 20
736.9470804172406
 30
0.0
 40
60.0
  1
1400
100
AcDbText
  0
LINE
  5
233
330
20
100
AcDbEntity
  8
_0-0_
  6
DASHED1
 62
     6
100
AcDbLine
 10
1225.611099979964
 20
2645.94470046083
 30
0.0
 11
1267.811099979964
 21
2645.94470046083
 31
0.0
  0
LINE
  5
234
330
20
100
AcDbEntity
  8
_0-0_
  6
DASHED1
 62
     6
100
AcDbLine
 10
1225.611099979964
 20
2665.94470046083
 30
0.0
 11
1267.955124067389
 21
2665.94470046083
 31
0.0
  0
LINE
  5
235
330
20
100
AcDbEntity
  8
_0-0_
  6
DASHED1
 62
     6
100
AcDbLine
 10
1225.611099979964
 20
2665.94470046083
 30
0.0
 11
1225.611099979964
 21
2645.94470046083
 31
0.0
  0
LINE
  5
236
330
20
100
AcDbEntity
  8
_0-0_
  6
DASHED1
 62
     6
100
AcDbLine
 10
1225.611099979964
 20
2245.94470046083
 30
0.0
 11
1262.477766646631
 21
2245.94470046083
 31
0.0
  0
LINE
  5
237
330
20
100
AcDbEntity
  8
_0-0_
  6
DASHED1
 62
     6
100
AcDbLine
 10
1225.611099979964
 20
2265.944700460829
 30
0.0
 11
1262.744433313297
 21
2265.944700460829
 31
0.0
  0
LINE
  5
238
330
20
100
AcDbEntity
  8
_0-0_
  6
DASHED1
 62
     6
100
AcDbLine
 10
1225.611099979964
 20
2265.944700460829
 30
0.0
 11
1225.611099979964
 21
2245.94470046083
 31
0.0
  0
CIRCLE
  5
239
330
20
100
AcDbEntity
  8
_0-0_
  6
DASHED1
 62
     6
100
AcDbCircle
 10
1660.611099979964
 20
2255.94470046083
 30
0.0
 40
10.0
  0
CIRCLE
  5
23A
330
20
100
AcDbEntity
  8
_0-0_
  6
DASHED1
 62
     6
100
AcDbCircle
 10
1860.611099979964
 20
2255.94470046083
 30
0.0
 40
10.0
  0
CIRCLE
  5
23B
330
20
100
AcDbEntity
  8
_0-0_
  6
DASHED1
 62
     6
100
AcDbCircle
 10
2060.611099979964
 20
2255.94470046083
 30
0.0
 40
10.0
  0
LINE
  5
23C
330
20
100
AcDbEntity
  8
_0-0_
  6
DASHED1
 62
     6
100
AcDbLine
 10
2458.744433313297
 20
2245.94470046083
 30
0.0
 11
2495.611099979964
 21
2245.94470046083
 31
0.0
  0
LINE
  5
23D
330
20
100
AcDbEntity
  8
_0-0_
  6
DASHED1
 62
     6
100
AcDbLine
 10
2458.477766646631
 20
2265.944700460829
 30
0.0
 11
2495.611099979964
 21
2265.944700460829
 31
0.0
  0
LINE
  5
23E
330
20
100
AcDbEntity
  8
_0-0_
  6
DASHED1
 62
     6
100
AcDbLine
 10
2495.611099979964
 20
2265.944700460829
 30
0.0
 11
2495.611099979964
 21
2245.94470046083
 31
0.0
  0
LINE
  5
23F
330
20
100
AcDbEntity
  8
_0-0_
  6
DASHED1
 62
     6
100
AcDbLine
 10
2453.411099979964
 20
2645.94470046083
 30
0.0
 11
2495.611099979964
 21
2645.94470046083
 31
0.0
  0
LINE
  5
240
330
20
100
AcDbEntity
  8
_0-0_
  6
DASHED1
 62
     6
100
AcDbLine
 10
2453.144433313298
 20
2665.94470046083
 30
0.0
 11
2495.611099979964
 21
2665.94470046083
 31
0.0
  0
LINE
  5
241
330
20
100
AcDbEntity
  8
_0-0_
  6
DASHED1
 62
     6
100
AcDbLine
 10
2495.611099979964
 20
2665.94470046083
 30
0.0
 11
2495.611099979964
 21
2645.94470046083
 31
0.0
  0
CIRCLE
  5
242
330
20
100
AcDbEntity
  8
_0-0_
  6
DASHED1
 62
     6
100
AcDbCircle
 10
2060.611099979964
 20
2655.94470046083
 30
0.0
 40
10.0
  0
CIRCLE
  5
243
330
20
100
AcDbEntity
  8
_0-0_
  6
DASHED1
 62
     6
100
AcDbCircle
 10
1860.611099979964
 20
2655.94470046083
 30
0.0
 40
10.0
  0
CIRCLE
  5
244
330
20
100
AcDbEntity
  8
_0-0_
  6
DASHED1
 62
     6
100
AcDbCircle
 10
1660.611099979964
 20
2655.94470046083
 30
0.0
 40
10.0
  0
LINE
  5
245
330
20
100
AcDbEntity
  8
_0-0_
  6
DASHED1
 62
     6
100
AcDbLine
 10
1225.611099979964
 20
1865.944700460829
 30
0.0
 11
1263.811099979964
 21
1865.944700460829
 31
0.0
  0
LINE
  5
246
330
20
100
AcDbEntity
  8
_0-0_
  6
DASHED1
 62
     6
100
AcDbLine
 10
1225.611099979964
 20
1845.944700460829
 30
0.0
 11
1264.07776664663
 21
1845.944700460829
 31
0.0
  0
LINE
  5
247
330
20
100
AcDbEntity
  8
_0-0_
  6
DASHED1
 62
     6
100
AcDbLine
 10
1225.611099979964
 20
1865.944700460829
 30
0.0
 11
1225.611099979964
 21
1845.944700460829
 31
0.0
  0
CIRCLE
  5
248
330
20
100
AcDbEntity
  8
_0-0_
  6
DASHED1
 62
     6
100
AcDbCircle
 10
1660.611099979964
 20
1855.944700460829
 30
0.0
 40
10.0
  0
CIRCLE
  5
249
330
20
100
AcDbEntity
  8
_0-0_
  6
DASHED1
 62
     6
100
AcDbCircle
 10
1860.611099979964
 20
1855.944700460829
 30
0.0
 40
10.0
  0
CIRCLE
  5
24A
330
20
100
AcDbEntity
  8
_0-0_
  6
DASHED1
 62
     6
100
AcDbCircle
 10
2060.611099979964
 20
1855.944700460829
 30
0.0
 40
10.0
  0
LINE
  5
24B
330
20
100
AcDbEntity
  8
_0-0_
  6
DASHED1
 62
     6
100
AcDbLine
 10
2457.144433313298
 20
1845.944700460829
 30
0.0
 11
2495.611099979964
 21
1845.944700460829
 31
0.0
  0
LINE
  5
24C
330
20
100
AcDbEntity
  8
_0-0_
  6
DASHED1
 62
     6
100
AcDbLine
 10
2457.411099979964
 20
1865.944700460829
 30
0.0
 11
2495.611099979964
 21
1865.944700460829
 31
0.0
  0
LINE
  5
24D
330
20
100
AcDbEntity
  8
_0-0_
  6
DASHED1
 62
     6
100
AcDbLine
 10
2495.611099979964
 20
1865.944700460829
 30
0.0
 11
2495.611099979964
 21
1845.944700460829
 31
0.0
  0
LINE
  5
24E
330
20
100
AcDbEntity
  8
_0-0_
  6
DASHED1
 62
     6
100
AcDbLine
 10
4316.521249359958
 20
2897.25806451613
 30
0.0
 11
4316.521249359958
 21
2862.258064516129
 31
0.0
  0
LINE
  5
24F
330
20
100
AcDbEntity
  8
_0-0_
  6
DASHED1
 62
     6
100
AcDbLine
 10
4316.521249359958
 20
2897.25806451613
 30
0.0
 11
4336.521249359958
 21
2897.25806451613
 31
0.0
  0
LINE
  5
250
330
20
100
AcDbEntity
  8
_0-0_
  6
DASHED1
 62
     6
100
AcDbLine
 10
4336.521249359958
 20
2897.25806451613
 30
0.0
 11
4336.521249359958
 21
2862.258064516129
 31
0.0
  0
LINE
  5
251
330
20
100
AcDbEntity
  8
_0-0_
  6
DASHED1
 62
     6
100
AcDbLine
 10
4516.521249359957
 20
2897.25806451613
 30
0.0
 11
4516.521249359957
 21
2862.258064516129
 31
0.0
  0
LINE
  5
252
330
20
100
AcDbEntity
  8
_0-0_
  6
DASHED1
 62
     6
100
AcDbLine
 10
4516.521249359957
 20
2897.25806451613
 30
0.0
 11
4536.521249359958
 21
2897.25806451613
 31
0.0
  0
LINE
  5
253
330
20
100
AcDbEntity
  8
_0-0_
  6
DASHED1
 62
     6
100
AcDbLine
 10
4536.521249359958
 20
2897.25806451613
 30
0.0
 11
4536.521249359958
 21
2862.258064516129
 31
0.0
  0
LINE
  5
254
330
20
100
AcDbEntity
  8
_0-0_
  6
DASHED1
 62
     6
100
AcDbLine
 10
4716.521249359957
 20
2897.25806451613
 30
0.0
 11
4716.521249359957
 21
2862.258064516129
 31
0.0
  0
LINE
  5
255
330
20
100
AcDbEntity
  8
_0-0_
  6
DASHED1
 62
     6
100
AcDbLine
 10
4716.521249359957
 20
2897.25806451613
 30
0.0
 11
4736.521249359958
 21
2897.25806451613
 31
0.0
  0
LINE
  5
256
330
20
100
AcDbEntity
  8
_0-0_
  6
DASHED1
 62
     6
100
AcDbLine
 10
4736.521249359958
 20
2897.25806451613
 30
0.0
 11
4736.521249359958
 21
2862.258064516129
 31
0.0
  0
LINE
  5
257
330
20
100
AcDbEntity
  8
_0-0_
  6
DASHED1
 62
     6
100
AcDbLine
 10
5126.521249359957
 20
2472.258064516129
 30
0.0
 11
5161.521249359958
 21
2472.258064516129
 31
0.0
  0
LINE
  5
258
330
20
100
AcDbEntity
  8
_0-0_
  6
DASHED1
 62
     6
100
AcDbLine
 10
5126.521249359957
 20
2452.25806451613
 30
0.0
 11
5161.521249359958
 21
2452.25806451613
 31
0.0
  0
LINE
  5
259
330
20
100
AcDbEntity
  8
_0-0_
  6
DASHED1
 62
     6
100
AcDbLine
 10
5161.521249359958
 20
2472.258064516129
 30
0.0
 11
5161.521249359958
 21
2452.25806451613
 31
0.0
  0
LINE
  5
25A
330
20
100
AcDbEntity
  8
_0-0_
  6
DASHED1
 62
     6
100
AcDbLine
 10
5126.521249359957
 20
2272.25806451613
 30
0.0
 11
5161.521249359958
 21
2272.25806451613
 31
0.0
  0
LINE
  5
25B
330
20
100
AcDbEntity
  8
_0-0_
  6
DASHED1
 62
     6
100
AcDbLine
 10
5126.521249359957
 20
2252.25806451613
 30
0.0
 11
5161.521249359958
 21
2252.25806451613
 31
0.0
  0
LINE
  5
25C
330
20
100
AcDbEntity
  8
_0-0_
  6
DASHED1
 62
     6
100
AcDbLine
 10
5161.521249359958
 20
2272.25806451613
 30
0.0
 11
5161.521249359958
 21
2252.25806451613
 31
0.0
  0
LINE
  5
25D
330
20
100
AcDbEntity
  8
_0-0_
  6
DASHED1
 62
     6
100
AcDbLine
 10
5126.521249359957
 20
2072.258064516129
 30
0.0
 11
5161.521249359958
 21
2072.258064516129
 31
0.0
  0
LINE
  5
25E
330
20
100
AcDbEntity
  8
_0-0_
  6
DASHED1
 62
     6
100
AcDbLine
 10
5126.521249359957
 20
2052.258064516129
 30
0.0
 11
5161.521249359958
 21
2052.258064516129
 31
0.0
  0
LINE
  5
25F
330
20
100
AcDbEntity
  8
_0-0_
  6
DASHED1
 62
     6
100
AcDbLine
 10
5161.521249359958
 20
2072.258064516129
 30
0.0
 11
5161.521249359958
 21
2052.258064516129
 31
0.0
  0
LINE
  5
260
330
20
100
AcDbEntity
  8
_0-0_
  6
DASHED1
 62
     6
100
AcDbLine
 10
4316.521249359958
 20
1662.258064516129
 30
0.0
 11
4316.521249359958
 21
1627.258064516129
 31
0.0
  0
LINE
  5
261
330
20
100
AcDbEntity
  8
_0-0_
  6
DASHED1
 62
     6
100
AcDbLine
 10
4316.521249359958
 20
1627.258064516129
 30
0.0
 11
4336.521249359958
 21
1627.258064516129
 31
0.0
  0
LINE
  5
262
330
20
100
AcDbEntity
  8
_0-0_
  6
DASHED1
 62
     6
100
AcDbLine
 10
4336.521249359958
 20
1662.258064516129
 30
0.0
 11
4336.521249359958
 21
1627.258064516129
 31
0.0
  0
LINE
  5
263
330
20
100
AcDbEntity
  8
_0-0_
  6
DASHED1
 62
     6
100
AcDbLine
 10
4516.521249359957
 20
1662.258064516129
 30
0.0
 11
4516.521249359957
 21
1627.258064516129
 31
0.0
  0
LINE
  5
264
330
20
100
AcDbEntity
  8
_0-0_
  6
DASHED1
 62
     6
100
AcDbLine
 10
4516.521249359957
 20
1627.258064516129
 30
0.0
 11
4536.521249359958
 21
1627.258064516129
 31
0.0
  0
LINE
  5
265
330
20
100
AcDbEntity
  8
_0-0_
  6
DASHED1
 62
     6
100
AcDbLine
 10
4536.521249359958
 20
1662.258064516129
 30
0.0
 11
4536.521249359958
 21
1627.258064516129
 31
0.0
  0
LINE
  5
266
330
20
100
AcDbEntity
  8
_0-0_
  6
DASHED1
 62
     6
100
AcDbLine
 10
4716.521249359957
 20
1662.258064516129
 30
0.0
 11
4716.521249359957
 21
1627.258064516129
 31
0.0
  0
LINE
  5
267
330
20
100
AcDbEntity
  8
_0-0_
  6
DASHED1
 62
     6
100
AcDbLine
 10
4716.521249359957
 20
1627.258064516129
 30
0.0
 11
4736.521249359958
 21
1627.258064516129
 31
0.0
  0
LINE
  5
268
330
20
100
AcDbEntity
  8
_0-0_
  6
DASHED1
 62
     6
100
AcDbLine
 10
4736.521249359958
 20
1662.258064516129
 30
0.0
 11
4736.521249359958
 21
1627.258064516129
 31
0.0
  0
LINE
  5
269
330
20
100
AcDbEntity
  8
_0-0_
  6
DASHED1
 62
     6
100
AcDbLine
 10
3891.521249359959
 20
2472.258064516129
 30
0.0
 11
3926.521249359959
 21
2472.258064516129
 31
0.0
  0
LINE
  5
26A
330
20
100
AcDbEntity
  8
_0-0_
  6
DASHED1
 62
     6
100
AcDbLine
 10
3891.521249359959
 20
2452.25806451613
 30
0.0
 11
3926.521249359959
 21
2452.25806451613
 31
0.0
  0
LINE
  5
26B
330
20
100
AcDbEntity
  8
_0-0_
  6
DASHED1
 62
     6
100
AcDbLine
 10
3891.521249359959
 20
2472.258064516129
 30
0.0
 11
3891.521249359959
 21
2452.25806451613
 31
0.0
  0
LINE
  5
26C
330
20
100
AcDbEntity
  8
_0-0_
  6
DASHED1
 62
     6
100
AcDbLine
 10
3891.521249359959
 20
2272.25806451613
 30
0.0
 11
3926.521249359959
 21
2272.25806451613
 31
0.0
  0
LINE
  5
26D
330
20
100
AcDbEntity
  8
_0-0_
  6
DASHED1
 62
     6
100
AcDbLine
 10
3891.521249359959
 20
2252.25806451613
 30
0.0
 11
3926.521249359959
 21
2252.25806451613
 31
0.0
  0
LINE
  5
26E
330
20
100
AcDbEntity
  8
_0-0_
  6
DASHED1
 62
     6
100
AcDbLine
 10
3891.521249359959
 20
2272.25806451613
 30
0.0
 11
3891.521249359959
 21
2252.25806451613
 31
0.0
  0
LINE
  5
26F
330
20
100
AcDbEntity
  8
_0-0_
  6
DASHED1
 62
     6
100
AcDbLine
 10
3891.521249359959
 20
2052.258064516129
 30
0.0
 11
3926.521249359959
 21
2052.258064516129
 31
0.0
  0
LINE
  5
270
330
20
100
AcDbEntity
  8
_0-0_
  6
DASHED1
 62
     6
100
AcDbLine
 10
3891.521249359959
 20
2072.258064516129
 30
0.0
 11
3891.521249359959
 21
2052.258064516129
 31
0.0
  0
LINE
  5
271
330
20
100
AcDbEntity
  8
_0-0_
  6
DASHED1
 62
     6
100
AcDbLine
 10
3891.521249359959
 20
2072.258064516129
 30
0.0
 11
3926.521249359959
 21
2072.258064516129
 31
0.0
  0
LINE
  5
272
330
20
100
AcDbEntity
  8
_0-0_
  6
Continuous
 62
     4
100
AcDbLine
 10
4316.521249359958
 20
1627.258064516129
 30
0.0
 11
4304.521249359958
 21
1606.473454825302
 31
0.0
  0
LINE
  5
273
330
20
100
AcDbEntity
  8
_0-0_
  6
Continuous
 62
     4
100
AcDbLine
 10
4316.521249359958
 20
1627.258064516129
 30
0.0
 11
4295.736639669132
 21
1615.258064516129
 31
0.0
  0
LINE
  5
274
330
20
100
AcDbEntity
  8
_0-0_
  6
Continuous
 62
     4
100
AcDbLine
 10
5366.521249359958
 20
2652.258064516129
 30
0.0
 11
5366.521249359958
 21
1872.258064516129
 31
0.0
  0
LINE
  5
275
330
20
100
AcDbEntity
  8
_0-0_
  6
Continuous
 62
     4
100
AcDbLine
 10
5246.521249359958
 20
2652.258064516129
 30
0.0
 11
5376.521249359957
 21
2652.258064516129
 31
0.0
  0
LINE
  5
276
330
20
100
AcDbEntity
  8
_0-0_
  6
Continuous
 62
     4
100
AcDbLine
 10
5246.521249359958
 20
1872.258064516129
 30
0.0
 11
5376.521249359957
 21
1872.258064516129
 31
0.0
  0
TEXT
  5
277
330
20
100
AcDbEntity
  8
_0-0_
 62
     7
100
AcDbText
 10
5354.969767691091
 20
2218.423738825072
 30
0.0
 40
60.0
  1
780
 50
90.0
100
AcDbText
  0
LINE
  5
278
330
20
100
AcDbEntity
  8
_0-0_
  6
Continuous
 62
     4
100
AcDbLine
 10
5366.521249359958
 20
2652.258064516129
 30
0.0
 11
5372.732906442418
 21
2629.075844685191
 31
0.0
  0
LINE
  5
279
330
20
100
AcDbEntity
  8
_0-0_
  6
Continuous
 62
     4
100
AcDbLine
 10
5366.521249359958
 20
2652.258064516129
 30
0.0
 11
5360.309592277499
 21
2629.075844685191
 31
0.0
  0
LINE
  5
27A
330
20
100
AcDbEntity
  8
_0-0_
  6
Continuous
 62
     4
100
AcDbLine
 10
5366.521249359958
 20
1872.258064516129
 30
0.0
 11
5360.309592277499
 21
1895.440284347067
 31
0.0
  0
LINE
  5
27B
330
20
100
AcDbEntity
  8
_0-0_
  6
Continuous
 62
     4
100
AcDbLine
 10
5366.521249359958
 20
1872.258064516129
 30
0.0
 11
5372.732906442418
 21
1895.440284347067
 31
0.0
  0
LINE
  5
27C
330
20
100
AcDbEntity
  8
_0-0_
  6
Continuous
 62
     4
100
AcDbLine
 10
4526.521249359958
 20
3112.258064516129
 30
0.0
 11
4526.521249359958
 21
2982.258064516129
 31
0.0
  0
LINE
  5
27D
330
20
100
AcDbEntity
  8
_0-0_
  6
Continuous
 62
     4
100
AcDbLine
 10
4726.521249359957
 20
3112.258064516129
 30
0.0
 11
4726.521249359957
 21
2982.258064516129
 31
0.0
  0
LINE
  5
27E
330
20
100
AcDbEntity
  8
_0-0_
  6
Continuous
 62
     4
100
AcDbLine
 10
4326.521249359958
 20
3112.258064516129
 30
0.0
 11
4326.521249359958
 21
2982.258064516129
 31
0.0
  0
LINE
  5
27F
330
20
100
AcDbEntity
  8
_0-0_
  6
Continuous
 62
     4
100
AcDbLine
 10
4526.521249359958
 20
3102.25806451613
 30
0.0
 11
4326.521249359958
 21
3102.25806451613
 31
0.0
  0
LINE
  5
280
330
20
100
AcDbEntity
  8
_0-0_
  6
Continuous
 62
     4
100
AcDbLine
 10
4726.521249359957
 20
3102.25806451613
 30
0.0
 11
4526.521249359958
 21
3102.25806451613
 31
0.0
  0
LINE
  5
281
330
20
100
AcDbEntity
  8
_0-0_
  6
Continuous
 62
     4
100
AcDbLine
 10
4726.521249359957
 20
3102.25806451613
 30
0.0
 11
4703.339029529021
 21
3096.046407433669
 31
0.0
  0
LINE
  5
282
330
20
100
AcDbEntity
  8
_0-0_
  6
Continuous
 62
     4
100
AcDbLine
 10
4726.521249359957
 20
3102.25806451613
 30
0.0
 11
4703.339029529021
 21
3108.46972159859
 31
0.0
  0
LINE
  5
283
330
20
100
AcDbEntity
  8
_0-0_
  6
Continuous
 62
     4
100
AcDbLine
 10
4526.521249359958
 20
3102.25806451613
 30
0.0
 11
4549.703469190895
 21
3108.46972159859
 31
0.0
  0
LINE
  5
284
330
20
100
AcDbEntity
  8
_0-0_
  6
Continuous
 62
     4
100
AcDbLine
 10
4526.521249359958
 20
3102.25806451613
 30
0.0
 11
4549.703469190895
 21
3096.046407433669
 31
0.0
  0
LINE
  5
285
330
20
100
AcDbEntity
  8
_0-0_
  6
Continuous
 62
     4
100
AcDbLine
 10
4526.521249359958
 20
3102.25806451613
 30
0.0
 11
4503.339029529021
 21
3096.046407433669
 31
0.0
  0
LINE
  5
286
330
20
100
AcDbEntity
  8
_0-0_
  6
Continuous
 62
     4
100
AcDbLine
 10
4526.521249359958
 20
3102.25806451613
 30
0.0
 11
4503.339029529021
 21
3108.46972159859
 31
0.0
  0
LINE
  5
287
330
20
100
AcDbEntity
  8
_0-0_
  6
Continuous
 62
     4
100
AcDbLine
 10
4326.521249359958
 20
3102.25806451613
 30
0.0
 11
4349.703469190895
 21
3108.46972159859
 31
0.0
  0
LINE
  5
288
330
20
100
AcDbEntity
  8
_0-0_
  6
Continuous
 62
     4
100
AcDbLine
 10
4326.521249359958
 20
3102.25806451613
 30
0.0
 11
4349.703469190895
 21
3096.046407433669
 31
0.0
  0
TEXT
  5
289
330
20
100
AcDbEntity
  8
_0-0_
 62
     7
100
AcDbText
 10
4351.990417452003
 20
3113.080142515942
 30
0.0
 40
60.0
  1
200
100
AcDbText
  0
TEXT
  5
28A
330
20
100
AcDbEntity
  8
_0-0_
 62
     7
100
AcDbText
 10
4553.262055655637
 20
3113.080142515942
 30
0.0
 40
60.0
  1
200
100
AcDbText
  0
LINE
  5
28B
330
20
100
AcDbEntity
  8
_0-0_
  6
Continuous
 62
     4
100
AcDbLine
 10
3676.521249359959
 20
2262.258064516129
 30
0.0
 11
3806.521249359958
 21
2262.258064516129
 31
0.0
  0
LINE
  5
28C
330
20
100
AcDbEntity
  8
_0-0_
  6
Continuous
 62
     4
100
AcDbLine
 10
3676.521249359959
 20
2062.258064516129
 30
0.0
 11
3806.521249359958
 21
2062.258064516129
 31
0.0
  0
LINE
  5
28D
330
20
100
AcDbEntity
  8
_0-0_
  6
Continuous
 62
     4
100
AcDbLine
 10
3676.521249359959
 20
2462.25806451613
 30
0.0
 11
3806.521249359958
 21
2462.25806451613
 31
0.0
  0
LINE
  5
28E
330
20
100
AcDbEntity
  8
_0-0_
  6
Continuous
 62
     4
100
AcDbLine
 10
3686.521249359959
 20
2062.258064516129
 30
0.0
 11
3686.521249359959
 21
2262.258064516129
 31
0.0
  0
LINE
  5
28F
330
20
100
AcDbEntity
  8
_0-0_
  6
Continuous
 62
     4
100
AcDbLine
 10
3686.521249359959
 20
2462.25806451613
 30
0.0
 11
3686.521249359959
 21
2262.258064516129
 31
0.0
  0
LINE
  5
290
330
20
100
AcDbEntity
  8
_0-0_
  6
Continuous
 62
     4
100
AcDbLine
 10
3686.521249359959
 20
2462.25806451613
 30
0.0
 11
3692.732906442419
 21
2439.075844685192
 31
0.0
  0
LINE
  5
291
330
20
100
AcDbEntity
  8
_0-0_
  6
Continuous
 62
     4
100
AcDbLine
 10
3686.521249359959
 20
2462.25806451613
 30
0.0
 11
3680.309592277497
 21
2439.075844685192
 31
0.0
  0
LINE
  5
292
330
20
100
AcDbEntity
  8
_0-0_
  6
Continuous
 62
     4
100
AcDbLine
 10
3686.521249359959
 20
2262.258064516129
 30
0.0
 11
3680.309592277497
 21
2285.440284347067
 31
0.0
  0
LINE
  5
293
330
20
100
AcDbEntity
  8
_0-0_
  6
Continuous
 62
     4
100
AcDbLine
 10
3686.521249359959
 20
2262.258064516129
 30
0.0
 11
3692.732906442419
 21
2285.440284347067
 31
0.0
  0
LINE
  5
294
330
20
100
AcDbEntity
  8
_0-0_
  6
Continuous
 62
     4
100
AcDbLine
 10
3686.521249359959
 20
2262.258064516129
 30
0.0
 11
3692.732906442419
 21
2239.075844685192
 31
0.0
  0
LINE
  5
295
330
20
100
AcDbEntity
  8
_0-0_
  6
Continuous
 62
     4
100
AcDbLine
 10
3686.521249359959
 20
2262.258064516129
 30
0.0
 11
3680.309592277497
 21
2239.075844685192
 31
0.0
  0
LINE
  5
296
330
20
100
AcDbEntity
  8
_0-0_
  6
Continuous
 62
     4
100
AcDbLine
 10
3686.521249359959
 20
2062.258064516129
 30
0.0
 11
3680.309592277497
 21
2085.440284347066
 31
0.0
  0
LINE
  5
297
330
20
100
AcDbEntity
  8
_0-0_
  6
Continuous
 62
     4
100
AcDbLine
 10
3686.521249359959
 20
2062.258064516129
 30
0.0
 11
3692.732906442419
 21
2085.440284347066
 31
0.0
  0
TEXT
  5
298
330
20
100
AcDbEntity
  8
_0-0_
 62
     7
100
AcDbText
 10
3674.262865217965
 20
2302.396016430281
 30
0.0
 40
60.0
  1
200
 50
90.0
100
AcDbText
  0
TEXT
  5
299
330
20
100
AcDbEntity
  8
_0-0_
 62
     7
100
AcDbText
 10
3673.172013767562
 20
2103.861052456728
 30
0.0
 40
60.0
  1
200
 50
90.0
100
AcDbText
  0
LINE
  5
29A
330
20
100
AcDbEntity
  8
_0-0_
  6
DASHED1
 62
   136
100
AcDbLine
 10
4604.302995290479
 20
2340.039810446649
 30
0.0
 11
5076.521249359958
 21
2812.258064516129
 31
0.0
  0
LINE
  5
29B
330
20
100
AcDbEntity
  8
_0-0_
  6
DASHED1
 62
   136
100
AcDbLine
 10
4604.302995290479
 20
2184.476318585609
 30
0.0
 11
5076.521249359958
 21
1712.258064516129
 31
0.0
  0
LINE
  5
496
330
20
100
AcDbEntity
  8
0
  6
Continuous
 62
     4
100
AcDbLine
 10
1810.611099979964
 20
2405.94470046083
 30
0.0
 11
2378.526673011307
 21
2405.94470046083
 31
0.0
  0
ENDSEC
  0
SECTION
  2
OBJECTS
  0
DICTIONARY
  5
C
330
0
100
AcDbDictionary
281
     1
  3
ACAD_COLOR
350
1B
  3
ACAD_GROUP
350
D
  3
ACAD_LAYOUT
350
19
  3
ACAD_MATERIAL
350
1A
  3
ACAD_MLINESTYLE
350
16
  3
ACAD_PLOTSETTINGS
350
18
  3
ACAD_PLOTSTYLENAME
350
E
  3
ACDBHEADERROUNDTRIPXREC
350
49B
  3
AcDbVariableDictionary
350
497
  0
DICTIONARY
  5
1B
102
{ACAD_REACTORS
330
C
102
}
330
C
100
AcDbDictionary
281
     1
  0
DICTIONARY
  5
D
102
{ACAD_REACTORS
330
C
102
}
330
C
100
AcDbDictionary
281
     1
  0
DICTIONARY
  5
19
102
{ACAD_REACTORS
330
C
102
}
330
C
100
AcDbDictionary
281
     1
  3
Model
350
23
  3
レイアウト1
350
1F
  0
DICTIONARY
  5
1A
102
{ACAD_REACTORS
330
C
102
}
330
C
100
AcDbDictionary
281
     1
  0
DICTIONARY
  5
16
102
{ACAD_REACTORS
330
C
102
}
330
C
100
AcDbDictionary
281
     1
  3
Standard
350
17
  0
DICTIONARY
  5
18
102
{ACAD_REACTORS
330
C
102
}
330
C
100
AcDbDictionary
281
     1
  0
ACDBDICTIONARYWDFLT
  5
E
102
{ACAD_REACTORS
330
C
102
}
330
C
100
AcDbDictionary
281
     1
  3
Normal
350
F
100
AcDbDictionaryWithDefault
340
F
  0
DICTIONARY
  5
49B
102
{ACAD_REACTORS
330
C
102
}
330
C
100
AcDbDictionary
281
     1
  3
COLORDICT
350
49D
  3
MATERIALDICT
350
49C
  0
DICTIONARY
  5
497
102
{ACAD_REACTORS
330
C
102
}
330
C
100
AcDbDictionary
281
     1
  3
DIMASSOC
350
498
  3
PROJECTNAME
350
499
  0
LAYOUT
  5
23
102
{ACAD_XDICTIONARY
360
4A0
102
}
102
{ACAD_REACTORS
330
19
102
}
330
19
100
AcDbPlotSettings
  1

  2
RICOH imagio MP C3300 RPCS
  4

  6

 40
0.0
 41
0.0
 42
0.0
 43
0.0
 44
0.0
 45
0.0
 46
0.0
 47
0.0
 48
0.0
 49
0.0
140
0.0
141
0.0
142
1.0
143
1.0
 70
  1712
 72
     0
 73
     0
 74
     0
  7

 75
     0
147
1.0
148
0.0
149
0.0
100
AcDbLayout
  1
Model
 70
     1
 71
     0
 10
0.0
 20
0.0
 11
12.0
 21
9.0
 12
0.0
 22
0.0
 32
0.0
 14
0.0
 24
0.0
 34
0.0
 15
0.0
 25
0.0
 35
0.0
146
0.0
 13
0.0
 23
0.0
 33
0.0
 16
1.0
 26
0.0
 36
0.0
 17
0.0
 27
1.0
 37
0.0
 76
     0
330
20
  0
LAYOUT
  5
1F
102
{ACAD_XDICTIONARY
360
49E
102
}
102
{ACAD_REACTORS
330
19
102
}
330
19
100
AcDbPlotSettings
  1

  2
RICOH imagio MP C3300 RPCS
  4

  6

 40
0.0
 41
0.0
 42
0.0
 43
0.0
 44
0.0
 45
0.0
 46
0.0
 47
0.0
 48
0.0
 49
0.0
140
0.0
141
0.0
142
1.0
143
1.0
 70
   688
 72
     0
 73
     0
 74
     5
  7

 75
    16
147
1.0
148
0.0
149
0.0
100
AcDbLayout
  1
レイアウト1
 70
     1
 71
     1
 10
0.0
 20
0.0
 11
12.0
 21
9.0
 12
0.0
 22
0.0
 32
0.0
 14
1.000000000000000E+20
 24
1.000000000000000E+20
 34
1.000000000000000E+20
 15
-1.000000000000000E+20
 25
-1.000000000000000E+20
 35
-1.000000000000000E+20
146
0.0
 13
0.0
 23
0.0
 33
0.0
 16
1.0
 26
0.0
 36
0.0
 17
0.0
 27
1.0
 37
0.0
 76
     0
330
1C
  0
MLINESTYLE
  5
17
102
{ACAD_REACTORS
330
16
102
}
330
16
100
AcDbMlineStyle
  2
STANDARD
 70
     0
  3

 62
   256
 51
90.0
 52
90.0
 71
     2
 49
0.5
 62
   256
  6
BYLAYER
 49
-0.5
 62
   256
  6
BYLAYER
  0
ACDBPLACEHOLDER
  5
F
102
{ACAD_REACTORS
330
E
102
}
330
E
  0
XRECORD
  5
49D
102
{ACAD_REACTORS
330
49B
102
}
330
49B
100
AcDbXrecord
280
     1
340
1B
  0
XRECORD
  5
49C
102
{ACAD_REACTORS
330
49B
102
}
330
49B
100
AcDbXrecord
280
     1
340
1A
  0
DICTIONARYVAR
  5
498
102
{ACAD_REACTORS
330
497
102
}
330
497
100
DictionaryVariables
280
     0
  1
1
  0
DICTIONARYVAR
  5
499
102
{ACAD_REACTORS
330
497
102
}
330
497
100
DictionaryVariables
280
     0
  1

  0
DICTIONARY
  5
4A0
330
23
100
AcDbDictionary
280
     1
281
     1
  3
ACAD_XREC_ROUNDTRIP
360
4A1
  0
DICTIONARY
  5
49E
330
1F
100
AcDbDictionary
280
     1
281
     1
  3
ACAD_XREC_ROUNDTRIP
360
49F
  0
XRECORD
  5
4A1
102
{ACAD_REACTORS
330
4A0
102
}
330
4A0
100
AcDbXrecord
280
     1
102
SHADEPLOT
 70
     0
102
SHADEPLOTRESLEVEL
 70
     2
102
SHADEPLOTCUSTOMDPI
 70
   300
  0
XRECORD
  5
49F
102
{ACAD_REACTORS
330
49E
102
}
330
49E
100
AcDbXrecord
280
     1
102
SHADEPLOT
 70
     0
102
SHADEPLOTRESLEVEL
 70
     2
102
SHADEPLOTCUSTOMDPI
 70
   300
  0
ENDSEC
  0
EOF
