  0
SECTION
  2
HEADER
  9
$ACADVER
  1
AC1015
  9
$ACADMAINTVER
 70
    20
  9
$DWGCODEPAGE
  3
ANSI_932
  9
$INSBASE
 10
0.0
 20
0.0
 30
0.0
  9
$EXTMIN
 10
237.1296104592384
 20
224.9450808448546
 30
-0.0015258207003583
  9
$EXTMAX
 10
7411.064546690399
 20
5025.054943602365
 30
0.0000000349246037
  9
$LIMMIN
 10
0.0
 20
0.0
  9
$LIMMAX
 10
7425.0
 20
5250.0
  9
$ORTHOMODE
 70
     1
  9
$REGENMODE
 70
     1
  9
$FILLMODE
 70
     1
  9
$QTEXTMODE
 70
     0
  9
$MIRRTEXT
 70
     0
  9
$LTSCALE
 40
25.0
  9
$ATTMODE
 70
     1
  9
$TEXTSIZE
 40
0.2
  9
$TRACEWID
 40
0.05
  9
$TEXTSTYLE
  7
STANDARD
  9
$CLAYER
  8
0
  9
$CELTYPE
  6
CONTINUOUS
  9
$CECOLOR
 62
   256
  9
$CELTSCALE
 40
1.0
  9
$DISPSILH
 70
     0
  9
$DIMSCALE
 40
1.0
  9
$DIMASZ
 40
0.18
  9
$DIMEXO
 40
0.0625
  9
$DIMDLI
 40
0.38
  9
$DIMRND
 40
0.0
  9
$DIMDLE
 40
0.0
  9
$DIMEXE
 40
0.18
  9
$DIMTP
 40
0.0
  9
$DIMTM
 40
0.0
  9
$DIMTXT
 40
0.18
  9
$DIMCEN
 40
0.09
  9
$DIMTSZ
 40
0.0
  9
$DIMTOL
 70
     0
  9
$DIMLIM
 70
     0
  9
$DIMTIH
 70
     1
  9
$DIMTOH
 70
     1
  9
$DIMSE1
 70
     0
  9
$DIMSE2
 70
     0
  9
$DIMTAD
 70
     0
  9
$DIMZIN
 70
     0
  9
$DIMBLK
  1

  9
$DIMASO
 70
     1
  9
$DIMSHO
 70
     1
  9
$DIMPOST
  1

  9
$DIMAPOST
  1

  9
$DIMALT
 70
     0
  9
$DIMALTD
 70
     2
  9
$DIMALTF
 40
25.4
  9
$DIMLFAC
 40
1.0
  9
$DIMTOFL
 70
     0
  9
$DIMTVP
 40
0.0
  9
$DIMTIX
 70
     0
  9
$DIMSOXD
 70
     0
  9
$DIMSAH
 70
     0
  9
$DIMBLK1
  1

  9
$DIMBLK2
  1

  9
$DIMSTYLE
  2
Standard
  9
$DIMCLRD
 70
     0
  9
$DIMCLRE
 70
     0
  9
$DIMCLRT
 70
     0
  9
$DIMTFAC
 40
1.0
  9
$DIMGAP
 40
0.09
  9
$DIMJUST
 70
     0
  9
$DIMSD1
 70
     0
  9
$DIMSD2
 70
     0
  9
$DIMTOLJ
 70
     1
  9
$DIMTZIN
 70
     0
  9
$DIMALTZ
 70
     0
  9
$DIMALTTZ
 70
     0
  9
$DIMUPT
 70
     0
  9
$DIMDEC
 70
     4
  9
$DIMTDEC
 70
     4
  9
$DIMALTU
 70
     2
  9
$DIMALTTD
 70
     2
  9
$DIMTXSTY
  7
STANDARD
  9
$DIMAUNIT
 70
     0
  9
$DIMADEC
 70
     0
  9
$DIMALTRND
 40
0.0
  9
$DIMAZIN
 70
     0
  9
$DIMDSEP
 70
    46
  9
$DIMATFIT
 70
     3
  9
$DIMFRAC
 70
     0
  9
$DIMLDRBLK
  1

  9
$DIMLUNIT
 70
     2
  9
$DIMLWD
 70
    -2
  9
$DIMLWE
 70
    -2
  9
$DIMTMOVE
 70
     0
  9
$LUNITS
 70
     2
  9
$LUPREC
 70
     4
  9
$SKETCHINC
 40
0.1
  9
$FILLETRAD
 40
0.0
  9
$AUNITS
 70
     0
  9
$AUPREC
 70
     0
  9
$MENU
  1
.
  9
$ELEVATION
 40
0.0
  9
$PELEVATION
 40
0.0
  9
$THICKNESS
 40
0.0
  9
$LIMCHECK
 70
     0
  9
$CHAMFERA
 40
0.0
  9
$CHAMFERB
 40
0.0
  9
$CHAMFERC
 40
0.0
  9
$CHAMFERD
 40
0.0
  9
$SKPOLY
 70
     0
  9
$TDCREATE
 40
2457253.715298287
  9
$TDUCREATE
 40
2457253.340298287
  9
$TDUPDATE
 40
2457253.718075232
  9
$TDUUPDATE
 40
2457253.343075232
  9
$TDINDWG
 40
0.0027774884
  9
$TDUSRTIMER
 40
0.0027774884
  9
$USRTIMER
 70
     1
  9
$ANGBASE
 50
0.0
  9
$ANGDIR
 70
     0
  9
$PDMODE
 70
     0
  9
$PDSIZE
 40
0.0
  9
$PLINEWID
 40
0.0
  9
$SPLFRAME
 70
     0
  9
$SPLINETYPE
 70
     6
  9
$SPLINESEGS
 70
     8
  9
$HANDSEED
  5
2D7
  9
$SURFTAB1
 70
     6
  9
$SURFTAB2
 70
     6
  9
$SURFTYPE
 70
     6
  9
$SURFU
 70
     6
  9
$SURFV
 70
     6
  9
$UCSBASE
  2

  9
$UCSNAME
  2

  9
$UCSORG
 10
0.0
 20
0.0
 30
0.0
  9
$UCSXDIR
 10
1.0
 20
0.0
 30
0.0
  9
$UCSYDIR
 10
0.0
 20
1.0
 30
0.0
  9
$UCSORTHOREF
  2

  9
$UCSORTHOVIEW
 70
     0
  9
$UCSORGTOP
 10
0.0
 20
0.0
 30
0.0
  9
$UCSORGBOTTOM
 10
0.0
 20
0.0
 30
0.0
  9
$UCSORGLEFT
 10
0.0
 20
0.0
 30
0.0
  9
$UCSORGRIGHT
 10
0.0
 20
0.0
 30
0.0
  9
$UCSORGFRONT
 10
0.0
 20
0.0
 30
0.0
  9
$UCSORGBACK
 10
0.0
 20
0.0
 30
0.0
  9
$PUCSBASE
  2

  9
$PUCSNAME
  2

  9
$PUCSORG
 10
0.0
 20
0.0
 30
0.0
  9
$PUCSXDIR
 10
1.0
 20
0.0
 30
0.0
  9
$PUCSYDIR
 10
0.0
 20
1.0
 30
0.0
  9
$PUCSORTHOREF
  2

  9
$PUCSORTHOVIEW
 70
     0
  9
$PUCSORGTOP
 10
0.0
 20
0.0
 30
0.0
  9
$PUCSORGBOTTOM
 10
0.0
 20
0.0
 30
0.0
  9
$PUCSORGLEFT
 10
0.0
 20
0.0
 30
0.0
  9
$PUCSORGRIGHT
 10
0.0
 20
0.0
 30
0.0
  9
$PUCSORGFRONT
 10
0.0
 20
0.0
 30
0.0
  9
$PUCSORGBACK
 10
0.0
 20
0.0
 30
0.0
  9
$USERI1
 70
     0
  9
$USERI2
 70
     0
  9
$USERI3
 70
     0
  9
$USERI4
 70
     0
  9
$USERI5
 70
     0
  9
$USERR1
 40
0.0
  9
$USERR2
 40
0.0
  9
$USERR3
 40
0.0
  9
$USERR4
 40
0.0
  9
$USERR5
 40
0.0
  9
$WORLDVIEW
 70
     1
  9
$SHADEDGE
 70
     3
  9
$SHADEDIF
 70
    70
  9
$TILEMODE
 70
     1
  9
$MAXACTVP
 70
    64
  9
$PINSBASE
 10
0.0
 20
0.0
 30
0.0
  9
$PLIMCHECK
 70
     0
  9
$PEXTMIN
 10
1.000000000000000E+20
 20
1.000000000000000E+20
 30
1.000000000000000E+20
  9
$PEXTMAX
 10
-1.000000000000000E+20
 20
-1.000000000000000E+20
 30
-1.000000000000000E+20
  9
$PLIMMIN
 10
0.0
 20
0.0
  9
$PLIMMAX
 10
12.0
 20
9.0
  9
$UNITMODE
 70
     0
  9
$VISRETAIN
 70
     1
  9
$PLINEGEN
 70
     0
  9
$PSLTSCALE
 70
     1
  9
$TREEDEPTH
 70
  3020
  9
$CMLSTYLE
  2
Standard
  9
$CMLJUST
 70
     0
  9
$CMLSCALE
 40
1.0
  9
$PROXYGRAPHICS
 70
     1
  9
$MEASUREMENT
 70
     0
  9
$CELWEIGHT
370
    -1
  9
$ENDCAPS
280
     0
  9
$JOINSTYLE
280
     0
  9
$LWDISPLAY
290
     0
  9
$INSUNITS
 70
     0
  9
$HYPERLINKBASE
  1

  9
$STYLESHEET
  1

  9
$XEDIT
290
     1
  9
$CEPSNTYPE
380
     0
  9
$PSTYLEMODE
290
     1
  9
$FINGERPRINTGUID
  2
{CB3D9BBE-692C-48A8-A369-92C1DC83CC64}
  9
$VERSIONGUID
  2
{4107A4C4-AA77-43A2-89A4-AE0D74055EA4}
  9
$EXTNAMES
290
     1
  9
$PSVPSCALE
 40
0.0
  9
$OLESTARTUP
290
     0
  0
ENDSEC
  0
SECTION
  2
CLASSES
  0
CLASS
  1
ACDBDICTIONARYWDFLT
  2
AcDbDictionaryWithDefault
  3
ObjectDBX Classes
 90
        0
280
     0
281
     0
  0
CLASS
  1
DICTIONARYVAR
  2
AcDbDictionaryVar
  3
ObjectDBX Classes
 90
        0
280
     0
281
     0
  0
CLASS
  1
ACDBPLACEHOLDER
  2
AcDbPlaceHolder
  3
ObjectDBX Classes
 90
        0
280
     0
281
     0
  0
CLASS
  1
LAYOUT
  2
AcDbLayout
  3
ObjectDBX Classes
 90
        0
280
     0
281
     0
  0
ENDSEC
  0
SECTION
  2
TABLES
  0
TABLE
  2
VPORT
  5
8
330
0
100
AcDbSymbolTable
 70
     2
  0
VPORT
  5
2CF
330
8
100
AcDbSymbolTableRecord
100
AcDbViewportTableRecord
  2
*Active
 70
     0
 10
0.0
 20
0.0
 11
1.0
 21
1.0
 12
3562.942659335927
 22
2147.375270334519
 13
0.0
 23
0.0
 14
1.0
 24
1.0
 15
0.0
 25
0.0
 16
0.0
 26
0.0
 36
1.0
 17
0.0
 27
0.0
 37
0.0
 40
6319.87328947768
 41
1.609333333333333
 42
50.0
 43
0.0
 44
0.0
 50
0.0
 51
0.0
 71
     0
 72
   100
 73
     1
 74
     1
 75
     0
 76
     0
 77
     0
 78
     0
281
     0
 65
     1
110
0.0
120
0.0
130
0.0
111
1.0
121
0.0
131
0.0
112
0.0
122
1.0
132
0.0
 79
     0
146
0.0
  0
ENDTAB
  0
TABLE
  2
LTYPE
  5
5
330
0
100
AcDbSymbolTable
 70
    35
  0
LTYPE
  5
13
330
5
100
AcDbSymbolTableRecord
100
AcDbLinetypeTableRecord
  2
ByBlock
 70
     0
  3

 72
    65
 73
     0
 40
0.0
  0
LTYPE
  5
14
330
5
100
AcDbSymbolTableRecord
100
AcDbLinetypeTableRecord
  2
ByLayer
 70
     0
  3

 72
    65
 73
     0
 40
0.0
  0
LTYPE
  5
15
330
5
100
AcDbSymbolTableRecord
100
AcDbLinetypeTableRecord
  2
CONTINUOUS
 70
     0
  3
実線
 72
    65
 73
     0
 40
0.0
  0
LTYPE
  5
24
330
5
100
AcDbSymbolTableRecord
100
AcDbLinetypeTableRecord
  2
DASHED1
 70
     0
  3
--  --  --  --  --  --  --  --  
 72
    65
 73
     2
 40
2.5
 49
1.25
 74
     0
 49
-1.25
 74
     0
  0
LTYPE
  5
25
330
5
100
AcDbSymbolTableRecord
100
AcDbLinetypeTableRecord
  2
DASHED2
 70
     0
  3
----    ----    ----    ----    
 72
    65
 73
     2
 40
5.0
 49
2.5
 74
     0
 49
-2.5
 74
     0
  0
LTYPE
  5
26
330
5
100
AcDbSymbolTableRecord
100
AcDbLinetypeTableRecord
  2
DASHED3
 70
     0
  3
------  ------  ------  ------  
 72
    65
 73
     2
 40
5.0
 49
3.75
 74
     0
 49
-1.25
 74
     0
  0
LTYPE
  5
27
330
5
100
AcDbSymbolTableRecord
100
AcDbLinetypeTableRecord
  2
CENTER1
 70
     0
  3
----- - ----- - ----- - ----- - 
 72
    65
 73
     4
 40
10.0
 49
6.25
 74
     0
 49
-1.25
 74
     0
 49
1.25
 74
     0
 49
-1.25
 74
     0
  0
LTYPE
  5
28
330
5
100
AcDbSymbolTableRecord
100
AcDbLinetypeTableRecord
  2
CENTER2
 70
     0
  3
----------  --  ----------  --  
 72
    65
 73
     4
 40
20.0
 49
12.5
 74
     0
 49
-2.5
 74
     0
 49
2.5
 74
     0
 49
-2.5
 74
     0
  0
LTYPE
  5
29
330
5
100
AcDbSymbolTableRecord
100
AcDbLinetypeTableRecord
  2
PHANTOM1
 70
     0
  3
--- - - --- - - --- - - --- - - 
 72
    65
 73
     6
 40
10.0
 49
3.25
 74
     0
 49
-1.25
 74
     0
 49
1.25
 74
     0
 49
-1.25
 74
     0
 49
1.25
 74
     0
 49
-1.25
 74
     0
  0
LTYPE
  5
2A
330
5
100
AcDbSymbolTableRecord
100
AcDbLinetypeTableRecord
  2
PHANTOM2
 70
     0
  3
--------  -  -  --------  -  -  
 72
    65
 73
     6
 40
20.0
 49
10.0
 74
     0
 49
-2.5
 74
     0
 49
1.25
 74
     0
 49
-2.5
 74
     0
 49
1.25
 74
     0
 49
-2.5
 74
     0
  0
LTYPE
  5
2B
330
5
100
AcDbSymbolTableRecord
100
AcDbLinetypeTableRecord
  2
DOT
 70
     0
  3
-   -   -   -   -   -   -   -   
 72
    65
 73
     2
 40
2.5
 49
0.625
 74
     0
 49
-1.875
 74
     0
  0
LTYPE
  5
2C
330
5
100
AcDbSymbolTableRecord
100
AcDbLinetypeTableRecord
  2
DUMMY
 70
     0
  3
ダミー
 72
    65
 73
     0
 40
0.0
  0
LTYPE
  5
2D
330
5
100
AcDbSymbolTableRecord
100
AcDbLinetypeTableRecord
  2
RAND1
 70
     0
  3
ランダム線1
 72
    65
 73
     4
 40
10.0
 49
1.0
 74
     0
 49
-2.0
 74
     0
 49
3.0
 74
     0
 49
-4.0
 74
     0
  0
LTYPE
  5
2E
330
5
100
AcDbSymbolTableRecord
100
AcDbLinetypeTableRecord
  2
RAND2
 70
     0
  3
ランダム線2
 72
    65
 73
     4
 40
14.0
 49
2.0
 74
     0
 49
-3.0
 74
     0
 49
4.0
 74
     0
 49
-5.0
 74
     0
  0
LTYPE
  5
2F
330
5
100
AcDbSymbolTableRecord
100
AcDbLinetypeTableRecord
  2
RAND3
 70
     0
  3
ランダム線3
 72
    65
 73
     4
 40
18.0
 49
3.0
 74
     0
 49
-4.0
 74
     0
 49
5.0
 74
     0
 49
-6.0
 74
     0
  0
LTYPE
  5
30
330
5
100
AcDbSymbolTableRecord
100
AcDbLinetypeTableRecord
  2
RAND4
 70
     0
  3
ランダム線4
 72
    65
 73
     4
 40
22.0
 49
4.0
 74
     0
 49
-5.0
 74
     0
 49
6.0
 74
     0
 49
-7.0
 74
     0
  0
LTYPE
  5
31
330
5
100
AcDbSymbolTableRecord
100
AcDbLinetypeTableRecord
  2
RAND5
 70
     0
  3
ランダム線5
 72
    65
 73
     4
 40
26.0
 49
5.0
 74
     0
 49
-6.0
 74
     0
 49
7.0
 74
     0
 49
-8.0
 74
     0
  0
LTYPE
  5
32
330
5
100
AcDbSymbolTableRecord
100
AcDbLinetypeTableRecord
  2
LONG1
 70
     0
  3
----------  --  ----------  --  
 72
    65
 73
     4
 40
40.0
 49
32.5
 74
     0
 49
-2.5
 74
     0
 49
2.5
 74
     0
 49
-2.5
 74
     0
  0
LTYPE
  5
33
330
5
100
AcDbSymbolTableRecord
100
AcDbLinetypeTableRecord
  2
LONG2
 70
     0
  3
--------  -  -  --------  -  -  
 72
    65
 73
     6
 40
40.0
 49
30.0
 74
     0
 49
-2.5
 74
     0
 49
1.25
 74
     0
 49
-2.5
 74
     0
 49
1.25
 74
     0
 49
-2.5
 74
     0
  0
LTYPE
  5
34
330
5
100
AcDbSymbolTableRecord
100
AcDbLinetypeTableRecord
  2
LONG3
 70
     0
  3
+++++++++++++++..+++++++++++++++
 72
    65
 73
     2
 40
40.0
 49
37.5
 74
     0
 49
-2.5
 74
     0
  0
LTYPE
  5
35
330
5
100
AcDbSymbolTableRecord
100
AcDbLinetypeTableRecord
  2
LONG4
 70
     0
  3
+++++++++++++++..+++++++++++++++
 72
    65
 73
     2
 40
80.0
 49
75.0
 74
     0
 49
-5.0
 74
     0
  0
LTYPE
  5
36
330
5
100
AcDbSymbolTableRecord
100
AcDbLinetypeTableRecord
  2
LONG5
 70
     0
  3
----------  --  ----------  --  
 72
    65
 73
     4
 40
60.0
 49
37.5
 74
     0
 49
-7.5
 74
     0
 49
7.5
 74
     0
 49
-7.5
 74
     0
  0
LTYPE
  5
37
330
5
100
AcDbSymbolTableRecord
100
AcDbLinetypeTableRecord
  2
DASHED
 70
     0
  3
-------   -------------   ------
 72
    65
 73
     2
 40
7.5
 49
6.0
 74
     0
 49
-1.5
 74
     0
  0
LTYPE
  5
38
330
5
100
AcDbSymbolTableRecord
100
AcDbLinetypeTableRecord
  2
DASHED_SPACED
 70
     0
  3
----        --------        ----
 72
    65
 73
     2
 40
12.0
 49
6.0
 74
     0
 49
-6.0
 74
     0
  0
LTYPE
  5
39
330
5
100
AcDbSymbolTableRecord
100
AcDbLinetypeTableRecord
  2
LONG_DASHED_DOTTED
 70
     0
  3
------------- --- --------------
 72
    65
 73
     4
 40
15.25
 49
12.0
 74
     0
 49
-1.5
 74
     0
 49
0.25
 74
     0
 49
-1.5
 74
     0
  0
LTYPE
  5
3A
330
5
100
AcDbSymbolTableRecord
100
AcDbLinetypeTableRecord
  2
LONG_DASHED_DOUBLE-DOTTED
 70
     0
  3
----------- --- --- ------------
 72
    65
 73
     6
 40
17.0
 49
12.0
 74
     0
 49
-1.5
 74
     0
 49
0.25
 74
     0
 49
-1.5
 74
     0
 49
0.25
 74
     0
 49
-1.5
 74
     0
  0
LTYPE
  5
3B
330
5
100
AcDbSymbolTableRecord
100
AcDbLinetypeTableRecord
  2
LONG_DASHED_TRIPLICATE-DOTTED
 70
     0
  3
--------- --- --- --- ----------
 72
    65
 73
     8
 40
18.75
 49
12.0
 74
     0
 49
-1.5
 74
     0
 49
0.25
 74
     0
 49
-1.5
 74
     0
 49
0.25
 74
     0
 49
-1.5
 74
     0
 49
0.25
 74
     0
 49
-1.5
 74
     0
  0
LTYPE
  5
3C
330
5
100
AcDbSymbolTableRecord
100
AcDbLinetypeTableRecord
  2
DOTTED
 70
     0
  3
   -       -       -       -    
 72
    65
 73
     2
 40
1.75
 49
0.25
 74
     0
 49
-1.5
 74
     0
  0
LTYPE
  5
3D
330
5
100
AcDbSymbolTableRecord
100
AcDbLinetypeTableRecord
  2
CHAIN
 70
     0
  3
-------------- -- --------------
 72
    65
 73
     4
 40
18.5
 49
12.0
 74
     0
 49
-1.5
 74
     0
 49
3.5
 74
     0
 49
-1.5
 74
     0
  0
LTYPE
  5
3E
330
5
100
AcDbSymbolTableRecord
100
AcDbLinetypeTableRecord
  2
CHAIN_DOUBLE_DASH
 70
     0
  3
------------ -- -- -------------
 72
    65
 73
     6
 40
23.5
 49
12.0
 74
     0
 49
-1.5
 74
     0
 49
3.5
 74
     0
 49
-1.5
 74
     0
 49
3.5
 74
     0
 49
-1.5
 74
     0
  0
LTYPE
  5
3F
330
5
100
AcDbSymbolTableRecord
100
AcDbLinetypeTableRecord
  2
DASHED_DOTTED
 70
     0
  3
-----------     -     ----------
 72
    65
 73
     4
 40
9.25
 49
6.0
 74
     0
 49
-1.5
 74
     0
 49
0.25
 74
     0
 49
-1.5
 74
     0
  0
LTYPE
  5
40
330
5
100
AcDbSymbolTableRecord
100
AcDbLinetypeTableRecord
  2
DOUBLE-DASHED_DOTTED
 70
     0
  3
------   -----------   -   -----
 72
    65
 73
     6
 40
16.75
 49
6.0
 74
     0
 49
-1.5
 74
     0
 49
6.0
 74
     0
 49
-1.5
 74
     0
 49
0.25
 74
     0
 49
-1.5
 74
     0
  0
LTYPE
  5
41
330
5
100
AcDbSymbolTableRecord
100
AcDbLinetypeTableRecord
  2
DASHED_DOUBLE-DOTTED
 70
     0
  3
---------    -    -    ---------
 72
    65
 73
     6
 40
11.0
 49
6.0
 74
     0
 49
-1.5
 74
     0
 49
0.25
 74
     0
 49
-1.5
 74
     0
 49
0.25
 74
     0
 49
-1.5
 74
     0
  0
LTYPE
  5
42
330
5
100
AcDbSymbolTableRecord
100
AcDbLinetypeTableRecord
  2
DOUBLE-DASHED_DOUBLE-DOTTED
 70
     0
  3
-----   ---------   -   -   ----
 72
    65
 73
     8
 40
18.5
 49
6.0
 74
     0
 49
-1.5
 74
     0
 49
6.0
 74
     0
 49
-1.5
 74
     0
 49
0.25
 74
     0
 49
-1.5
 74
     0
 49
0.25
 74
     0
 49
-1.5
 74
     0
  0
LTYPE
  5
43
330
5
100
AcDbSymbolTableRecord
100
AcDbLinetypeTableRecord
  2
DASHED_TRIPLICATE-DOTTED
 70
     0
  3
-------    -    -    -    ------
 72
    65
 73
     8
 40
12.75
 49
6.0
 74
     0
 49
-1.5
 74
     0
 49
0.25
 74
     0
 49
-1.5
 74
     0
 49
0.25
 74
     0
 49
-1.5
 74
     0
 49
0.25
 74
     0
 49
-1.5
 74
     0
  0
LTYPE
  5
44
330
5
100
AcDbSymbolTableRecord
100
AcDbLinetypeTableRecord
  2
DOUBLE-DASHED_TRIPLICATE-DOTTED
 70
     0
  3
-----  ---------  -  -  -  -----
 72
    65
 73
    10
 40
20.25
 49
6.0
 74
     0
 49
-1.5
 74
     0
 49
6.0
 74
     0
 49
-1.5
 74
     0
 49
0.25
 74
     0
 49
-1.5
 74
     0
 49
0.25
 74
     0
 49
-1.5
 74
     0
 49
0.25
 74
     0
 49
-1.5
 74
     0
  0
LTYPE
  5
45
330
5
100
AcDbSymbolTableRecord
100
AcDbLinetypeTableRecord
  2
UNDEFINED
 70
     0
  3
--------------------------------
 72
    65
 73
     0
 40
0.0
  0
ENDTAB
  0
TABLE
  2
LAYER
  5
2
330
0
100
AcDbSymbolTable
 70
     3
  0
LAYER
  5
10
330
2
100
AcDbSymbolTableRecord
100
AcDbLayerTableRecord
  2
0
 70
     0
 62
     7
  6
CONTINUOUS
370
    -3
390
F
  0
LAYER
  5
47
330
2
100
AcDbSymbolTableRecord
100
AcDbLayerTableRecord
  2
_0-0_
 70
     0
 62
     7
  6
CONTINUOUS
370
    -3
390
F
  0
LAYER
  5
48
330
2
100
AcDbSymbolTableRecord
100
AcDbLayerTableRecord
  2
ADD_LINE
 70
     0
 62
     7
  6
CONTINUOUS
370
    -3
390
F
  0
ENDTAB
  0
TABLE
  2
STYLE
  5
3
330
0
100
AcDbSymbolTable
 70
     2
  0
STYLE
  5
11
330
3
100
AcDbSymbolTableRecord
100
AcDbTextStyleTableRecord
  2
STANDARD
 70
     0
 40
0.0
 41
1.0
 50
0.0
 71
     0
 42
0.2
  3
txt
  4
bigfont.shx
  0
STYLE
  5
46
330
3
100
AcDbSymbolTableRecord
100
AcDbTextStyleTableRecord
  2
TATEGAKI
 70
     4
 40
0.0
 41
1.0
 50
0.0
 71
     0
 42
1.0
  3
txt
  4
bigfont.shx
  0
ENDTAB
  0
TABLE
  2
VIEW
  5
6
330
0
100
AcDbSymbolTable
 70
     0
  0
ENDTAB
  0
TABLE
  2
UCS
  5
7
330
0
100
AcDbSymbolTable
 70
     0
  0
ENDTAB
  0
TABLE
  2
APPID
  5
9
330
0
100
AcDbSymbolTable
 70
     1
  0
APPID
  5
12
330
9
100
AcDbSymbolTableRecord
100
AcDbRegAppTableRecord
  2
ACAD
 70
     0
  0
ENDTAB
  0
TABLE
  2
DIMSTYLE
  5
A
330
0
100
AcDbSymbolTable
 70
     1
100
AcDbDimStyleTable
 71
     0
  0
DIMSTYLE
105
2CA
330
A
100
AcDbSymbolTableRecord
100
AcDbDimStyleTableRecord
  2
Standard
 70
     0
340
11
  0
ENDTAB
  0
TABLE
  2
BLOCK_RECORD
  5
1
330
0
100
AcDbSymbolTable
 70
     0
  0
BLOCK_RECORD
  5
20
330
1
100
AcDbSymbolTableRecord
100
AcDbBlockTableRecord
  2
*Model_Space
340
23
  0
BLOCK_RECORD
  5
1C
330
1
100
AcDbSymbolTableRecord
100
AcDbBlockTableRecord
  2
*Paper_Space
340
1F
  0
ENDTAB
  0
ENDSEC
  0
SECTION
  2
BLOCKS
  0
BLOCK
  5
21
330
20
100
AcDbEntity
  8
0
100
AcDbBlockBegin
  2
*Model_Space
 70
     0
 10
0.0
 20
0.0
 30
0.0
  3
*Model_Space
  1

  0
ENDBLK
  5
22
330
20
100
AcDbEntity
  8
0
100
AcDbBlockEnd
  0
BLOCK
  5
1D
330
1C
100
AcDbEntity
 67
     1
  8
0
100
AcDbBlockBegin
  2
*Paper_Space
 70
     0
 10
0.0
 20
0.0
 30
0.0
  3
*Paper_Space
  1

  0
ENDBLK
  5
1E
330
1C
100
AcDbEntity
 67
     1
  8
0
100
AcDbBlockEnd
  0
ENDSEC
  0
SECTION
  2
ENTITIES
  0
LINE
  5
4C
330
20
100
AcDbEntity
  8
_0-0_
  6
Continuous
 62
     7
100
AcDbLine
 10
7187.5
 20
5025.0
 30
0.0
 11
237.5
 21
5025.0
 31
0.0
  0
LINE
  5
4D
330
20
100
AcDbEntity
  8
_0-0_
  6
Continuous
 62
     7
100
AcDbLine
 10
7187.5
 20
225.0
 30
0.0
 11
7187.5
 21
5025.0
 31
0.0
  0
LINE
  5
4E
330
20
100
AcDbEntity
  8
_0-0_
  6
Continuous
 62
     7
100
AcDbLine
 10
237.5
 20
5025.0
 30
0.0
 11
237.5
 21
225.0
 31
0.0
  0
LINE
  5
4F
330
20
100
AcDbEntity
  8
_0-0_
  6
Continuous
 62
     7
100
AcDbLine
 10
237.5
 20
225.0
 30
0.0
 11
7187.5
 21
225.0
 31
0.0
  0
LINE
  5
50
330
20
100
AcDbEntity
  8
_0-0_
  6
Continuous
 62
     7
100
AcDbLine
 10
787.5
 20
4905.0
 30
0.0
 11
237.5
 21
4905.0
 31
0.0
  0
LINE
  5
51
330
20
100
AcDbEntity
  8
_0-0_
  6
Continuous
 62
     7
100
AcDbLine
 10
787.5
 20
5025.0
 30
0.0
 11
787.5
 21
4905.0
 31
0.0
  0
TEXT
  5
52
330
20
100
AcDbEntity
  8
_0-0_
 62
     7
100
AcDbText
 10
265.6605816439566
 20
4920.038252033383
 30
0.0
 40
87.5
  1
組立構造図
100
AcDbText
  0
LINE
  5
53
330
20
100
AcDbEntity
  8
_0-0_
  6
Continuous
 62
     7
100
AcDbLine
 10
5687.5
 20
225.0
 30
0.0
 11
5687.5
 21
944.9999999999997
 31
0.0
  0
TEXT
  5
54
330
20
100
AcDbEntity
  8
_0-0_
 62
     7
100
AcDbText
 10
5710.728952090722
 20
725.7465915606616
 30
0.0
 40
75.0
  1
参考重量
100
AcDbText
  0
LINE
  5
55
330
20
100
AcDbEntity
  8
_0-0_
  6
Continuous
 62
     7
100
AcDbLine
 10
6067.5
 20
344.9999999999999
 30
0.0
 11
6067.5
 21
944.9999999999997
 31
0.0
  0
LINE
  5
56
330
20
100
AcDbEntity
  8
_0-0_
  6
Continuous
 62
     7
100
AcDbLine
 10
4547.499999999999
 20
225.0
 30
0.0
 11
4547.499999999999
 21
944.9999999999997
 31
0.0
  0
LINE
  5
57
330
20
100
AcDbEntity
  8
_0-0_
  6
Continuous
 62
     7
100
AcDbLine
 10
4167.5
 20
225.0
 30
0.0
 11
4167.5
 21
944.9999999999997
 31
0.0
  0
LINE
  5
58
330
20
100
AcDbEntity
  8
_0-0_
  6
Continuous
 62
     7
100
AcDbLine
 10
4167.5
 20
944.9999999999997
 30
0.0
 11
7187.5
 21
944.9999999999997
 31
0.0
  0
LINE
  5
59
330
20
100
AcDbEntity
  8
_0-0_
  6
Continuous
 62
     7
100
AcDbLine
 10
4167.5
 20
824.9999999999996
 30
0.0
 11
7187.5
 21
824.9999999999996
 31
0.0
  0
LINE
  5
5A
330
20
100
AcDbEntity
  8
_0-0_
  6
Continuous
 62
     7
100
AcDbLine
 10
4167.5
 20
704.9999999999997
 30
0.0
 11
7187.5
 21
704.9999999999997
 31
0.0
  0
LINE
  5
5B
330
20
100
AcDbEntity
  8
_0-0_
  6
Continuous
 62
     7
100
AcDbLine
 10
4167.5
 20
584.9999999999997
 30
0.0
 11
7187.5
 21
584.9999999999997
 31
0.0
  0
LINE
  5
5C
330
20
100
AcDbEntity
  8
_0-0_
  6
Continuous
 62
     7
100
AcDbLine
 10
4167.5
 20
464.9999999999999
 30
0.0
 11
7187.5
 21
464.9999999999999
 31
0.0
  0
LINE
  5
5D
330
20
100
AcDbEntity
  8
_0-0_
  6
Continuous
 62
     7
100
AcDbLine
 10
4167.5
 20
344.9999999999999
 30
0.0
 11
7187.5
 21
344.9999999999999
 31
0.0
  0
LINE
  5
5E
330
20
100
AcDbEntity
  8
_0-0_
  6
Continuous
 62
     7
100
AcDbLine
 10
4927.5
 20
225.0
 30
0.0
 11
4927.5
 21
344.9999999999999
 31
0.0
  0
LINE
  5
5F
330
20
100
AcDbEntity
  8
_0-0_
  6
Continuous
 62
     7
100
AcDbLine
 10
5307.5
 20
225.0
 30
0.0
 11
5307.5
 21
344.9999999999999
 31
0.0
  0
TEXT
  5
60
330
20
100
AcDbEntity
  8
_0-0_
 62
     7
100
AcDbText
 10
5745.555280871706
 20
248.4856918162521
 30
0.0
 40
75.0
  1
株式会社　丸治コンクリート工業所
100
AcDbText
  0
TEXT
  5
61
330
20
100
AcDbEntity
  8
_0-0_
 62
     7
100
AcDbText
 10
5709.410031079198
 20
846.0625870753405
 30
0.0
 40
75.0
  1
縮　　尺
100
AcDbText
  0
TEXT
  5
62
330
20
100
AcDbEntity
  8
_0-0_
 62
     7
100
AcDbText
 10
5710.882140177901
 20
607.5809130854143
 30
0.0
 40
75.0
  1
設計Ｎｏ
100
AcDbText
  0
TEXT
  5
63
330
20
100
AcDbEntity
  8
_0-0_
 62
     7
100
AcDbText
 10
5710.882140177901
 20
486.8679669917479
 30
0.0
 40
75.0
  1
図面Ｎｏ
100
AcDbText
  0
TEXT
  5
64
330
20
100
AcDbEntity
  8
_0-0_
 62
     7
100
AcDbText
 10
5710.882140177901
 20
367.6271299967849
 30
0.0
 40
75.0
  1
製 図 日
100
AcDbText
  0
TEXT
  5
65
330
20
100
AcDbEntity
  8
_0-0_
 62
     7
100
AcDbText
 10
6542.097477648707
 20
845.9382764552231
 30
0.0
 40
75.0
  1
1/25
100
AcDbText
  0
TEXT
  5
66
330
20
100
AcDbEntity
  8
_0-0_
 62
     7
100
AcDbText
 10
6152.184062360638
 20
365.1124068253732
 30
0.0
 40
75.0
  1
平成　　年　　月　　日
100
AcDbText
  0
TEXT
  5
67
330
20
100
AcDbEntity
  8
_0-0_
 62
     7
100
AcDbText
 10
6100.878069631613
 20
488.3492893775617
 30
0.0
 40
75.0
  1
FKHH-H1525-CR600
 41
0.95
100
AcDbText
  0
TEXT
  5
68
330
20
100
AcDbEntity
  8
_0-0_
 62
     7
100
AcDbText
 10
6497.651388859394
 20
724.7216706661853
 30
0.0
 40
75.0
  1
7150kg
100
AcDbText
  0
TEXT
  5
69
330
20
100
AcDbEntity
  8
_0-0_
 62
     7
100
AcDbText
 10
4188.827430071803
 20
846.3941431786514
 30
0.0
 40
75.0
  1
製 品 名
100
AcDbText
  0
TEXT
  5
6A
330
20
100
AcDbEntity
  8
_0-0_
 62
     7
100
AcDbText
 10
4188.827430071803
 20
726.4504072446684
 30
0.0
 40
75.0
  1
型　　式
100
AcDbText
  0
TEXT
  5
6B
330
20
100
AcDbEntity
  8
_0-0_
 62
     7
100
AcDbText
 10
4191.98384417533
 20
606.5066713106848
 30
0.0
 40
75.0
  1
呼 び 名
100
AcDbText
  0
TEXT
  5
6C
330
20
100
AcDbEntity
  8
_0-0_
 62
     7
100
AcDbText
 10
4190.405637123567
 20
488.1411424284642
 30
0.0
 40
75.0
  1
寸　　法
100
AcDbText
  0
TEXT
  5
6D
330
20
100
AcDbEntity
  8
_0-0_
 62
     7
100
AcDbText
 10
4190.405637123567
 20
369.7756135462437
 30
0.0
 40
75.0
  1
特記事項
100
AcDbText
  0
TEXT
  5
6E
330
20
100
AcDbEntity
  8
_0-0_
 62
     7
100
AcDbText
 10
4191.98384417533
 20
246.6754635087344
 30
0.0
 40
75.0
  1
検　　図
100
AcDbText
  0
TEXT
  5
6F
330
20
100
AcDbEntity
  8
_0-0_
 62
     7
100
AcDbText
 10
4948.36519675508
 20
246.8325935993548
 30
0.0
 40
75.0
  1
製　　図
100
AcDbText
  0
TEXT
  5
70
330
20
100
AcDbEntity
  8
_0-0_
 62
     7
100
AcDbText
 10
4738.167718310009
 20
845.1695857843661
 30
0.0
 40
75.0
  1
ＦＫ式ハンドホール
100
AcDbText
  0
TEXT
  5
71
330
20
100
AcDbEntity
  8
_0-0_
 62
     7
100
AcDbText
 10
4989.736522860965
 20
728.2990387882521
 30
0.0
 40
75.0
  1
1500型
100
AcDbText
  0
TEXT
  5
72
330
20
100
AcDbEntity
  8
_0-0_
 62
     7
100
AcDbText
 10
4686.694207308273
 20
605.4859216058954
 30
0.0
 40
75.0
  1
H-1525(CR-600)
100
AcDbText
  0
TEXT
  5
73
330
20
100
AcDbEntity
  8
_0-0_
 62
     7
100
AcDbText
 10
4647.07707273332
 20
484.6536611522861
 30
0.0
 40
75.0
  1
1500×1500×2500
100
AcDbText
  0
LINE
  5
74
330
20
100
AcDbEntity
  8
_0-0_
  6
DASHED1
 62
   136
100
AcDbLine
 10
5122.400143515857
 20
3477.900484811254
 30
0.0
 11
5092.400277840333
 21
3537.900566112909
 31
0.0
  0
LINE
  5
75
330
20
100
AcDbEntity
  8
_0-0_
  6
DASHED1
 62
   136
100
AcDbLine
 10
6422.400155298706
 20
3477.900484811254
 30
0.0
 11
5122.400143515857
 21
3477.900484811254
 31
0.0
  0
LINE
  5
76
330
20
100
AcDbEntity
  8
_0-0_
  6
DASHED1
 62
   136
100
AcDbLine
 10
6452.40002097423
 20
3537.900566112909
 30
0.0
 11
6422.400155298706
 21
3477.900484811254
 31
0.0
  0
LINE
  5
77
330
20
100
AcDbEntity
  8
_0-0_
  6
DASHED1
 62
   136
100
AcDbLine
 10
6472.401447877207
 20
3417.900753460204
 30
0.0
 11
5072.398850937354
 21
3417.900753460204
 31
0.0
  0
LINE
  5
78
330
20
100
AcDbEntity
  8
_0-0_
  6
DASHED1
 62
   136
100
AcDbLine
 10
6522.400990702678
 20
3367.900860684127
 30
0.0
 11
5022.399308111886
 21
3367.900860684127
 31
0.0
  0
LINE
  5
79
330
20
100
AcDbEntity
  8
_0-0_
  6
DASHED1
 62
   136
100
AcDbLine
 10
6472.401447877207
 20
1917.900470671834
 30
0.0
 11
6472.401447877207
 21
3417.900753460204
 31
0.0
  0
LINE
  5
7A
330
20
100
AcDbEntity
  8
_0-0_
  6
DASHED1
 62
   136
100
AcDbLine
 10
6522.400990702678
 20
1967.900363447911
 30
0.0
 11
6522.400990702678
 21
3367.900860684127
 31
0.0
  0
LINE
  5
7B
330
20
100
AcDbEntity
  8
_0-0_
  6
DASHED1
 62
   136
100
AcDbLine
 10
6472.401447877207
 20
3417.900753460204
 30
0.0
 11
6522.400990702678
 21
3367.900860684127
 31
0.0
  0
LINE
  5
7C
330
20
100
AcDbEntity
  8
_0-0_
  6
DASHED1
 62
   136
100
AcDbLine
 10
6582.400022152516
 20
2017.900606174594
 30
0.0
 11
6582.400022152516
 21
3317.900617957443
 31
0.0
  0
LINE
  5
7D
330
20
100
AcDbEntity
  8
_0-0_
  6
DASHED1
 62
   136
100
AcDbLine
 10
6582.400022152516
 20
3317.900617957443
 30
0.0
 11
6642.400103454173
 21
3347.900483632968
 31
0.0
  0
LINE
  5
7E
330
20
100
AcDbEntity
  8
_0-0_
  6
DASHED1
 62
   136
100
AcDbLine
 10
5072.398850937354
 20
3417.900753460204
 30
0.0
 11
5072.398850937354
 21
1917.900470671834
 31
0.0
  0
LINE
  5
7F
330
20
100
AcDbEntity
  8
_0-0_
  6
DASHED1
 62
   136
100
AcDbLine
 10
5022.399308111886
 20
1967.900363447911
 30
0.0
 11
5022.399308111886
 21
3367.900860684127
 31
0.0
  0
LINE
  5
80
330
20
100
AcDbEntity
  8
_0-0_
  6
DASHED1
 62
   136
100
AcDbLine
 10
5022.399308111886
 20
3367.900860684127
 30
0.0
 11
5072.398850937354
 21
3417.900753460204
 31
0.0
  0
LINE
  5
81
330
20
100
AcDbEntity
  8
_0-0_
  6
DASHED1
 62
   136
100
AcDbLine
 10
4962.400276662048
 20
3317.900617957443
 30
0.0
 11
4902.400195360391
 21
3347.900483632968
 31
0.0
  0
LINE
  5
82
330
20
100
AcDbEntity
  8
_0-0_
  6
DASHED1
 62
   136
100
AcDbLine
 10
4962.400276662048
 20
2017.900606174594
 30
0.0
 11
4962.400276662048
 21
3317.900617957443
 31
0.0
  0
LINE
  5
83
330
20
100
AcDbEntity
  8
_0-0_
  6
DASHED1
 62
   136
100
AcDbLine
 10
4902.400195360391
 20
1987.900740499069
 30
0.0
 11
4962.400276662048
 21
2017.900606174594
 31
0.0
  0
LINE
  5
84
330
20
100
AcDbEntity
  8
_0-0_
  6
DASHED1
 62
   136
100
AcDbLine
 10
5022.399308111886
 20
1967.900363447911
 30
0.0
 11
6522.400990702678
 21
1967.900363447911
 31
0.0
  0
LINE
  5
85
330
20
100
AcDbEntity
  8
_0-0_
  6
DASHED1
 62
   136
100
AcDbLine
 10
5072.398850937354
 20
1917.900470671834
 30
0.0
 11
6472.401447877207
 21
1917.900470671834
 31
0.0
  0
LINE
  5
86
330
20
100
AcDbEntity
  8
_0-0_
  6
DASHED1
 62
   136
100
AcDbLine
 10
5072.398850937354
 20
1917.900470671834
 30
0.0
 11
5022.399308111886
 21
1967.900363447911
 31
0.0
  0
LINE
  5
87
330
20
100
AcDbEntity
  8
_0-0_
  6
DASHED1
 62
   136
100
AcDbLine
 10
5092.400277840333
 20
1797.900658019129
 30
0.0
 11
5122.400143515857
 21
1857.900739320784
 31
0.0
  0
LINE
  5
88
330
20
100
AcDbEntity
  8
_0-0_
  6
DASHED1
 62
   136
100
AcDbLine
 10
5122.400143515857
 20
1857.900739320784
 30
0.0
 11
6422.400155298706
 21
1857.900739320784
 31
0.0
  0
LINE
  5
89
330
20
100
AcDbEntity
  8
_0-0_
  6
DASHED1
 62
   136
100
AcDbLine
 10
6422.400155298706
 20
1857.900739320784
 30
0.0
 11
6452.40002097423
 21
1797.900658019129
 31
0.0
  0
LINE
  5
8A
330
20
100
AcDbEntity
  8
_0-0_
  6
DASHED1
 62
   136
100
AcDbLine
 10
6522.400990702678
 20
1967.900363447911
 30
0.0
 11
6472.401447877207
 21
1917.900470671834
 31
0.0
  0
LINE
  5
8B
330
20
100
AcDbEntity
  8
_0-0_
  6
DASHED1
 62
   136
100
AcDbLine
 10
6642.400103454173
 20
1987.900740499069
 30
0.0
 11
6582.400022152516
 21
2017.900606174594
 31
0.0
  0
ARC
  5
8C
330
20
100
AcDbEntity
  8
_0-0_
  6
Continuous
 62
   136
100
AcDbCircle
 10
5772.399449506071
 20
2667.900612066019
 30
0.0
 40
100.0000042712826
100
AcDbArc
 50
157.5754602441272
 51
202.4245397558728
  0
CIRCLE
  5
8D
330
20
100
AcDbEntity
  8
_0-0_
  6
DASHED1
 62
   136
100
AcDbCircle
 10
5772.400149407282
 20
2667.900612066019
 30
0.0
 40
100.0
  0
CIRCLE
  5
8E
330
20
100
AcDbEntity
  8
_0-0_
  6
DASHED1
 62
   136
100
AcDbCircle
 10
5772.399449506071
 20
2667.900612066019
 30
0.0
 40
89.99999072100663
  0
LINE
  5
8F
330
20
100
AcDbEntity
  8
_0-0_
  6
DASHED1
 62
     6
100
AcDbLine
 10
5562.399689876182
 20
3452.900713398517
 30
0.0
 11
5562.399689876182
 21
3417.900753460204
 31
0.0
  0
LINE
  5
90
330
20
100
AcDbEntity
  8
_0-0_
  6
DASHED1
 62
     6
100
AcDbLine
 10
5582.398667124916
 20
3452.900713398517
 30
0.0
 11
5562.399689876182
 21
3452.900713398517
 31
0.0
  0
LINE
  5
91
330
20
100
AcDbEntity
  8
_0-0_
  6
DASHED1
 62
     6
100
AcDbLine
 10
5582.398667124916
 20
3417.900753460204
 30
0.0
 11
5582.398667124916
 21
3452.900713398517
 31
0.0
  0
LINE
  5
92
330
20
100
AcDbEntity
  8
_0-0_
  6
DASHED1
 62
     6
100
AcDbLine
 10
5762.399260980489
 20
3452.900713398517
 30
0.0
 11
5762.399260980489
 21
3417.900753460204
 31
0.0
  0
LINE
  5
93
330
20
100
AcDbEntity
  8
_0-0_
  6
DASHED1
 62
     6
100
AcDbLine
 10
5782.398938130436
 20
3452.900713398517
 30
0.0
 11
5762.399260980489
 21
3452.900713398517
 31
0.0
  0
LINE
  5
94
330
20
100
AcDbEntity
  8
_0-0_
  6
DASHED1
 62
     6
100
AcDbLine
 10
5782.398938130436
 20
3417.900753460204
 30
0.0
 11
5782.398938130436
 21
3452.900713398517
 31
0.0
  0
LINE
  5
95
330
20
100
AcDbEntity
  8
_0-0_
  6
DASHED1
 62
     6
100
AcDbLine
 10
5962.398832084798
 20
3452.900713398517
 30
0.0
 11
5962.398832084798
 21
3417.900753460204
 31
0.0
  0
LINE
  5
96
330
20
100
AcDbEntity
  8
_0-0_
  6
DASHED1
 62
     6
100
AcDbLine
 10
5982.399209135956
 20
3452.900713398517
 30
0.0
 11
5962.398832084798
 21
3452.900713398517
 31
0.0
  0
LINE
  5
97
330
20
100
AcDbEntity
  8
_0-0_
  6
DASHED1
 62
     6
100
AcDbLine
 10
5982.399209135956
 20
3417.900753460204
 30
0.0
 11
5982.399209135956
 21
3452.900713398517
 31
0.0
  0
LINE
  5
98
330
20
100
AcDbEntity
  8
_0-0_
  6
DASHED1
 62
     6
100
AcDbLine
 10
6557.400250739782
 20
2877.901071597118
 30
0.0
 11
6522.400290801467
 21
2877.901071597118
 31
0.0
  0
LINE
  5
99
330
20
100
AcDbEntity
  8
_0-0_
  6
DASHED1
 62
     6
100
AcDbLine
 10
6522.400290801467
 20
2857.902094348385
 30
0.0
 11
6557.400250739782
 21
2857.902094348385
 31
0.0
  0
LINE
  5
9A
330
20
100
AcDbEntity
  8
_0-0_
  6
DASHED1
 62
     6
100
AcDbLine
 10
6557.400250739782
 20
2857.902094348385
 30
0.0
 11
6557.400250739782
 21
2877.901071597118
 31
0.0
  0
LINE
  5
9B
330
20
100
AcDbEntity
  8
_0-0_
  6
DASHED1
 62
     6
100
AcDbLine
 10
6557.400250739782
 20
2677.901500492811
 30
0.0
 11
6522.400290801467
 21
2677.901500492811
 31
0.0
  0
LINE
  5
9C
330
20
100
AcDbEntity
  8
_0-0_
  6
DASHED1
 62
     6
100
AcDbLine
 10
6522.400290801467
 20
2657.901823342865
 30
0.0
 11
6557.400250739782
 21
2657.901823342865
 31
0.0
  0
LINE
  5
9D
330
20
100
AcDbEntity
  8
_0-0_
  6
DASHED1
 62
     6
100
AcDbLine
 10
6557.400250739782
 20
2657.901823342865
 30
0.0
 11
6557.400250739782
 21
2677.901500492811
 31
0.0
  0
LINE
  5
9E
330
20
100
AcDbEntity
  8
_0-0_
  6
DASHED1
 62
     6
100
AcDbLine
 10
6557.400250739782
 20
2477.901929388503
 30
0.0
 11
6522.400290801467
 21
2477.901929388503
 31
0.0
  0
LINE
  5
9F
330
20
100
AcDbEntity
  8
_0-0_
  6
DASHED1
 62
     6
100
AcDbLine
 10
6522.400290801467
 20
2457.901552337345
 30
0.0
 11
6557.400250739782
 21
2457.901552337345
 31
0.0
  0
LINE
  5
A0
330
20
100
AcDbEntity
  8
_0-0_
  6
DASHED1
 62
     6
100
AcDbLine
 10
6557.400250739782
 20
2457.901552337345
 30
0.0
 11
6557.400250739782
 21
2477.901929388503
 31
0.0
  0
LINE
  5
A1
330
20
100
AcDbEntity
  8
_0-0_
  6
DASHED1
 62
     6
100
AcDbLine
 10
5582.401466729766
 20
1882.90051073352
 30
0.0
 11
5582.401466729766
 21
1917.900470671834
 31
0.0
  0
LINE
  5
A2
330
20
100
AcDbEntity
  8
_0-0_
  6
DASHED1
 62
     6
100
AcDbLine
 10
5562.401089678608
 20
1882.90051073352
 30
0.0
 11
5582.401466729766
 21
1882.90051073352
 31
0.0
  0
LINE
  5
A3
330
20
100
AcDbEntity
  8
_0-0_
  6
DASHED1
 62
     6
100
AcDbLine
 10
5562.401089678608
 20
1917.900470671834
 30
0.0
 11
5562.401089678608
 21
1882.90051073352
 31
0.0
  0
LINE
  5
A4
330
20
100
AcDbEntity
  8
_0-0_
  6
DASHED1
 62
     6
100
AcDbLine
 10
5762.401360684127
 20
1917.900470671834
 30
0.0
 11
5762.401360684127
 21
1882.90051073352
 31
0.0
  0
LINE
  5
A5
330
20
100
AcDbEntity
  8
_0-0_
  6
DASHED1
 62
     6
100
AcDbLine
 10
5762.401360684127
 20
1882.90051073352
 30
0.0
 11
5782.401037834073
 21
1882.90051073352
 31
0.0
  0
LINE
  5
A6
330
20
100
AcDbEntity
  8
_0-0_
  6
DASHED1
 62
     6
100
AcDbLine
 10
5782.401037834073
 20
1882.90051073352
 30
0.0
 11
5782.401037834073
 21
1917.900470671834
 31
0.0
  0
LINE
  5
A7
330
20
100
AcDbEntity
  8
_0-0_
  6
DASHED1
 62
     6
100
AcDbLine
 10
5962.401631689648
 20
1917.900470671834
 30
0.0
 11
5962.401631689648
 21
1882.90051073352
 31
0.0
  0
LINE
  5
A8
330
20
100
AcDbEntity
  8
_0-0_
  6
DASHED1
 62
     6
100
AcDbLine
 10
5962.401631689648
 20
1882.90051073352
 30
0.0
 11
5982.400608938381
 21
1882.90051073352
 31
0.0
  0
LINE
  5
A9
330
20
100
AcDbEntity
  8
_0-0_
  6
DASHED1
 62
     6
100
AcDbLine
 10
5982.400608938381
 20
1882.90051073352
 30
0.0
 11
5982.400608938381
 21
1917.900470671834
 31
0.0
  0
LINE
  5
AA
330
20
100
AcDbEntity
  8
_0-0_
  6
DASHED1
 62
     6
100
AcDbLine
 10
5022.400008013098
 20
2857.902094348385
 30
0.0
 11
4987.400048074783
 21
2857.902094348385
 31
0.0
  0
LINE
  5
AB
330
20
100
AcDbEntity
  8
_0-0_
  6
DASHED1
 62
     6
100
AcDbLine
 10
4987.400048074783
 20
2877.901071597118
 30
0.0
 11
5022.400008013098
 21
2877.901071597118
 31
0.0
  0
LINE
  5
AC
330
20
100
AcDbEntity
  8
_0-0_
  6
DASHED1
 62
     6
100
AcDbLine
 10
4987.400048074783
 20
2857.902094348385
 30
0.0
 11
4987.400048074783
 21
2877.901071597118
 31
0.0
  0
LINE
  5
AD
330
20
100
AcDbEntity
  8
_0-0_
  6
DASHED1
 62
     6
100
AcDbLine
 10
4987.400048074783
 20
2677.901500492811
 30
0.0
 11
5022.400008013098
 21
2677.901500492811
 31
0.0
  0
LINE
  5
AE
330
20
100
AcDbEntity
  8
_0-0_
  6
DASHED1
 62
     6
100
AcDbLine
 10
4987.400048074783
 20
2657.901823342865
 30
0.0
 11
4987.400048074783
 21
2677.901500492811
 31
0.0
  0
LINE
  5
AF
330
20
100
AcDbEntity
  8
_0-0_
  6
DASHED1
 62
     6
100
AcDbLine
 10
5022.400008013098
 20
2657.901823342865
 30
0.0
 11
4987.400048074783
 21
2657.901823342865
 31
0.0
  0
LINE
  5
B0
330
20
100
AcDbEntity
  8
_0-0_
  6
DASHED1
 62
     6
100
AcDbLine
 10
4987.400048074783
 20
2477.901929388503
 30
0.0
 11
5022.400008013098
 21
2477.901929388503
 31
0.0
  0
LINE
  5
B1
330
20
100
AcDbEntity
  8
_0-0_
  6
DASHED1
 62
     6
100
AcDbLine
 10
5022.400008013098
 20
2457.901552337345
 30
0.0
 11
4987.400048074783
 21
2457.901552337345
 31
0.0
  0
LINE
  5
B2
330
20
100
AcDbEntity
  8
_0-0_
  6
DASHED1
 62
     6
100
AcDbLine
 10
4987.400048074783
 20
2457.901552337345
 30
0.0
 11
4987.400048074783
 21
2477.901929388503
 31
0.0
  0
LINE
  5
B3
330
20
100
AcDbEntity
  8
_0-0_
  6
Continuous
 62
     7
100
AcDbLine
 10
6632.401314731018
 20
3537.900566112909
 30
0.0
 11
4912.398984083544
 21
3537.900566112909
 31
0.0
  0
LINE
  5
B4
330
20
100
AcDbEntity
  8
_0-0_
  6
Continuous
 62
     7
100
AcDbLine
 10
4902.398795557966
 20
1807.900496594101
 30
0.0
 11
4902.398795557966
 21
3527.900727537936
 31
0.0
  0
LINE
  5
B5
330
20
100
AcDbEntity
  8
_0-0_
  6
Continuous
 62
     7
100
AcDbLine
 10
4902.398795557966
 20
3527.900727537936
 30
0.0
 11
4912.398984083544
 21
3537.900566112909
 31
0.0
  0
LINE
  5
B6
330
20
100
AcDbEntity
  8
_0-0_
  6
Continuous
 62
     7
100
AcDbLine
 10
6642.401503256596
 20
1807.900496594101
 30
0.0
 11
6642.401503256596
 21
3527.900727537936
 31
0.0
  0
LINE
  5
B7
330
20
100
AcDbEntity
  8
_0-0_
  6
Continuous
 62
     7
100
AcDbLine
 10
6632.401314731018
 20
3537.900566112909
 30
0.0
 11
6642.401503256596
 21
3527.900727537936
 31
0.0
  0
CIRCLE
  5
B8
330
20
100
AcDbEntity
  8
_0-0_
  6
Continuous
 62
     7
100
AcDbCircle
 10
5382.396296415758
 20
2667.900612066019
 30
0.0
 40
435.0000645110966
  0
CIRCLE
  5
B9
330
20
100
AcDbEntity
  8
_0-0_
  6
Continuous
 62
     7
100
AcDbCircle
 10
5382.396296415758
 20
2667.900612066019
 30
0.0
 40
300.0000346857608
  0
LINE
  5
BA
330
20
100
AcDbEntity
  8
_0-0_
  6
Continuous
 62
     7
100
AcDbLine
 10
4912.398984083544
 20
1797.900308068523
 30
0.0
 11
6632.401314731018
 21
1797.900308068523
 31
0.0
  0
LINE
  5
BB
330
20
100
AcDbEntity
  8
_0-0_
  6
Continuous
 62
     7
100
AcDbLine
 10
6642.401503256596
 20
1807.900496594101
 30
0.0
 11
6632.401314731018
 21
1797.900308068523
 31
0.0
  0
LINE
  5
BC
330
20
100
AcDbEntity
  8
_0-0_
  6
Continuous
 62
     7
100
AcDbLine
 10
4912.398984083544
 20
1797.900308068523
 30
0.0
 11
4902.398795557966
 21
1807.900496594101
 31
0.0
  0
LINE
  5
BD
330
20
100
AcDbEntity
  8
_0-0_
  6
Continuous
 62
     3
100
AcDbLine
 10
3165.650562754836
 20
4134.923946678817
 30
0.0
 11
3175.650562754836
 21
4124.923946678818
 31
0.0
  0
LINE
  5
BE
330
20
100
AcDbEntity
  8
_0-0_
  6
DASHED1
 62
   136
100
AcDbLine
 10
1615.652648319055
 20
4134.923946678817
 30
0.0
 11
1615.652648319055
 21
4234.924082181577
 31
0.0
  0
LINE
  5
BF
330
20
100
AcDbEntity
  8
_0-0_
  6
DASHED1
 62
   136
100
AcDbLine
 10
1615.652648319055
 20
4134.923946678817
 30
0.0
 11
1610.652554056265
 21
3964.923891299429
 31
0.0
  0
LINE
  5
C0
330
20
100
AcDbEntity
  8
_0-0_
  6
DASHED1
 62
   136
100
AcDbLine
 10
2215.651011681372
 20
4134.923946678817
 30
0.0
 11
2220.651105944161
 21
3964.923891299429
 31
0.0
  0
LINE
  5
C1
330
20
100
AcDbEntity
  8
_0-0_
  6
DASHED1
 62
   136
100
AcDbLine
 10
2215.651011681372
 20
4134.923946678817
 30
0.0
 11
2215.651011681372
 21
4234.924082181577
 31
0.0
  0
LINE
  5
C2
330
20
100
AcDbEntity
  8
_0-0_
  6
DASHED1
 62
   136
100
AcDbLine
 10
1610.652554056265
 20
3964.923891299429
 30
0.0
 11
3000.650763063264
 21
3964.923891299429
 31
0.0
  0
LINE
  5
C3
330
20
100
AcDbEntity
  8
_0-0_
  6
DASHED1
 62
   136
100
AcDbLine
 10
3050.650655839341
 20
3914.924348473959
 30
0.0
 11
1560.652311329582
 21
3914.924348473959
 31
0.0
  0
LINE
  5
C4
330
20
100
AcDbEntity
  8
_0-0_
  6
DASHED1
 62
   136
100
AcDbLine
 10
1610.652554056265
 20
3964.923891299429
 30
0.0
 11
1605.652459793476
 21
3264.923665068733
 31
0.0
  0
LINE
  5
C5
330
20
100
AcDbEntity
  8
_0-0_
  6
DASHED1
 62
   136
100
AcDbLine
 10
1560.652311329582
 20
3914.924348473959
 30
0.0
 11
1555.652217066793
 21
3264.923665068733
 31
0.0
  0
LINE
  5
C6
330
20
100
AcDbEntity
  8
_0-0_
  6
DASHED1
 62
   136
100
AcDbLine
 10
1610.652554056265
 20
3964.923891299429
 30
0.0
 11
1560.652311329582
 21
3914.924348473959
 31
0.0
  0
LINE
  5
C7
330
20
100
AcDbEntity
  8
_0-0_
  6
DASHED1
 62
   136
100
AcDbLine
 10
3005.650857326053
 20
3264.923665068733
 30
0.0
 11
3000.650763063264
 21
3964.923891299429
 31
0.0
  0
LINE
  5
C8
330
20
100
AcDbEntity
  8
_0-0_
  6
DASHED1
 62
   136
100
AcDbLine
 10
3050.650655839341
 20
3914.924348473959
 30
0.0
 11
3055.650400151524
 21
3264.923665068733
 31
0.0
  0
LINE
  5
C9
330
20
100
AcDbEntity
  8
_0-0_
  6
DASHED1
 62
   136
100
AcDbLine
 10
3050.650655839341
 20
3914.924348473959
 30
0.0
 11
3000.650763063264
 21
3964.923891299429
 31
0.0
  0
LINE
  5
CA
330
20
100
AcDbEntity
  8
_0-0_
  6
DASHED1
 62
   136
100
AcDbLine
 10
1605.812824658812
 20
2264.923490093432
 30
0.0
 11
1605.492094991439
 21
3264.923642681321
 31
0.0
  0
LINE
  5
CB
330
20
100
AcDbEntity
  8
_0-0_
  6
DASHED1
 62
   136
100
AcDbLine
 10
1555.652479529644
 20
3264.923642681321
 30
0.0
 11
1555.651954603838
 21
2264.923490093432
 31
0.0
  0
LINE
  5
CC
330
20
100
AcDbEntity
  8
_0-0_
  6
DASHED1
 62
   136
100
AcDbLine
 10
3055.650400151524
 20
3264.923642681321
 30
0.0
 11
3055.650400151524
 21
2264.923490093432
 31
0.0
  0
LINE
  5
CD
330
20
100
AcDbEntity
  8
_0-0_
  6
DASHED1
 62
   136
100
AcDbLine
 10
3005.489880047156
 20
2264.923490093432
 30
0.0
 11
3005.489880047156
 21
3264.923642681321
 31
0.0
  0
LINE
  5
CE
330
20
100
AcDbEntity
  8
_0-0_
  6
DASHED1
 62
   136
100
AcDbLine
 10
3115.650656428484
 20
2084.923771114373
 30
0.0
 11
3175.650562754836
 21
2114.923636789897
 31
0.0
  0
LINE
  5
CF
330
20
100
AcDbEntity
  8
_0-0_
  6
DASHED1
 62
   136
100
AcDbLine
 10
3115.650656428484
 20
2084.923771114373
 30
0.0
 11
3115.650656428484
 21
1534.923900725707
 31
0.0
  0
LINE
  5
D0
330
20
100
AcDbEntity
  8
_0-0_
  6
DASHED1
 62
   136
100
AcDbLine
 10
3175.650562754836
 20
1504.923685099577
 30
0.0
 11
3115.650656428484
 21
1534.923900725707
 31
0.0
  0
LINE
  5
D1
330
20
100
AcDbEntity
  8
_0-0_
  6
DASHED1
 62
   136
100
AcDbLine
 10
3046.650720409351
 20
1514.913725057573
 30
0.0
 11
3055.65075010213
 21
2264.923490093432
 31
0.0
  0
LINE
  5
D2
330
20
100
AcDbEntity
  8
_0-0_
  6
DASHED1
 62
   136
100
AcDbLine
 10
2995.658017763207
 20
1464.076400480624
 30
0.0
 11
3005.489880047156
 21
2264.923490093432
 31
0.0
  0
LINE
  5
D3
330
20
100
AcDbEntity
  8
_0-0_
  6
DASHED1
 62
   136
100
AcDbLine
 10
1564.652334247223
 20
1514.913725057573
 30
0.0
 11
3046.650370458745
 21
1514.913725057573
 31
0.0
  0
LINE
  5
D4
330
20
100
AcDbEntity
  8
_0-0_
  6
DASHED1
 62
   136
100
AcDbLine
 10
2995.658017763207
 20
1464.076400480624
 30
0.0
 11
2305.651308609158
 21
1454.923617348197
 31
0.0
  0
LINE
  5
D5
330
20
100
AcDbEntity
  8
_0-0_
  6
DASHED1
 62
   136
100
AcDbLine
 10
2405.651444111919
 20
1424.923751672671
 30
0.0
 11
2205.651523057005
 21
1424.923751672671
 31
0.0
  0
LINE
  5
D6
330
20
100
AcDbEntity
  8
_0-0_
  6
DASHED1
 62
   136
100
AcDbLine
 10
2405.651444111919
 20
1424.923751672671
 30
0.0
 11
2415.651282686891
 21
1456.788154178553
 31
0.0
  0
LINE
  5
D7
330
20
100
AcDbEntity
  8
_0-0_
  6
DASHED1
 62
   136
100
AcDbLine
 10
2195.651334531426
 20
1456.788154178553
 30
0.0
 11
2205.651523057005
 21
1424.923751672671
 31
0.0
  0
LINE
  5
D8
330
20
100
AcDbEntity
  8
_0-0_
  6
DASHED1
 62
   136
100
AcDbLine
 10
1615.645036893369
 20
1464.076400480624
 30
0.0
 11
2305.651308609158
 21
1454.923617348197
 31
0.0
  0
LINE
  5
D9
330
20
100
AcDbEntity
  8
_0-0_
  6
DASHED1
 62
   136
100
AcDbLine
 10
1564.652334247223
 20
1514.913725057573
 30
0.0
 11
1615.645036893369
 21
1464.076400480624
 31
0.0
  0
LINE
  5
DA
330
20
100
AcDbEntity
  8
_0-0_
  6
DASHED1
 62
   136
100
AcDbLine
 10
1615.645036893369
 20
1464.076400480624
 30
0.0
 11
1605.812824658812
 21
2264.923490093432
 31
0.0
  0
LINE
  5
DB
330
20
100
AcDbEntity
  8
_0-0_
  6
DASHED1
 62
   136
100
AcDbLine
 10
1564.652334247223
 20
1514.913725057573
 30
0.0
 11
1555.651954603838
 21
2264.923490093432
 31
0.0
  0
LINE
  5
DC
330
20
100
AcDbEntity
  8
_0-0_
  6
DASHED1
 62
   136
100
AcDbLine
 10
1495.652660691046
 20
2084.923771114373
 30
0.0
 11
1495.652660691046
 21
1534.923900725707
 31
0.0
  0
LINE
  5
DD
330
20
100
AcDbEntity
  8
_0-0_
  6
DASHED1
 62
   136
100
AcDbLine
 10
1435.652754364693
 20
1504.923685099577
 30
0.0
 11
1495.652660691046
 21
1534.923900725707
 31
0.0
  0
LINE
  5
DE
330
20
100
AcDbEntity
  8
_0-0_
  6
DASHED1
 62
   136
100
AcDbLine
 10
1495.652660691046
 20
2084.923771114373
 30
0.0
 11
1435.652754364693
 21
2114.923636789897
 31
0.0
  0
LINE
  5
DF
330
20
100
AcDbEntity
  8
_0-0_
  6
DASHED1
 62
   136
100
AcDbLine
 10
2995.658017763207
 20
1464.076400480624
 30
0.0
 11
3046.650720409351
 21
1514.913725057573
 31
0.0
  0
LINE
  5
E0
330
20
100
AcDbEntity
  8
_0-0_
  6
Continuous
 62
   136
100
AcDbLine
 10
1625.651262066905
 20
2114.923636789897
 30
0.0
 11
1625.651262066905
 21
1504.923685099577
 31
0.0
  0
LINE
  5
E1
330
20
100
AcDbEntity
  8
_0-0_
  6
Continuous
 62
   136
100
AcDbLine
 10
1655.651302717734
 20
2084.923596139069
 30
0.0
 11
1655.651302717734
 21
1534.923725750404
 31
0.0
  0
LINE
  5
E2
330
20
100
AcDbEntity
  8
_0-0_
  6
Continuous
 62
   136
100
AcDbLine
 10
1655.651302717734
 20
2084.923596139069
 30
0.0
 11
2955.651664451189
 21
2084.923596139069
 31
0.0
  0
LINE
  5
E3
330
20
100
AcDbEntity
  8
_0-0_
  6
Continuous
 62
   136
100
AcDbLine
 10
1625.651262066905
 20
2114.923636789897
 30
0.0
 11
2985.651705102018
 21
2114.923636789897
 31
0.0
  0
LINE
  5
E4
330
20
100
AcDbEntity
  8
_0-0_
  6
Continuous
 62
   136
100
AcDbLine
 10
2955.651664451189
 20
2084.923596139069
 30
0.0
 11
2955.651664451189
 21
1534.923725750404
 31
0.0
  0
LINE
  5
E5
330
20
100
AcDbEntity
  8
_0-0_
  6
Continuous
 62
   136
100
AcDbLine
 10
2985.651705102018
 20
2114.923636789897
 30
0.0
 11
2985.651705102018
 21
1504.923685099577
 31
0.0
  0
LINE
  5
E6
330
20
100
AcDbEntity
  8
_0-0_
  6
Continuous
 62
   136
100
AcDbLine
 10
1655.651302717734
 20
1534.923725750404
 30
0.0
 11
2955.651664451189
 21
1534.923725750404
 31
0.0
  0
LINE
  5
E7
330
20
100
AcDbEntity
  8
_0-0_
  6
Continuous
 62
   136
100
AcDbLine
 10
1625.651262066905
 20
1504.923685099577
 30
0.0
 11
2985.651705102018
 21
1504.923685099577
 31
0.0
  0
LINE
  5
E8
330
20
100
AcDbEntity
  8
_0-0_
  6
Continuous
 62
   136
100
AcDbLine
 10
1625.651262066905
 20
2114.923636789897
 30
0.0
 11
1655.651302717734
 21
2084.923596139069
 31
0.0
  0
LINE
  5
E9
330
20
100
AcDbEntity
  8
_0-0_
  6
Continuous
 62
   136
100
AcDbLine
 10
2955.651664451189
 20
2084.923596139069
 30
0.0
 11
2985.651705102018
 21
2114.923636789897
 31
0.0
  0
LINE
  5
EA
330
20
100
AcDbEntity
  8
_0-0_
  6
Continuous
 62
   136
100
AcDbLine
 10
2955.651664451189
 20
1534.923725750404
 30
0.0
 11
2985.651705102018
 21
1504.923685099577
 31
0.0
  0
LINE
  5
EB
330
20
100
AcDbEntity
  8
_0-0_
  6
Continuous
 62
   136
100
AcDbLine
 10
1655.651302717734
 20
1534.923725750404
 30
0.0
 11
1625.651262066905
 21
1504.923685099577
 31
0.0
  0
LINE
  5
EC
330
20
100
AcDbEntity
  8
_0-0_
  6
DASHED1
 62
     6
100
AcDbLine
 10
1524.961898845042
 20
3774.923808819488
 30
0.0
 11
1559.575863264609
 21
3774.923808819488
 31
0.0
  0
LINE
  5
ED
330
20
100
AcDbEntity
  8
_0-0_
  6
DASHED1
 62
     6
100
AcDbLine
 10
1559.421884997838
 20
3754.923431768329
 30
0.0
 11
1524.961898845042
 21
3754.923431768329
 31
0.0
  0
LINE
  5
EE
330
20
100
AcDbEntity
  8
_0-0_
  6
DASHED1
 62
     6
100
AcDbLine
 10
1524.961898845042
 20
3774.923808819488
 30
0.0
 11
1524.961898845042
 21
3754.923431768329
 31
0.0
  0
LINE
  5
EF
330
20
100
AcDbEntity
  8
_0-0_
  6
DASHED1
 62
     6
100
AcDbLine
 10
1522.654324547111
 20
3474.923752261813
 30
0.0
 11
1557.268288966678
 21
3474.923752261813
 31
0.0
  0
LINE
  5
F0
330
20
100
AcDbEntity
  8
_0-0_
  6
DASHED1
 62
     6
100
AcDbLine
 10
1557.114310699907
 20
3454.923375210656
 30
0.0
 11
1522.654324547111
 21
3454.923375210656
 31
0.0
  0
LINE
  5
F1
330
20
100
AcDbEntity
  8
_0-0_
  6
DASHED1
 62
     6
100
AcDbLine
 10
1522.654324547111
 20
3474.923752261813
 30
0.0
 11
1522.654324547111
 21
3454.923375210656
 31
0.0
  0
LINE
  5
F2
330
20
100
AcDbEntity
  8
_0-0_
  6
DASHED1
 62
     6
100
AcDbLine
 10
1555.565180851598
 20
3104.923425876906
 30
0.0
 11
1521.0883970697
 21
3104.923425876906
 31
0.0
  0
LINE
  5
F3
330
20
100
AcDbEntity
  8
_0-0_
  6
DASHED1
 62
     6
100
AcDbLine
 10
1521.0883970697
 20
3124.923802928064
 30
0.0
 11
1555.652143577264
 21
3124.923802928064
 31
0.0
  0
LINE
  5
F4
330
20
100
AcDbEntity
  8
_0-0_
  6
DASHED1
 62
     6
100
AcDbLine
 10
1521.0883970697
 20
3124.923802928064
 30
0.0
 11
1521.0883970697
 21
3104.923425876906
 31
0.0
  0
CIRCLE
  5
F5
330
20
100
AcDbEntity
  8
_0-0_
  6
DASHED1
 62
     6
100
AcDbCircle
 10
2105.651037603638
 20
3114.923614402485
 30
0.0
 40
9.999999880330442
  0
CIRCLE
  5
F6
330
20
100
AcDbEntity
  8
_0-0_
  6
DASHED1
 62
     6
100
AcDbCircle
 10
2305.650958658552
 20
3114.923614402485
 30
0.0
 40
9.999999880330442
  0
CIRCLE
  5
F7
330
20
100
AcDbEntity
  8
_0-0_
  6
DASHED1
 62
     6
100
AcDbCircle
 10
2505.650879713466
 20
3114.923614402485
 30
0.0
 40
9.999999880330442
  0
LINE
  5
F8
330
20
100
AcDbEntity
  8
_0-0_
  6
DASHED1
 62
     6
100
AcDbLine
 10
3055.737362877189
 20
3104.923425876906
 30
0.0
 11
3090.214146659088
 21
3104.923425876906
 31
0.0
  0
LINE
  5
F9
330
20
100
AcDbEntity
  8
_0-0_
  6
DASHED1
 62
     6
100
AcDbLine
 10
3090.214146659088
 20
3124.923802928064
 30
0.0
 11
3055.650400151524
 21
3124.923802928064
 31
0.0
  0
LINE
  5
FA
330
20
100
AcDbEntity
  8
_0-0_
  6
DASHED1
 62
     6
100
AcDbLine
 10
3090.214146659088
 20
3124.923802928064
 30
0.0
 11
3090.214146659088
 21
3104.923425876906
 31
0.0
  0
LINE
  5
FB
330
20
100
AcDbEntity
  8
_0-0_
  6
DASHED1
 62
     6
100
AcDbLine
 10
3054.189006419623
 20
3454.923375210656
 30
0.0
 11
3088.648992572418
 21
3454.923375210656
 31
0.0
  0
LINE
  5
FC
330
20
100
AcDbEntity
  8
_0-0_
  6
DASHED1
 62
     6
100
AcDbLine
 10
3088.648992572418
 20
3474.923752261813
 30
0.0
 11
3054.035028152852
 21
3474.923752261813
 31
0.0
  0
LINE
  5
FD
330
20
100
AcDbEntity
  8
_0-0_
  6
DASHED1
 62
     6
100
AcDbLine
 10
3088.648992572418
 20
3474.923752261813
 30
0.0
 11
3088.648992572418
 21
3454.923375210656
 31
0.0
  0
LINE
  5
FE
330
20
100
AcDbEntity
  8
_0-0_
  6
DASHED1
 62
     6
100
AcDbLine
 10
3051.881432121692
 20
3754.923431768329
 30
0.0
 11
3086.341418274488
 21
3754.923431768329
 31
0.0
  0
LINE
  5
FF
330
20
100
AcDbEntity
  8
_0-0_
  6
DASHED1
 62
     6
100
AcDbLine
 10
3086.341418274488
 20
3774.923808819488
 30
0.0
 11
3051.72745385492
 21
3774.923808819488
 31
0.0
  0
LINE
  5
100
330
20
100
AcDbEntity
  8
_0-0_
  6
DASHED1
 62
     6
100
AcDbLine
 10
3086.341418274488
 20
3774.923808819488
 30
0.0
 11
3086.341418274488
 21
3754.923431768329
 31
0.0
  0
CIRCLE
  5
101
330
20
100
AcDbEntity
  8
_0-0_
  6
DASHED1
 62
     6
100
AcDbCircle
 10
2505.650879713466
 20
3764.92362029391
 30
0.0
 40
9.999999880330442
  0
CIRCLE
  5
102
330
20
100
AcDbEntity
  8
_0-0_
  6
DASHED1
 62
     6
100
AcDbCircle
 10
2305.650608707946
 20
3764.92362029391
 30
0.0
 40
9.999999880330442
  0
CIRCLE
  5
103
330
20
100
AcDbEntity
  8
_0-0_
  6
DASHED1
 62
     6
100
AcDbCircle
 10
2105.651037603638
 20
3764.92362029391
 30
0.0
 40
9.999999880330442
  0
CIRCLE
  5
104
330
20
100
AcDbEntity
  8
_0-0_
  6
DASHED1
 62
     6
100
AcDbCircle
 10
2105.651037603638
 20
3464.923563736235
 30
0.0
 40
9.999999880330442
  0
CIRCLE
  5
105
330
20
100
AcDbEntity
  8
_0-0_
  6
DASHED1
 62
     6
100
AcDbCircle
 10
2305.650608707946
 20
3464.923563736235
 30
0.0
 40
9.999999880330442
  0
CIRCLE
  5
106
330
20
100
AcDbEntity
  8
_0-0_
  6
DASHED1
 62
     6
100
AcDbCircle
 10
2505.650879713466
 20
3464.923563736235
 30
0.0
 40
9.999999880330442
  0
LINE
  5
107
330
20
100
AcDbEntity
  8
_0-0_
  6
DASHED1
 62
     6
100
AcDbLine
 10
1555.565180851598
 20
2604.923425876906
 30
0.0
 11
1521.0883970697
 21
2604.923425876906
 31
0.0
  0
LINE
  5
108
330
20
100
AcDbEntity
  8
_0-0_
  6
DASHED1
 62
     6
100
AcDbLine
 10
1521.0883970697
 20
2624.923802928064
 30
0.0
 11
1555.652143577264
 21
2624.923802928064
 31
0.0
  0
LINE
  5
109
330
20
100
AcDbEntity
  8
_0-0_
  6
DASHED1
 62
     6
100
AcDbLine
 10
1521.0883970697
 20
2624.923802928064
 30
0.0
 11
1521.0883970697
 21
2604.923425876906
 31
0.0
  0
LINE
  5
10A
330
20
100
AcDbEntity
  8
_0-0_
  6
DASHED1
 62
     6
100
AcDbLine
 10
1556.972580704356
 20
2154.923690991001
 30
0.0
 11
1519.654023024012
 21
2154.923690991001
 31
0.0
  0
LINE
  5
10B
330
20
100
AcDbEntity
  8
_0-0_
  6
DASHED1
 62
     6
100
AcDbLine
 10
1519.654023024012
 20
2174.923718091553
 30
0.0
 11
1556.732514588435
 21
2174.923718091553
 31
0.0
  0
LINE
  5
10C
330
20
100
AcDbEntity
  8
_0-0_
  6
DASHED1
 62
     6
100
AcDbLine
 10
1519.654023024012
 20
2174.923718091553
 30
0.0
 11
1519.654023024012
 21
2154.923690991001
 31
0.0
  0
CIRCLE
  5
10D
330
20
100
AcDbEntity
  8
_0-0_
  6
DASHED1
 62
     6
100
AcDbCircle
 10
2105.651037603638
 20
2164.923529565975
 30
0.0
 40
9.999999880330442
  0
CIRCLE
  5
10E
330
20
100
AcDbEntity
  8
_0-0_
  6
DASHED1
 62
     6
100
AcDbCircle
 10
2305.650958658552
 20
2164.923529565975
 30
0.0
 40
9.999999880330442
  0
CIRCLE
  5
10F
330
20
100
AcDbEntity
  8
_0-0_
  6
DASHED1
 62
     6
100
AcDbCircle
 10
2505.650879713466
 20
2164.923529565975
 30
0.0
 40
9.999999880330442
  0
LINE
  5
110
330
20
100
AcDbEntity
  8
_0-0_
  6
DASHED1
 62
     6
100
AcDbLine
 10
3054.330736415173
 20
2154.923690991001
 30
0.0
 11
3091.649294095516
 21
2154.923690991001
 31
0.0
  0
LINE
  5
111
330
20
100
AcDbEntity
  8
_0-0_
  6
DASHED1
 62
     6
100
AcDbLine
 10
3091.649294095516
 20
2174.923718091553
 30
0.0
 11
3054.570802531094
 21
2174.923718091553
 31
0.0
  0
LINE
  5
112
330
20
100
AcDbEntity
  8
_0-0_
  6
DASHED1
 62
     6
100
AcDbLine
 10
3091.649294095516
 20
2174.923718091553
 30
0.0
 11
3091.649294095516
 21
2154.923690991001
 31
0.0
  0
LINE
  5
113
330
20
100
AcDbEntity
  8
_0-0_
  6
DASHED1
 62
     6
100
AcDbLine
 10
3055.737362877189
 20
2604.923425876906
 30
0.0
 11
3090.214146659088
 21
2604.923425876906
 31
0.0
  0
LINE
  5
114
330
20
100
AcDbEntity
  8
_0-0_
  6
DASHED1
 62
     6
100
AcDbLine
 10
3090.214146659088
 20
2624.923802928064
 30
0.0
 11
3055.650400151524
 21
2624.923802928064
 31
0.0
  0
LINE
  5
115
330
20
100
AcDbEntity
  8
_0-0_
  6
DASHED1
 62
     6
100
AcDbLine
 10
3090.214146659088
 20
2624.923802928064
 30
0.0
 11
3090.214146659088
 21
2604.923425876906
 31
0.0
  0
CIRCLE
  5
116
330
20
100
AcDbEntity
  8
_0-0_
  6
DASHED1
 62
     6
100
AcDbCircle
 10
2505.650879713466
 20
2614.923614402484
 30
0.0
 40
9.999999880330442
  0
CIRCLE
  5
117
330
20
100
AcDbEntity
  8
_0-0_
  6
DASHED1
 62
     6
100
AcDbCircle
 10
2305.650958658552
 20
2614.923614402484
 30
0.0
 40
9.999999880330442
  0
CIRCLE
  5
118
330
20
100
AcDbEntity
  8
_0-0_
  6
DASHED1
 62
     6
100
AcDbCircle
 10
2105.651037603638
 20
2614.923614402484
 30
0.0
 40
9.999999880330442
  0
LINE
  5
119
330
20
100
AcDbEntity
  8
_0-0_
  6
Continuous
 62
     7
100
AcDbLine
 10
2335.651174284683
 20
4234.924082181577
 30
0.0
 11
1495.652660691046
 21
4234.924082181577
 31
0.0
  0
LINE
  5
11A
330
20
100
AcDbEntity
  8
_0-0_
  6
Continuous
 62
     7
100
AcDbLine
 10
1485.65264714077
 20
4224.924243606605
 30
0.0
 11
1480.652640365632
 21
4134.923946678817
 31
0.0
  0
ARC
  5
11B
330
20
100
AcDbEntity
  8
_0-0_
  6
Continuous
 62
     7
100
AcDbCircle
 10
1495.652660691046
 20
4224.924243606605
 30
0.0
 40
10.00000056382772
100
AcDbArc
 50
90.0
 51
180.0
  0
LINE
  5
11C
330
20
100
AcDbEntity
  8
_0-0_
  6
Continuous
 62
     7
100
AcDbLine
 10
3165.650562754836
 20
4134.923946678817
 30
0.0
 11
1445.650843186635
 21
4134.923946678817
 31
0.0
  0
LINE
  5
11D
330
20
100
AcDbEntity
  8
_0-0_
  6
Continuous
 62
     7
100
AcDbLine
 10
1435.652141951132
 20
4124.924545597216
 30
0.0
 11
1435.652141951132
 21
1314.922990206075
 31
0.0
  0
LINE
  5
11E
330
20
100
AcDbEntity
  8
_0-0_
  6
Continuous
 62
     7
100
AcDbLine
 10
1435.652141951132
 20
4124.924545597216
 30
0.0
 11
1445.650843186635
 21
4134.923946678817
 31
0.0
  0
LINE
  5
11F
330
20
100
AcDbEntity
  8
_0-0_
  6
Continuous
 62
     7
100
AcDbLine
 10
2345.65118783496
 20
4224.924243606605
 30
0.0
 11
2350.651107122445
 21
4134.923946678817
 31
0.0
  0
ARC
  5
120
330
20
100
AcDbEntity
  8
_0-0_
  6
Continuous
 62
     7
100
AcDbCircle
 10
2335.651174284683
 20
4224.924243606605
 30
0.0
 40
10.00000056382772
100
AcDbArc
 50
0.0
 51
90.0
  0
LINE
  5
121
330
20
100
AcDbEntity
  8
_0-0_
  6
Continuous
 62
     7
100
AcDbLine
 10
3175.650562754836
 20
4124.923946678818
 30
0.0
 11
3175.650562754836
 21
1314.922990206075
 31
0.0
  0
LINE
  5
122
330
20
100
AcDbEntity
  8
_0-0_
  6
Continuous
 62
     7
100
AcDbLine
 10
3165.650724179863
 20
4134.923946678817
 30
0.0
 11
3175.650562754836
 21
4124.923758153239
 31
0.0
  0
LINE
  5
123
330
20
100
AcDbEntity
  8
_0-0_
  6
Continuous
 62
     7
100
AcDbLine
 10
1435.652054463481
 20
3264.923642681321
 30
0.0
 11
3175.650562754836
 21
3264.923642681321
 31
0.0
  0
LINE
  5
124
330
20
100
AcDbEntity
  8
_0-0_
  6
Continuous
 62
     7
100
AcDbLine
 10
1435.652054463481
 20
2764.923665068734
 30
0.0
 11
3175.650562754836
 21
2764.923665068734
 31
0.0
  0
LINE
  5
125
330
20
100
AcDbEntity
  8
_0-0_
  6
Continuous
 62
     7
100
AcDbLine
 10
1435.652054463481
 20
2264.923665068734
 30
0.0
 11
3175.650562754836
 21
2264.923665068734
 31
0.0
  0
LINE
  5
126
330
20
100
AcDbEntity
  8
_0-0_
  6
Continuous
 62
     7
100
AcDbLine
 10
3165.648974426832
 20
1304.923501581708
 30
0.0
 11
1445.650930674286
 21
1304.923501581708
 31
0.0
  0
LINE
  5
127
330
20
100
AcDbEntity
  8
_0-0_
  6
Continuous
 62
     7
100
AcDbLine
 10
3165.648974426832
 20
1304.923501581708
 30
0.0
 11
3175.649162952411
 21
1314.922990206075
 31
0.0
  0
LINE
  5
128
330
20
100
AcDbEntity
  8
_0-0_
  6
Continuous
 62
     7
100
AcDbLine
 10
1435.65144204992
 20
1314.922990206075
 30
0.0
 11
1445.650930674286
 21
1304.923501581708
 31
0.0
  0
LINE
  5
129
330
20
100
AcDbEntity
  8
_0-0_
  6
Continuous
 62
     4
100
AcDbLine
 10
6642.401503256596
 20
4112.900566112908
 30
0.0
 11
4902.398795557966
 21
4112.900566112908
 31
0.0
  0
LINE
  5
12A
330
20
100
AcDbEntity
  8
_0-0_
  6
Continuous
 62
     4
100
AcDbLine
 10
4902.398795557966
 20
3562.900566112909
 30
0.0
 11
4902.398795557966
 21
4132.900566112908
 31
0.0
  0
LINE
  5
12B
330
20
100
AcDbEntity
  8
_0-0_
  6
Continuous
 62
     4
100
AcDbLine
 10
6642.401503256596
 20
3562.900566112909
 30
0.0
 11
6642.401503256596
 21
4132.900566112908
 31
0.0
  0
LINE
  5
12C
330
20
100
AcDbEntity
  8
_0-0_
  6
Continuous
 62
     4
100
AcDbLine
 10
5022.398795557966
 20
3562.900566112909
 30
0.0
 11
5022.398795557966
 21
3942.900566112907
 31
0.0
  0
LINE
  5
12D
330
20
100
AcDbEntity
  8
_0-0_
  6
Continuous
 62
     4
100
AcDbLine
 10
6522.401503256597
 20
3562.900566112909
 30
0.0
 11
6522.401503256597
 21
3942.900566112907
 31
0.0
  0
LINE
  5
12E
330
20
100
AcDbEntity
  8
_0-0_
  6
Continuous
 62
     4
100
AcDbLine
 10
5072.398795557965
 20
3562.900566112909
 30
0.0
 11
5072.398795557965
 21
3752.900566112909
 31
0.0
  0
LINE
  5
12F
330
20
100
AcDbEntity
  8
_0-0_
  6
Continuous
 62
     4
100
AcDbLine
 10
6472.401503256597
 20
3562.900566112909
 30
0.0
 11
6472.401503256597
 21
3752.900566112909
 31
0.0
  0
LINE
  5
130
330
20
100
AcDbEntity
  8
_0-0_
  6
Continuous
 62
     4
100
AcDbLine
 10
5152.398795557966
 20
3732.900566112909
 30
0.0
 11
5072.398795557965
 21
3732.900566112909
 31
0.0
  0
LINE
  5
131
330
20
100
AcDbEntity
  8
_0-0_
  6
Continuous
 62
     4
100
AcDbLine
 10
5022.398795557966
 20
3732.900566112909
 30
0.0
 11
4942.398795557966
 21
3732.900566112909
 31
0.0
  0
LINE
  5
132
330
20
100
AcDbEntity
  8
_0-0_
  6
Continuous
 62
     4
100
AcDbLine
 10
6602.401503256597
 20
3732.900566112909
 30
0.0
 11
6522.401503256597
 21
3732.900566112909
 31
0.0
  0
LINE
  5
133
330
20
100
AcDbEntity
  8
_0-0_
  6
Continuous
 62
     4
100
AcDbLine
 10
6472.401503256597
 20
3732.900566112909
 30
0.0
 11
6392.401503256596
 21
3732.900566112909
 31
0.0
  0
LINE
  5
134
330
20
100
AcDbEntity
  8
_0-0_
  6
Continuous
 62
     4
100
AcDbLine
 10
5072.398795557965
 20
3732.900566112909
 30
0.0
 11
5022.398795557966
 21
3732.900566112909
 31
0.0
  0
LINE
  5
135
330
20
100
AcDbEntity
  8
_0-0_
  6
Continuous
 62
     4
100
AcDbLine
 10
6522.401503256597
 20
3732.900566112909
 30
0.0
 11
6472.401503256597
 21
3732.900566112909
 31
0.0
  0
LINE
  5
136
330
20
100
AcDbEntity
  8
_0-0_
  6
Continuous
 62
     4
100
AcDbLine
 10
5772.400149407282
 20
3752.900566112909
 30
0.0
 11
5772.400149407282
 21
3562.900566112909
 31
0.0
  0
LINE
  5
137
330
20
100
AcDbEntity
  8
_0-0_
  6
Continuous
 62
     4
100
AcDbLine
 10
5972.400149407281
 20
3752.900566112909
 30
0.0
 11
5972.400149407281
 21
3562.900566112909
 31
0.0
  0
LINE
  5
138
330
20
100
AcDbEntity
  8
_0-0_
  6
Continuous
 62
     4
100
AcDbLine
 10
5572.400149407282
 20
3752.900566112909
 30
0.0
 11
5572.400149407282
 21
3562.900566112909
 31
0.0
  0
LINE
  5
139
330
20
100
AcDbEntity
  8
_0-0_
  6
Continuous
 62
     4
100
AcDbLine
 10
5772.400149407282
 20
3732.900566112909
 30
0.0
 11
5572.400149407282
 21
3732.900566112909
 31
0.0
  0
LINE
  5
13A
330
20
100
AcDbEntity
  8
_0-0_
  6
Continuous
 62
     4
100
AcDbLine
 10
5972.400149407281
 20
3732.900566112909
 30
0.0
 11
5772.400149407282
 21
3732.900566112909
 31
0.0
  0
LINE
  5
13B
330
20
100
AcDbEntity
  8
_0-0_
  6
Continuous
 62
     4
100
AcDbLine
 10
6642.401503256596
 20
4112.900566112908
 30
0.0
 11
6606.179284770757
 21
4103.194851921563
 31
0.0
  0
LINE
  5
13C
330
20
100
AcDbEntity
  8
_0-0_
  6
Continuous
 62
     4
100
AcDbLine
 10
6642.401503256596
 20
4112.900566112908
 30
0.0
 11
6606.179284770757
 21
4122.606280304252
 31
0.0
  0
LINE
  5
13D
330
20
100
AcDbEntity
  8
_0-0_
  6
Continuous
 62
     4
100
AcDbLine
 10
4902.398795557966
 20
4112.900566112908
 30
0.0
 11
4938.621014043807
 21
4122.606280304252
 31
0.0
  0
LINE
  5
13E
330
20
100
AcDbEntity
  8
_0-0_
  6
Continuous
 62
     4
100
AcDbLine
 10
4902.398795557966
 20
4112.900566112908
 30
0.0
 11
4938.621014043807
 21
4103.194851921563
 31
0.0
  0
LINE
  5
13F
330
20
100
AcDbEntity
  8
_0-0_
  6
Continuous
 62
     4
100
AcDbLine
 10
6642.401503256596
 20
3922.90056611291
 30
0.0
 11
6522.401503256597
 21
3922.90056611291
 31
0.0
  0
LINE
  5
140
330
20
100
AcDbEntity
  8
_0-0_
  6
Continuous
 62
     4
100
AcDbLine
 10
5022.398795557966
 20
3922.90056611291
 30
0.0
 11
4902.398795557966
 21
3922.90056611291
 31
0.0
  0
LINE
  5
141
330
20
100
AcDbEntity
  8
_0-0_
  6
Continuous
 62
     4
100
AcDbLine
 10
6522.401503256597
 20
3922.90056611291
 30
0.0
 11
5022.398795557966
 21
3922.90056611291
 31
0.0
  0
LINE
  5
142
330
20
100
AcDbEntity
  8
_0-0_
  6
Continuous
 62
     4
100
AcDbLine
 10
6642.401503256596
 20
3922.90056611291
 30
0.0
 11
6606.179284770757
 21
3913.194851921564
 31
0.0
  0
LINE
  5
143
330
20
100
AcDbEntity
  8
_0-0_
  6
Continuous
 62
     4
100
AcDbLine
 10
6642.401503256596
 20
3922.90056611291
 30
0.0
 11
6606.179284770757
 21
3932.606280304252
 31
0.0
  0
LINE
  5
144
330
20
100
AcDbEntity
  8
_0-0_
  6
Continuous
 62
     4
100
AcDbLine
 10
6522.401503256597
 20
3922.90056611291
 30
0.0
 11
6558.623721742437
 21
3932.606280304252
 31
0.0
  0
LINE
  5
145
330
20
100
AcDbEntity
  8
_0-0_
  6
Continuous
 62
     4
100
AcDbLine
 10
6522.401503256597
 20
3922.90056611291
 30
0.0
 11
6558.623721742437
 21
3913.194851921564
 31
0.0
  0
LINE
  5
146
330
20
100
AcDbEntity
  8
_0-0_
  6
Continuous
 62
     4
100
AcDbLine
 10
6522.401503256597
 20
3922.90056611291
 30
0.0
 11
6486.179284770756
 21
3913.194851921564
 31
0.0
  0
LINE
  5
147
330
20
100
AcDbEntity
  8
_0-0_
  6
Continuous
 62
     4
100
AcDbLine
 10
6522.401503256597
 20
3922.90056611291
 30
0.0
 11
6486.179284770756
 21
3932.606280304252
 31
0.0
  0
LINE
  5
148
330
20
100
AcDbEntity
  8
_0-0_
  6
Continuous
 62
     4
100
AcDbLine
 10
5022.398795557966
 20
3922.90056611291
 30
0.0
 11
5058.621014043806
 21
3932.606280304252
 31
0.0
  0
LINE
  5
149
330
20
100
AcDbEntity
  8
_0-0_
  6
Continuous
 62
     4
100
AcDbLine
 10
5022.398795557966
 20
3922.90056611291
 30
0.0
 11
5058.621014043806
 21
3913.194851921564
 31
0.0
  0
LINE
  5
14A
330
20
100
AcDbEntity
  8
_0-0_
  6
Continuous
 62
     4
100
AcDbLine
 10
5022.398795557966
 20
3922.90056611291
 30
0.0
 11
4986.176577072127
 21
3913.194851921564
 31
0.0
  0
LINE
  5
14B
330
20
100
AcDbEntity
  8
_0-0_
  6
Continuous
 62
     4
100
AcDbLine
 10
5022.398795557966
 20
3922.90056611291
 30
0.0
 11
4986.176577072127
 21
3932.606280304252
 31
0.0
  0
LINE
  5
14C
330
20
100
AcDbEntity
  8
_0-0_
  6
Continuous
 62
     4
100
AcDbLine
 10
4902.398795557966
 20
3922.90056611291
 30
0.0
 11
4938.621014043807
 21
3932.606280304252
 31
0.0
  0
LINE
  5
14D
330
20
100
AcDbEntity
  8
_0-0_
  6
Continuous
 62
     4
100
AcDbLine
 10
4902.398795557966
 20
3922.90056611291
 30
0.0
 11
4938.621014043807
 21
3913.194851921564
 31
0.0
  0
LINE
  5
14E
330
20
100
AcDbEntity
  8
_0-0_
  6
Continuous
 62
     4
100
AcDbLine
 10
5022.398795557966
 20
3732.900566112909
 30
0.0
 11
4986.176577072127
 21
3723.194851921565
 31
0.0
  0
LINE
  5
14F
330
20
100
AcDbEntity
  8
_0-0_
  6
Continuous
 62
     4
100
AcDbLine
 10
5022.398795557966
 20
3732.900566112909
 30
0.0
 11
4986.176577072127
 21
3742.606280304253
 31
0.0
  0
LINE
  5
150
330
20
100
AcDbEntity
  8
_0-0_
  6
Continuous
 62
     4
100
AcDbLine
 10
5072.398795557965
 20
3732.900566112909
 30
0.0
 11
5108.621014043806
 21
3742.606280304253
 31
0.0
  0
LINE
  5
151
330
20
100
AcDbEntity
  8
_0-0_
  6
Continuous
 62
     4
100
AcDbLine
 10
5072.398795557965
 20
3732.900566112909
 30
0.0
 11
5108.621014043806
 21
3723.194851921565
 31
0.0
  0
LINE
  5
152
330
20
100
AcDbEntity
  8
_0-0_
  6
Continuous
 62
     4
100
AcDbLine
 10
5572.400149407282
 20
3732.900566112909
 30
0.0
 11
5608.622367893122
 21
3742.606280304253
 31
0.0
  0
LINE
  5
153
330
20
100
AcDbEntity
  8
_0-0_
  6
Continuous
 62
     4
100
AcDbLine
 10
5572.400149407282
 20
3732.900566112909
 30
0.0
 11
5608.622367893122
 21
3723.194851921565
 31
0.0
  0
LINE
  5
154
330
20
100
AcDbEntity
  8
_0-0_
  6
Continuous
 62
     4
100
AcDbLine
 10
5772.400149407282
 20
3732.900566112909
 30
0.0
 11
5736.177930921442
 21
3723.194851921565
 31
0.0
  0
LINE
  5
155
330
20
100
AcDbEntity
  8
_0-0_
  6
Continuous
 62
     4
100
AcDbLine
 10
5772.400149407282
 20
3732.900566112909
 30
0.0
 11
5736.177930921442
 21
3742.606280304253
 31
0.0
  0
LINE
  5
156
330
20
100
AcDbEntity
  8
_0-0_
  6
Continuous
 62
     4
100
AcDbLine
 10
5772.400149407282
 20
3732.900566112909
 30
0.0
 11
5808.622367893122
 21
3742.606280304253
 31
0.0
  0
LINE
  5
157
330
20
100
AcDbEntity
  8
_0-0_
  6
Continuous
 62
     4
100
AcDbLine
 10
5772.400149407282
 20
3732.900566112909
 30
0.0
 11
5808.622367893122
 21
3723.194851921565
 31
0.0
  0
LINE
  5
158
330
20
100
AcDbEntity
  8
_0-0_
  6
Continuous
 62
     4
100
AcDbLine
 10
5972.400149407281
 20
3732.900566112909
 30
0.0
 11
5936.177930921441
 21
3723.194851921565
 31
0.0
  0
LINE
  5
159
330
20
100
AcDbEntity
  8
_0-0_
  6
Continuous
 62
     4
100
AcDbLine
 10
5972.400149407281
 20
3732.900566112909
 30
0.0
 11
5936.177930921441
 21
3742.606280304253
 31
0.0
  0
LINE
  5
15A
330
20
100
AcDbEntity
  8
_0-0_
  6
Continuous
 62
     4
100
AcDbLine
 10
6472.401503256597
 20
3732.900566112909
 30
0.0
 11
6436.179284770756
 21
3723.194851921565
 31
0.0
  0
LINE
  5
15B
330
20
100
AcDbEntity
  8
_0-0_
  6
Continuous
 62
     4
100
AcDbLine
 10
6472.401503256597
 20
3732.900566112909
 30
0.0
 11
6436.179284770756
 21
3742.606280304253
 31
0.0
  0
LINE
  5
15C
330
20
100
AcDbEntity
  8
_0-0_
  6
Continuous
 62
     4
100
AcDbLine
 10
6522.401503256597
 20
3732.900566112909
 30
0.0
 11
6558.623721742437
 21
3742.606280304253
 31
0.0
  0
LINE
  5
15D
330
20
100
AcDbEntity
  8
_0-0_
  6
Continuous
 62
     4
100
AcDbLine
 10
6522.401503256597
 20
3732.900566112909
 30
0.0
 11
6558.623721742437
 21
3723.194851921565
 31
0.0
  0
TEXT
  5
15E
330
20
100
AcDbEntity
  8
_0-0_
 62
     7
100
AcDbText
 10
4929.862521433601
 20
3944.960706056617
 30
0.0
 40
75.0
  1
120
100
AcDbText
  0
TEXT
  5
15F
330
20
100
AcDbEntity
  8
_0-0_
 62
     7
100
AcDbText
 10
5053.477179315483
 20
3755.186090435134
 30
0.0
 40
75.0
  1
50
100
AcDbText
  0
TEXT
  5
160
330
20
100
AcDbEntity
  8
_0-0_
 62
     7
100
AcDbText
 10
6460.652539700366
 20
3944.573732718894
 30
0.0
 40
75.0
  1
120
100
AcDbText
  0
TEXT
  5
161
330
20
100
AcDbEntity
  8
_0-0_
 62
     7
100
AcDbText
 10
6384.262013497387
 20
3756.143768084879
 30
0.0
 40
75.0
  1
50
100
AcDbText
  0
TEXT
  5
162
330
20
100
AcDbEntity
  8
_0-0_
 62
     7
100
AcDbText
 10
5687.726261922625
 20
4124.171042760689
 30
0.0
 40
75.0
  1
1740
100
AcDbText
  0
TEXT
  5
163
330
20
100
AcDbEntity
  8
_0-0_
 62
     7
100
AcDbText
 10
5687.726261922625
 20
3935.741078126674
 30
0.0
 40
75.0
  1
1500
100
AcDbText
  0
TEXT
  5
164
330
20
100
AcDbEntity
  8
_0-0_
 62
     7
100
AcDbText
 10
5590.410300987078
 20
3747.311113492659
 30
0.0
 40
75.0
  1
200
100
AcDbText
  0
TEXT
  5
165
330
20
100
AcDbEntity
  8
_0-0_
 62
     7
100
AcDbText
 10
5790.617138410718
 20
3744.366895295252
 30
0.0
 40
75.0
  1
200
100
AcDbText
  0
LINE
  5
166
330
20
100
AcDbEntity
  8
_0-0_
  6
Continuous
 62
     4
100
AcDbLine
 10
6667.401503256596
 20
3317.900617957443
 30
0.0
 11
6857.401503256596
 21
3317.900617957443
 31
0.0
  0
LINE
  5
167
330
20
100
AcDbEntity
  8
_0-0_
  6
Continuous
 62
     4
100
AcDbLine
 10
6837.401503256597
 20
2017.900606174594
 30
0.0
 11
6837.401503256597
 21
3317.900617957443
 31
0.0
  0
LINE
  5
168
330
20
100
AcDbEntity
  8
_0-0_
  6
Continuous
 62
     4
100
AcDbLine
 10
6667.401503256596
 20
2017.900606174594
 30
0.0
 11
6857.401503256596
 21
2017.900606174594
 31
0.0
  0
LINE
  5
169
330
20
100
AcDbEntity
  8
_0-0_
  6
Continuous
 62
     4
100
AcDbLine
 10
6837.401503256597
 20
3317.900617957443
 30
0.0
 11
6847.10721744794
 21
3281.678399471604
 31
0.0
  0
LINE
  5
16A
330
20
100
AcDbEntity
  8
_0-0_
  6
Continuous
 62
     4
100
AcDbLine
 10
6837.401503256597
 20
3317.900617957443
 30
0.0
 11
6827.695789065252
 21
3281.678399471604
 31
0.0
  0
LINE
  5
16B
330
20
100
AcDbEntity
  8
_0-0_
  6
Continuous
 62
     4
100
AcDbLine
 10
6837.401503256597
 20
2017.900606174594
 30
0.0
 11
6827.695789065252
 21
2054.122824660435
 31
0.0
  0
LINE
  5
16C
330
20
100
AcDbEntity
  8
_0-0_
  6
Continuous
 62
     4
100
AcDbLine
 10
6837.401503256597
 20
2017.900606174594
 30
0.0
 11
6847.10721744794
 21
2054.122824660435
 31
0.0
  0
TEXT
  5
16D
330
20
100
AcDbEntity
  8
_0-0_
 62
     7
100
AcDbText
 10
6823.370019415152
 20
2584.217932597768
 30
0.0
 40
75.0
  1
1300
 50
90.0
100
AcDbText
  0
LINE
  5
16E
330
20
100
AcDbEntity
  8
_0-0_
  6
DASHED1
 62
   136
100
AcDbLine
 10
5660.910364010578
 20
2779.390230251955
 30
0.0
 11
5701.689418263182
 21
2738.611237159188
 31
0.0
  0
LINE
  5
16F
330
20
100
AcDbEntity
  8
_0-0_
  6
DASHED1
 62
   136
100
AcDbLine
 10
5660.910364010578
 20
2556.410993880082
 30
0.0
 11
5701.689418263182
 21
2597.18998697285
 31
0.0
  0
LINE
  5
170
330
20
100
AcDbEntity
  8
_0-0_
  6
Continuous
 62
   136
100
AcDbLine
 10
5493.885496889888
 20
2946.414846871167
 30
0.0
 11
5660.910364010578
 21
2779.390230251955
 31
0.0
  0
LINE
  5
171
330
20
100
AcDbEntity
  8
_0-0_
  6
Continuous
 62
   136
100
AcDbLine
 10
5493.885496889887
 20
2389.38637726087
 30
0.0
 11
5660.910364010578
 21
2556.410993880083
 31
0.0
  0
LINE
  5
172
330
20
100
AcDbEntity
  8
_0-0_
  6
DASHED1
 62
   136
100
AcDbLine
 10
5493.885496889888
 20
2946.414846871167
 30
0.0
 11
5072.398850937354
 21
3367.900860684127
 31
0.0
  0
LINE
  5
173
330
20
100
AcDbEntity
  8
_0-0_
  6
DASHED1
 62
   136
100
AcDbLine
 10
5493.885496889887
 20
2389.38637726087
 30
0.0
 11
5072.398850937354
 21
1967.900363447911
 31
0.0
  0
LINE
  5
174
330
20
100
AcDbEntity
  8
_0-0_
  6
DASHED1
 62
   136
100
AcDbLine
 10
5843.110880551381
 20
2738.611237159188
 30
0.0
 11
6472.401447877207
 21
3367.900860684127
 31
0.0
  0
LINE
  5
175
330
20
100
AcDbEntity
  8
_0-0_
  6
DASHED1
 62
   136
100
AcDbLine
 10
5843.110880551381
 20
2597.18998697285
 30
0.0
 11
6472.401447877207
 21
1967.900363447911
 31
0.0
  0
LINE
  5
176
330
20
100
AcDbEntity
  8
_0-0_
  6
Continuous
 62
     4
100
AcDbLine
 10
4327.398795557966
 20
1797.900308068523
 30
0.0
 11
4327.398795557966
 21
3537.900566112909
 31
0.0
  0
LINE
  5
177
330
20
100
AcDbEntity
  8
_0-0_
  6
Continuous
 62
     4
100
AcDbLine
 10
4877.398795557966
 20
1797.900308068523
 30
0.0
 11
4307.398795557966
 21
1797.900308068523
 31
0.0
  0
LINE
  5
178
330
20
100
AcDbEntity
  8
_0-0_
  6
Continuous
 62
     4
100
AcDbLine
 10
4877.398795557966
 20
3537.900566112909
 30
0.0
 11
4307.398795557966
 21
3537.900566112909
 31
0.0
  0
LINE
  5
179
330
20
100
AcDbEntity
  8
_0-0_
  6
Continuous
 62
     4
100
AcDbLine
 10
4877.398795557966
 20
3417.900566112909
 30
0.0
 11
4497.398795557966
 21
3417.900566112909
 31
0.0
  0
LINE
  5
17A
330
20
100
AcDbEntity
  8
_0-0_
  6
Continuous
 62
     4
100
AcDbLine
 10
4877.398795557966
 20
1917.900308068523
 30
0.0
 11
4497.398795557966
 21
1917.900308068523
 31
0.0
  0
LINE
  5
17B
330
20
100
AcDbEntity
  8
_0-0_
  6
Continuous
 62
     4
100
AcDbLine
 10
4877.398795557966
 20
3367.900566112909
 30
0.0
 11
4687.398795557967
 21
3367.900566112909
 31
0.0
  0
LINE
  5
17C
330
20
100
AcDbEntity
  8
_0-0_
  6
Continuous
 62
     4
100
AcDbLine
 10
4877.398795557966
 20
1967.900308068523
 30
0.0
 11
4687.398795557967
 21
1967.900308068523
 31
0.0
  0
LINE
  5
17D
330
20
100
AcDbEntity
  8
_0-0_
  6
Continuous
 62
     4
100
AcDbLine
 10
4707.398795557966
 20
3287.900566112909
 30
0.0
 11
4707.398795557966
 21
3367.900566112909
 31
0.0
  0
LINE
  5
17E
330
20
100
AcDbEntity
  8
_0-0_
  6
Continuous
 62
     4
100
AcDbLine
 10
4707.398795557966
 20
3417.900566112909
 30
0.0
 11
4707.398795557966
 21
3497.900566112909
 31
0.0
  0
LINE
  5
17F
330
20
100
AcDbEntity
  8
_0-0_
  6
Continuous
 62
     4
100
AcDbLine
 10
4707.398795557966
 20
1837.900308068523
 30
0.0
 11
4707.398795557966
 21
1917.900308068523
 31
0.0
  0
LINE
  5
180
330
20
100
AcDbEntity
  8
_0-0_
  6
Continuous
 62
     4
100
AcDbLine
 10
4707.398795557966
 20
1967.900308068523
 30
0.0
 11
4707.398795557966
 21
2047.900308068523
 31
0.0
  0
LINE
  5
181
330
20
100
AcDbEntity
  8
_0-0_
  6
Continuous
 62
     4
100
AcDbLine
 10
4707.398795557966
 20
3417.900566112909
 30
0.0
 11
4707.398795557966
 21
3367.900566112909
 31
0.0
  0
LINE
  5
182
330
20
100
AcDbEntity
  8
_0-0_
  6
Continuous
 62
     4
100
AcDbLine
 10
4707.398795557966
 20
1967.900308068523
 30
0.0
 11
4707.398795557966
 21
1917.900308068523
 31
0.0
  0
LINE
  5
183
330
20
100
AcDbEntity
  8
_0-0_
  6
Continuous
 62
     4
100
AcDbLine
 10
4877.398795557966
 20
2667.900437090716
 30
0.0
 11
4687.398795557967
 21
2667.900437090716
 31
0.0
  0
LINE
  5
184
330
20
100
AcDbEntity
  8
_0-0_
  6
Continuous
 62
     4
100
AcDbLine
 10
4877.398795557966
 20
2867.900437090716
 30
0.0
 11
4687.398795557967
 21
2867.900437090716
 31
0.0
  0
LINE
  5
185
330
20
100
AcDbEntity
  8
_0-0_
  6
Continuous
 62
     4
100
AcDbLine
 10
4877.398795557966
 20
2467.900437090716
 30
0.0
 11
4687.398795557967
 21
2467.900437090716
 31
0.0
  0
LINE
  5
186
330
20
100
AcDbEntity
  8
_0-0_
  6
Continuous
 62
     4
100
AcDbLine
 10
4707.398795557966
 20
2467.900437090716
 30
0.0
 11
4707.398795557966
 21
2667.900437090716
 31
0.0
  0
LINE
  5
187
330
20
100
AcDbEntity
  8
_0-0_
  6
Continuous
 62
     4
100
AcDbLine
 10
4707.398795557966
 20
2867.900437090716
 30
0.0
 11
4707.398795557966
 21
2667.900437090716
 31
0.0
  0
LINE
  5
188
330
20
100
AcDbEntity
  8
_0-0_
  6
Continuous
 62
     4
100
AcDbLine
 10
4707.398795557966
 20
3417.900566112909
 30
0.0
 11
4697.693081366622
 21
3454.122784598748
 31
0.0
  0
LINE
  5
189
330
20
100
AcDbEntity
  8
_0-0_
  6
Continuous
 62
     4
100
AcDbLine
 10
4707.398795557966
 20
3417.900566112909
 30
0.0
 11
4717.104509749311
 21
3454.122784598748
 31
0.0
  0
LINE
  5
18A
330
20
100
AcDbEntity
  8
_0-0_
  6
Continuous
 62
     4
100
AcDbLine
 10
4707.398795557966
 20
3367.900566112909
 30
0.0
 11
4717.104509749311
 21
3331.678347627069
 31
0.0
  0
LINE
  5
18B
330
20
100
AcDbEntity
  8
_0-0_
  6
Continuous
 62
     4
100
AcDbLine
 10
4707.398795557966
 20
3367.900566112909
 30
0.0
 11
4697.693081366622
 21
3331.678347627069
 31
0.0
  0
LINE
  5
18C
330
20
100
AcDbEntity
  8
_0-0_
  6
Continuous
 62
     4
100
AcDbLine
 10
4517.398795557966
 20
1797.900308068523
 30
0.0
 11
4517.398795557966
 21
1917.900308068523
 31
0.0
  0
LINE
  5
18D
330
20
100
AcDbEntity
  8
_0-0_
  6
Continuous
 62
     4
100
AcDbLine
 10
4517.398795557966
 20
3417.900566112909
 30
0.0
 11
4517.398795557966
 21
3537.900566112909
 31
0.0
  0
LINE
  5
18E
330
20
100
AcDbEntity
  8
_0-0_
  6
Continuous
 62
     4
100
AcDbLine
 10
4517.398795557966
 20
3417.900566112909
 30
0.0
 11
4517.398795557966
 21
1917.900308068523
 31
0.0
  0
LINE
  5
18F
330
20
100
AcDbEntity
  8
_0-0_
  6
Continuous
 62
     4
100
AcDbLine
 10
4707.398795557966
 20
2867.900437090716
 30
0.0
 11
4717.104509749311
 21
2831.678218604876
 31
0.0
  0
LINE
  5
190
330
20
100
AcDbEntity
  8
_0-0_
  6
Continuous
 62
     4
100
AcDbLine
 10
4707.398795557966
 20
2867.900437090716
 30
0.0
 11
4697.693081366622
 21
2831.678218604876
 31
0.0
  0
LINE
  5
191
330
20
100
AcDbEntity
  8
_0-0_
  6
Continuous
 62
     4
100
AcDbLine
 10
4707.398795557966
 20
2667.900437090716
 30
0.0
 11
4697.693081366622
 21
2704.122655576556
 31
0.0
  0
LINE
  5
192
330
20
100
AcDbEntity
  8
_0-0_
  6
Continuous
 62
     4
100
AcDbLine
 10
4707.398795557966
 20
2667.900437090716
 30
0.0
 11
4717.104509749311
 21
2704.122655576556
 31
0.0
  0
LINE
  5
193
330
20
100
AcDbEntity
  8
_0-0_
  6
Continuous
 62
     4
100
AcDbLine
 10
4707.398795557966
 20
2667.900437090716
 30
0.0
 11
4717.104509749311
 21
2631.678218604875
 31
0.0
  0
LINE
  5
194
330
20
100
AcDbEntity
  8
_0-0_
  6
Continuous
 62
     4
100
AcDbLine
 10
4707.398795557966
 20
2667.900437090716
 30
0.0
 11
4697.693081366622
 21
2631.678218604875
 31
0.0
  0
LINE
  5
195
330
20
100
AcDbEntity
  8
_0-0_
  6
Continuous
 62
     4
100
AcDbLine
 10
4707.398795557966
 20
2467.900437090716
 30
0.0
 11
4697.693081366622
 21
2504.122655576556
 31
0.0
  0
LINE
  5
196
330
20
100
AcDbEntity
  8
_0-0_
  6
Continuous
 62
     4
100
AcDbLine
 10
4707.398795557966
 20
2467.900437090716
 30
0.0
 11
4717.104509749311
 21
2504.122655576556
 31
0.0
  0
LINE
  5
197
330
20
100
AcDbEntity
  8
_0-0_
  6
Continuous
 62
     4
100
AcDbLine
 10
4707.398795557966
 20
1967.900308068523
 30
0.0
 11
4697.693081366622
 21
2004.122526554363
 31
0.0
  0
LINE
  5
198
330
20
100
AcDbEntity
  8
_0-0_
  6
Continuous
 62
     4
100
AcDbLine
 10
4707.398795557966
 20
1967.900308068523
 30
0.0
 11
4717.104509749311
 21
2004.122526554363
 31
0.0
  0
LINE
  5
199
330
20
100
AcDbEntity
  8
_0-0_
  6
Continuous
 62
     4
100
AcDbLine
 10
4707.398795557966
 20
1917.900308068523
 30
0.0
 11
4717.104509749311
 21
1881.678089582683
 31
0.0
  0
LINE
  5
19A
330
20
100
AcDbEntity
  8
_0-0_
  6
Continuous
 62
     4
100
AcDbLine
 10
4707.398795557966
 20
1917.900308068523
 30
0.0
 11
4697.693081366622
 21
1881.678089582683
 31
0.0
  0
LINE
  5
19B
330
20
100
AcDbEntity
  8
_0-0_
  6
Continuous
 62
     4
100
AcDbLine
 10
4517.398795557966
 20
1917.900308068523
 30
0.0
 11
4527.10450974931
 21
1881.678089582683
 31
0.0
  0
LINE
  5
19C
330
20
100
AcDbEntity
  8
_0-0_
  6
Continuous
 62
     4
100
AcDbLine
 10
4517.398795557966
 20
1917.900308068523
 30
0.0
 11
4507.693081366621
 21
1881.678089582683
 31
0.0
  0
LINE
  5
19D
330
20
100
AcDbEntity
  8
_0-0_
  6
Continuous
 62
     4
100
AcDbLine
 10
4517.398795557966
 20
1797.900308068523
 30
0.0
 11
4507.693081366621
 21
1834.122526554363
 31
0.0
  0
LINE
  5
19E
330
20
100
AcDbEntity
  8
_0-0_
  6
Continuous
 62
     4
100
AcDbLine
 10
4517.398795557966
 20
1797.900308068523
 30
0.0
 11
4527.10450974931
 21
1834.122526554363
 31
0.0
  0
LINE
  5
19F
330
20
100
AcDbEntity
  8
_0-0_
  6
Continuous
 62
     4
100
AcDbLine
 10
4517.398795557966
 20
1917.900308068523
 30
0.0
 11
4507.693081366621
 21
1954.122526554362
 31
0.0
  0
LINE
  5
1A0
330
20
100
AcDbEntity
  8
_0-0_
  6
Continuous
 62
     4
100
AcDbLine
 10
4517.398795557966
 20
1917.900308068523
 30
0.0
 11
4527.10450974931
 21
1954.122526554362
 31
0.0
  0
LINE
  5
1A1
330
20
100
AcDbEntity
  8
_0-0_
  6
Continuous
 62
     4
100
AcDbLine
 10
4327.398795557966
 20
1797.900308068523
 30
0.0
 11
4317.693081366622
 21
1834.122526554363
 31
0.0
  0
LINE
  5
1A2
330
20
100
AcDbEntity
  8
_0-0_
  6
Continuous
 62
     4
100
AcDbLine
 10
4327.398795557966
 20
1797.900308068523
 30
0.0
 11
4337.104509749311
 21
1834.122526554363
 31
0.0
  0
LINE
  5
1A3
330
20
100
AcDbEntity
  8
_0-0_
  6
Continuous
 62
     4
100
AcDbLine
 10
4327.398795557966
 20
3537.900566112909
 30
0.0
 11
4337.104509749311
 21
3501.678347627069
 31
0.0
  0
LINE
  5
1A4
330
20
100
AcDbEntity
  8
_0-0_
  6
Continuous
 62
     4
100
AcDbLine
 10
4327.398795557966
 20
3537.900566112909
 30
0.0
 11
4317.693081366622
 21
3501.678347627069
 31
0.0
  0
LINE
  5
1A5
330
20
100
AcDbEntity
  8
_0-0_
  6
Continuous
 62
     4
100
AcDbLine
 10
4517.398795557966
 20
3537.900566112909
 30
0.0
 11
4527.10450974931
 21
3501.678347627069
 31
0.0
  0
LINE
  5
1A6
330
20
100
AcDbEntity
  8
_0-0_
  6
Continuous
 62
     4
100
AcDbLine
 10
4517.398795557966
 20
3537.900566112909
 30
0.0
 11
4507.693081366621
 21
3501.678347627069
 31
0.0
  0
LINE
  5
1A7
330
20
100
AcDbEntity
  8
_0-0_
  6
Continuous
 62
     4
100
AcDbLine
 10
4517.398795557966
 20
3417.900566112909
 30
0.0
 11
4507.693081366621
 21
3454.122784598748
 31
0.0
  0
LINE
  5
1A8
330
20
100
AcDbEntity
  8
_0-0_
  6
Continuous
 62
     4
100
AcDbLine
 10
4517.398795557966
 20
3417.900566112909
 30
0.0
 11
4527.10450974931
 21
3454.122784598748
 31
0.0
  0
LINE
  5
1A9
330
20
100
AcDbEntity
  8
_0-0_
  6
Continuous
 62
     4
100
AcDbLine
 10
4517.398795557966
 20
3417.900566112909
 30
0.0
 11
4527.10450974931
 21
3381.678347627069
 31
0.0
  0
LINE
  5
1AA
330
20
100
AcDbEntity
  8
_0-0_
  6
Continuous
 62
     4
100
AcDbLine
 10
4517.398795557966
 20
3417.900566112909
 30
0.0
 11
4507.693081366621
 21
3381.678347627069
 31
0.0
  0
TEXT
  5
1AB
330
20
100
AcDbEntity
  8
_0-0_
 62
     7
100
AcDbText
 10
4494.940146996881
 20
3362.432301258438
 30
0.0
 40
75.0
  1
120
 50
90.0
100
AcDbText
  0
TEXT
  5
1AC
330
20
100
AcDbEntity
  8
_0-0_
 62
     7
100
AcDbText
 10
4685.96087560096
 20
3286.024009816806
 30
0.0
 40
75.0
  1
50
 50
90.0
100
AcDbText
  0
TEXT
  5
1AD
330
20
100
AcDbEntity
  8
_0-0_
 62
     7
100
AcDbText
 10
4685.756081877612
 20
1948.358055194331
 30
0.0
 40
75.0
  1
50
 50
90.0
100
AcDbText
  0
TEXT
  5
1AE
330
20
100
AcDbEntity
  8
_0-0_
 62
     7
100
AcDbText
 10
4494.793028614296
 20
1827.857305006784
 30
0.0
 40
75.0
  1
120
 50
90.0
100
AcDbText
  0
TEXT
  5
1AF
330
20
100
AcDbEntity
  8
_0-0_
 62
     7
100
AcDbText
 10
4314.572393098274
 20
2582.229932483121
 30
0.0
 40
75.0
  1
1740
 50
90.0
100
AcDbText
  0
TEXT
  5
1B0
330
20
100
AcDbEntity
  8
_0-0_
 62
     7
100
AcDbText
 10
4504.222484192476
 20
2582.229932483121
 30
0.0
 40
75.0
  1
1500
 50
90.0
100
AcDbText
  0
TEXT
  5
1B1
330
20
100
AcDbEntity
  8
_0-0_
 62
     7
100
AcDbText
 10
4695.198799699925
 20
2474.521786814734
 30
0.0
 40
75.0
  1
200
 50
90.0
100
AcDbText
  0
TEXT
  5
1B2
330
20
100
AcDbEntity
  8
_0-0_
 62
     7
100
AcDbText
 10
4693.872575286679
 20
2676.107897628151
 30
0.0
 40
75.0
  1
200
 50
90.0
100
AcDbText
  0
LINE
  5
1B3
330
20
100
AcDbEntity
  8
_0-0_
  6
Continuous
 62
     4
100
AcDbLine
 10
5122.400143515857
 20
1772.900308068523
 30
0.0
 11
5122.400143515857
 21
1582.900308068523
 31
0.0
  0
LINE
  5
1B4
330
20
100
AcDbEntity
  8
_0-0_
  6
Continuous
 62
     4
100
AcDbLine
 10
5122.400143515857
 20
1602.900308068522
 30
0.0
 11
6422.400155298706
 21
1602.900308068522
 31
0.0
  0
LINE
  5
1B5
330
20
100
AcDbEntity
  8
_0-0_
  6
Continuous
 62
     4
100
AcDbLine
 10
6422.400155298706
 20
1772.900308068523
 30
0.0
 11
6422.400155298706
 21
1582.900308068523
 31
0.0
  0
LINE
  5
1B6
330
20
100
AcDbEntity
  8
_0-0_
  6
Continuous
 62
     4
100
AcDbLine
 10
6422.400155298706
 20
1602.900308068522
 30
0.0
 11
6386.177936812867
 21
1593.194593877178
 31
0.0
  0
LINE
  5
1B7
330
20
100
AcDbEntity
  8
_0-0_
  6
Continuous
 62
     4
100
AcDbLine
 10
6422.400155298706
 20
1602.900308068522
 30
0.0
 11
6386.177936812867
 21
1612.606022259867
 31
0.0
  0
LINE
  5
1B8
330
20
100
AcDbEntity
  8
_0-0_
  6
Continuous
 62
     4
100
AcDbLine
 10
5122.400143515857
 20
1602.900308068522
 30
0.0
 11
5158.622362001697
 21
1612.606022259867
 31
0.0
  0
LINE
  5
1B9
330
20
100
AcDbEntity
  8
_0-0_
  6
Continuous
 62
     4
100
AcDbLine
 10
5122.400143515857
 20
1602.900308068522
 30
0.0
 11
5158.622362001697
 21
1593.194593877178
 31
0.0
  0
TEXT
  5
1BA
330
20
100
AcDbEntity
  8
_0-0_
 62
     7
100
AcDbText
 10
5690.191114166791
 20
1616.314153783261
 30
0.0
 40
75.0
  1
1300
100
AcDbText
  0
LINE
  5
1BB
330
20
100
AcDbEntity
  8
_0-0_
  6
Continuous
 62
     4
100
AcDbLine
 10
5562.401089678608
 20
1882.90051073352
 30
0.0
 11
5205.067977738881
 21
1352.900308068522
 31
0.0
  0
LINE
  5
1BC
330
20
100
AcDbEntity
  8
_0-0_
  6
Continuous
 62
     4
100
AcDbLine
 10
5562.401089678608
 20
1882.90051073352
 30
0.0
 11
5550.199482851252
 21
1847.441086163589
 31
0.0
  0
LINE
  5
1BD
330
20
100
AcDbEntity
  8
_0-0_
  6
Continuous
 62
     4
100
AcDbLine
 10
5562.401089678608
 20
1882.90051073352
 30
0.0
 11
5534.104475914162
 21
1858.292551666059
 31
0.0
  0
TEXT
  5
1BE
330
20
100
AcDbEntity
  8
_0-0_
 62
     7
100
AcDbText
 10
4533.579665852202
 20
1374.623479676098
 30
0.0
 40
75.0
  1
インサート M12
100
AcDbText
  0
LINE
  5
1BF
330
20
100
AcDbEntity
  8
_0-0_
  6
Continuous
 62
     4
100
AcDbLine
 10
5205.067977738881
 20
1352.900308068522
 30
0.0
 11
4542.557809414088
 21
1352.900308068522
 31
0.0
  0
LINE
  5
1C0
330
20
100
AcDbEntity
  8
_0-0_
  6
Continuous
 62
     4
100
AcDbLine
 10
3200.650562754836
 20
3264.923642681321
 30
0.0
 11
3390.650562754836
 21
3264.923642681321
 31
0.0
  0
LINE
  5
1C1
330
20
100
AcDbEntity
  8
_0-0_
  6
Continuous
 62
     4
100
AcDbLine
 10
3200.650562754836
 20
3464.923642681321
 30
0.0
 11
3390.650562754836
 21
3464.923642681321
 31
0.0
  0
LINE
  5
1C2
330
20
100
AcDbEntity
  8
_0-0_
  6
Continuous
 62
     4
100
AcDbLine
 10
3200.650562754836
 20
3764.923642681321
 30
0.0
 11
3390.650562754836
 21
3764.923642681321
 31
0.0
  0
LINE
  5
1C3
330
20
100
AcDbEntity
  8
_0-0_
  6
Continuous
 62
     4
100
AcDbLine
 10
3200.650562754836
 20
3114.923642681321
 30
0.0
 11
3390.650562754836
 21
3114.923642681321
 31
0.0
  0
LINE
  5
1C4
330
20
100
AcDbEntity
  8
_0-0_
  6
Continuous
 62
     4
100
AcDbLine
 10
3200.650562754836
 20
2764.923642681321
 30
0.0
 11
3390.650562754836
 21
2764.923642681321
 31
0.0
  0
LINE
  5
1C5
330
20
100
AcDbEntity
  8
_0-0_
  6
Continuous
 62
     4
100
AcDbLine
 10
3200.650562754836
 20
2614.923642681322
 30
0.0
 11
3390.650562754836
 21
2614.923642681322
 31
0.0
  0
LINE
  5
1C6
330
20
100
AcDbEntity
  8
_0-0_
  6
Continuous
 62
     4
100
AcDbLine
 10
3200.650562754836
 20
2264.923642681321
 30
0.0
 11
3390.650562754836
 21
2264.923642681321
 31
0.0
  0
LINE
  5
1C7
330
20
100
AcDbEntity
  8
_0-0_
  6
Continuous
 62
     4
100
AcDbLine
 10
3200.650562754836
 20
2164.923642681321
 30
0.0
 11
3390.650562754836
 21
2164.923642681321
 31
0.0
  0
LINE
  5
1C8
330
20
100
AcDbEntity
  8
_0-0_
  6
Continuous
 62
     4
100
AcDbLine
 10
3370.650562754836
 20
2264.923642681321
 30
0.0
 11
3370.650562754836
 21
2164.923642681321
 31
0.0
  0
LINE
  5
1C9
330
20
100
AcDbEntity
  8
_0-0_
  6
Continuous
 62
     4
100
AcDbLine
 10
3370.650562754836
 20
2764.923642681321
 30
0.0
 11
3370.650562754836
 21
2614.923642681322
 31
0.0
  0
LINE
  5
1CA
330
20
100
AcDbEntity
  8
_0-0_
  6
Continuous
 62
     4
100
AcDbLine
 10
3370.650562754836
 20
3264.923642681321
 30
0.0
 11
3370.650562754836
 21
3114.923642681321
 31
0.0
  0
LINE
  5
1CB
330
20
100
AcDbEntity
  8
_0-0_
  6
Continuous
 62
     4
100
AcDbLine
 10
3370.650562754836
 20
3764.923642681321
 30
0.0
 11
3370.650562754836
 21
3464.923642681321
 31
0.0
  0
LINE
  5
1CC
330
20
100
AcDbEntity
  8
_0-0_
  6
Continuous
 62
     4
100
AcDbLine
 10
3370.650562754836
 20
3464.923642681321
 30
0.0
 11
3370.650562754836
 21
3264.923642681321
 31
0.0
  0
LINE
  5
1CD
330
20
100
AcDbEntity
  8
_0-0_
  6
Continuous
 62
     4
100
AcDbLine
 10
3370.650562754836
 20
3114.923642681321
 30
0.0
 11
3370.650562754836
 21
2764.923642681321
 31
0.0
  0
LINE
  5
1CE
330
20
100
AcDbEntity
  8
_0-0_
  6
Continuous
 62
     4
100
AcDbLine
 10
3370.650562754836
 20
2614.923642681322
 30
0.0
 11
3370.650562754836
 21
2264.923642681321
 31
0.0
  0
LINE
  5
1CF
330
20
100
AcDbEntity
  8
_0-0_
  6
Continuous
 62
     4
100
AcDbLine
 10
3370.650562754836
 20
3764.923642681321
 30
0.0
 11
3380.356276946181
 21
3728.701424195481
 31
0.0
  0
LINE
  5
1D0
330
20
100
AcDbEntity
  8
_0-0_
  6
Continuous
 62
     4
100
AcDbLine
 10
3370.650562754836
 20
3764.923642681321
 30
0.0
 11
3360.944848563491
 21
3728.701424195481
 31
0.0
  0
LINE
  5
1D1
330
20
100
AcDbEntity
  8
_0-0_
  6
Continuous
 62
     4
100
AcDbLine
 10
3370.650562754836
 20
3464.923642681321
 30
0.0
 11
3360.944848563491
 21
3501.145861167162
 31
0.0
  0
LINE
  5
1D2
330
20
100
AcDbEntity
  8
_0-0_
  6
Continuous
 62
     4
100
AcDbLine
 10
3370.650562754836
 20
3464.923642681321
 30
0.0
 11
3380.356276946181
 21
3501.145861167162
 31
0.0
  0
LINE
  5
1D3
330
20
100
AcDbEntity
  8
_0-0_
  6
Continuous
 62
     4
100
AcDbLine
 10
3370.650562754836
 20
3464.923642681321
 30
0.0
 11
3380.356276946181
 21
3428.701424195481
 31
0.0
  0
LINE
  5
1D4
330
20
100
AcDbEntity
  8
_0-0_
  6
Continuous
 62
     4
100
AcDbLine
 10
3370.650562754836
 20
3464.923642681321
 30
0.0
 11
3360.944848563491
 21
3428.701424195481
 31
0.0
  0
LINE
  5
1D5
330
20
100
AcDbEntity
  8
_0-0_
  6
Continuous
 62
     4
100
AcDbLine
 10
3370.650562754836
 20
3264.923642681321
 30
0.0
 11
3360.944848563491
 21
3301.145861167162
 31
0.0
  0
LINE
  5
1D6
330
20
100
AcDbEntity
  8
_0-0_
  6
Continuous
 62
     4
100
AcDbLine
 10
3370.650562754836
 20
3264.923642681321
 30
0.0
 11
3380.356276946181
 21
3301.145861167162
 31
0.0
  0
LINE
  5
1D7
330
20
100
AcDbEntity
  8
_0-0_
  6
Continuous
 62
     4
100
AcDbLine
 10
3370.650562754836
 20
3264.923642681321
 30
0.0
 11
3380.356276946181
 21
3228.701424195481
 31
0.0
  0
LINE
  5
1D8
330
20
100
AcDbEntity
  8
_0-0_
  6
Continuous
 62
     4
100
AcDbLine
 10
3370.650562754836
 20
3264.923642681321
 30
0.0
 11
3360.944848563491
 21
3228.701424195481
 31
0.0
  0
LINE
  5
1D9
330
20
100
AcDbEntity
  8
_0-0_
  6
Continuous
 62
     4
100
AcDbLine
 10
3370.650562754836
 20
3114.923642681321
 30
0.0
 11
3360.944848563491
 21
3151.145861167162
 31
0.0
  0
LINE
  5
1DA
330
20
100
AcDbEntity
  8
_0-0_
  6
Continuous
 62
     4
100
AcDbLine
 10
3370.650562754836
 20
3114.923642681321
 30
0.0
 11
3380.356276946181
 21
3151.145861167162
 31
0.0
  0
LINE
  5
1DB
330
20
100
AcDbEntity
  8
_0-0_
  6
Continuous
 62
     4
100
AcDbLine
 10
3370.650562754836
 20
3114.923642681321
 30
0.0
 11
3380.356276946181
 21
3078.701424195481
 31
0.0
  0
LINE
  5
1DC
330
20
100
AcDbEntity
  8
_0-0_
  6
Continuous
 62
     4
100
AcDbLine
 10
3370.650562754836
 20
3114.923642681321
 30
0.0
 11
3360.944848563491
 21
3078.701424195481
 31
0.0
  0
LINE
  5
1DD
330
20
100
AcDbEntity
  8
_0-0_
  6
Continuous
 62
     4
100
AcDbLine
 10
3370.650562754836
 20
2764.923642681321
 30
0.0
 11
3360.944848563491
 21
2801.145861167162
 31
0.0
  0
LINE
  5
1DE
330
20
100
AcDbEntity
  8
_0-0_
  6
Continuous
 62
     4
100
AcDbLine
 10
3370.650562754836
 20
2764.923642681321
 30
0.0
 11
3380.356276946181
 21
2801.145861167162
 31
0.0
  0
LINE
  5
1DF
330
20
100
AcDbEntity
  8
_0-0_
  6
Continuous
 62
     4
100
AcDbLine
 10
3370.650562754836
 20
2764.923642681321
 30
0.0
 11
3380.356276946181
 21
2728.701424195481
 31
0.0
  0
LINE
  5
1E0
330
20
100
AcDbEntity
  8
_0-0_
  6
Continuous
 62
     4
100
AcDbLine
 10
3370.650562754836
 20
2764.923642681321
 30
0.0
 11
3360.944848563491
 21
2728.701424195481
 31
0.0
  0
LINE
  5
1E1
330
20
100
AcDbEntity
  8
_0-0_
  6
Continuous
 62
     4
100
AcDbLine
 10
3370.650562754836
 20
2614.923642681322
 30
0.0
 11
3360.944848563491
 21
2651.145861167161
 31
0.0
  0
LINE
  5
1E2
330
20
100
AcDbEntity
  8
_0-0_
  6
Continuous
 62
     4
100
AcDbLine
 10
3370.650562754836
 20
2614.923642681322
 30
0.0
 11
3380.356276946181
 21
2651.145861167161
 31
0.0
  0
LINE
  5
1E3
330
20
100
AcDbEntity
  8
_0-0_
  6
Continuous
 62
     4
100
AcDbLine
 10
3370.650562754836
 20
2614.923642681322
 30
0.0
 11
3380.356276946181
 21
2578.701424195481
 31
0.0
  0
LINE
  5
1E4
330
20
100
AcDbEntity
  8
_0-0_
  6
Continuous
 62
     4
100
AcDbLine
 10
3370.650562754836
 20
2614.923642681322
 30
0.0
 11
3360.944848563491
 21
2578.701424195481
 31
0.0
  0
LINE
  5
1E5
330
20
100
AcDbEntity
  8
_0-0_
  6
Continuous
 62
     4
100
AcDbLine
 10
3370.650562754836
 20
2264.923642681321
 30
0.0
 11
3360.944848563491
 21
2301.145861167161
 31
0.0
  0
LINE
  5
1E6
330
20
100
AcDbEntity
  8
_0-0_
  6
Continuous
 62
     4
100
AcDbLine
 10
3370.650562754836
 20
2264.923642681321
 30
0.0
 11
3380.356276946181
 21
2301.145861167161
 31
0.0
  0
LINE
  5
1E7
330
20
100
AcDbEntity
  8
_0-0_
  6
Continuous
 62
     4
100
AcDbLine
 10
3370.650562754836
 20
2264.923642681321
 30
0.0
 11
3380.356276946181
 21
2228.701424195482
 31
0.0
  0
LINE
  5
1E8
330
20
100
AcDbEntity
  8
_0-0_
  6
Continuous
 62
     4
100
AcDbLine
 10
3370.650562754836
 20
2264.923642681321
 30
0.0
 11
3360.944848563491
 21
2228.701424195482
 31
0.0
  0
LINE
  5
1E9
330
20
100
AcDbEntity
  8
_0-0_
  6
Continuous
 62
     4
100
AcDbLine
 10
3370.650562754836
 20
2164.923642681321
 30
0.0
 11
3360.944848563491
 21
2201.145861167161
 31
0.0
  0
LINE
  5
1EA
330
20
100
AcDbEntity
  8
_0-0_
  6
Continuous
 62
     4
100
AcDbLine
 10
3370.650562754836
 20
2164.923642681321
 30
0.0
 11
3380.356276946181
 21
2201.145861167161
 31
0.0
  0
TEXT
  5
1EB
330
20
100
AcDbEntity
  8
_0-0_
 62
     7
100
AcDbText
 10
3359.13380130747
 20
3554.405476369093
 30
0.0
 40
75.0
  1
300
 50
90.0
100
AcDbText
  0
TEXT
  5
1EC
330
20
100
AcDbEntity
  8
_0-0_
 62
     7
100
AcDbText
 10
3457.476609254895
 20
3264.561330934988
 30
0.0
 40
75.0
  1
200
 50
90.0
100
AcDbText
  0
TEXT
  5
1ED
330
20
100
AcDbEntity
  8
_0-0_
 62
     7
100
AcDbText
 10
3356.720889144761
 20
3125.186207266103
 30
0.0
 40
75.0
  1
150
 50
90.0
100
AcDbText
  0
TEXT
  5
1EE
330
20
100
AcDbEntity
  8
_0-0_
 62
     7
100
AcDbText
 10
3357.966723823813
 20
2876.386507341121
 30
0.0
 40
75.0
  1
350
 50
90.0
100
AcDbText
  0
TEXT
  5
1EF
330
20
100
AcDbEntity
  8
_0-0_
 62
     7
100
AcDbText
 10
3357.966723823813
 20
2628.382542064088
 30
0.0
 40
75.0
  1
150
 50
90.0
100
AcDbText
  0
TEXT
  5
1F0
330
20
100
AcDbEntity
  8
_0-0_
 62
     7
100
AcDbText
 10
3359.823438002358
 20
2376.200969885329
 30
0.0
 40
75.0
  1
350
 50
90.0
100
AcDbText
  0
TEXT
  5
1F1
330
20
100
AcDbEntity
  8
_0-0_
 62
     7
100
AcDbText
 10
3465.921391062052
 20
2153.395268459972
 30
0.0
 40
75.0
  1
100
 50
90.0
100
AcDbText
  0
TEXT
  5
1F2
330
20
100
AcDbEntity
  8
_0-0_
 62
     7
100
AcDbText
 10
3554.083163648055
 20
2972.902154109956
 30
0.0
 40
87.5
  1
BH-500
 41
0.6700000000000001
100
AcDbText
  0
TEXT
  5
1F3
330
20
100
AcDbEntity
  8
_0-0_
 62
     7
100
AcDbText
 10
3554.083163648055
 20
2472.119815668203
 30
0.0
 40
87.5
  1
BH-500
 41
0.6700000000000001
100
AcDbText
  0
TEXT
  5
1F4
330
20
100
AcDbEntity
  8
_0-0_
 62
     7
100
AcDbText
 10
3553.792784673703
 20
1742.073918537238
 30
0.0
 40
87.5
  1
B1-800
 41
0.6700000000000001
100
AcDbText
  0
TEXT
  5
1F5
330
20
100
AcDbEntity
  8
_0-0_
 62
     7
100
AcDbText
 10
3554.083163648055
 20
3655.310925945772
 30
0.0
 40
87.5
  1
B2-700
 41
0.6700000000000001
100
AcDbText
  0
TEXT
  5
1F6
330
20
100
AcDbEntity
  8
_0-0_
 62
     7
100
AcDbText
 10
3554.083163648055
 20
4139.382836780623
 30
0.0
 40
87.5
  1
CR-600
 41
0.6700000000000001
100
AcDbText
  0
LINE
  5
1F7
330
20
100
AcDbEntity
  8
_0-0_
  6
Continuous
 62
     7
100
AcDbLine
 10
3525.650562754836
 20
4244.924014430199
 30
0.0
 11
3875.650562754836
 21
4244.924014430199
 31
0.0
  0
LINE
  5
1F8
330
20
100
AcDbEntity
  8
_0-0_
  6
Continuous
 62
     7
100
AcDbLine
 10
3525.650562754836
 20
4244.924014430199
 30
0.0
 11
3425.650562754836
 21
4184.924014430197
 31
0.0
  0
LINE
  5
1F9
330
20
100
AcDbEntity
  8
_0-0_
  6
Continuous
 62
     7
100
AcDbLine
 10
3425.650562754836
 20
4184.924014430197
 30
0.0
 11
3525.650562754836
 21
4124.924014430198
 31
0.0
  0
LINE
  5
1FA
330
20
100
AcDbEntity
  8
_0-0_
  6
Continuous
 62
     7
100
AcDbLine
 10
3525.650562754836
 20
4124.924014430198
 30
0.0
 11
3875.650562754836
 21
4124.924014430198
 31
0.0
  0
LINE
  5
1FB
330
20
100
AcDbEntity
  8
_0-0_
  6
Continuous
 62
     7
100
AcDbLine
 10
3875.650562754836
 20
4244.924014430199
 30
0.0
 11
3875.650562754836
 21
4124.924014430198
 31
0.0
  0
LINE
  5
1FC
330
20
100
AcDbEntity
  8
_0-0_
  6
Continuous
 62
     7
100
AcDbLine
 10
3525.650562754836
 20
3759.92379468007
 30
0.0
 11
3875.650562754836
 21
3759.92379468007
 31
0.0
  0
LINE
  5
1FD
330
20
100
AcDbEntity
  8
_0-0_
  6
Continuous
 62
     7
100
AcDbLine
 10
3525.650562754836
 20
3759.92379468007
 30
0.0
 11
3425.650562754836
 21
3699.92379468007
 31
0.0
  0
LINE
  5
1FE
330
20
100
AcDbEntity
  8
_0-0_
  6
Continuous
 62
     7
100
AcDbLine
 10
3425.650562754836
 20
3699.92379468007
 30
0.0
 11
3525.650562754836
 21
3639.92379468007
 31
0.0
  0
LINE
  5
1FF
330
20
100
AcDbEntity
  8
_0-0_
  6
Continuous
 62
     7
100
AcDbLine
 10
3525.650562754836
 20
3639.92379468007
 30
0.0
 11
3875.650562754836
 21
3639.92379468007
 31
0.0
  0
LINE
  5
200
330
20
100
AcDbEntity
  8
_0-0_
  6
Continuous
 62
     7
100
AcDbLine
 10
3875.650562754836
 20
3759.92379468007
 30
0.0
 11
3875.650562754836
 21
3639.92379468007
 31
0.0
  0
LINE
  5
201
330
20
100
AcDbEntity
  8
_0-0_
  6
Continuous
 62
     7
100
AcDbLine
 10
3525.650562754836
 20
2954.923653875028
 30
0.0
 11
3875.650562754836
 21
2954.923653875028
 31
0.0
  0
LINE
  5
202
330
20
100
AcDbEntity
  8
_0-0_
  6
Continuous
 62
     7
100
AcDbLine
 10
3425.650562754836
 20
3014.923653875028
 30
0.0
 11
3525.650562754836
 21
2954.923653875028
 31
0.0
  0
LINE
  5
203
330
20
100
AcDbEntity
  8
_0-0_
  6
Continuous
 62
     7
100
AcDbLine
 10
3525.650562754836
 20
3074.923653875027
 30
0.0
 11
3425.650562754836
 21
3014.923653875028
 31
0.0
  0
LINE
  5
204
330
20
100
AcDbEntity
  8
_0-0_
  6
Continuous
 62
     7
100
AcDbLine
 10
3525.650562754836
 20
3074.923653875027
 30
0.0
 11
3875.650562754836
 21
3074.923653875027
 31
0.0
  0
LINE
  5
205
330
20
100
AcDbEntity
  8
_0-0_
  6
Continuous
 62
     7
100
AcDbLine
 10
3875.650562754836
 20
3074.923653875027
 30
0.0
 11
3875.650562754836
 21
2954.923653875028
 31
0.0
  0
LINE
  5
206
330
20
100
AcDbEntity
  8
_0-0_
  6
Continuous
 62
     7
100
AcDbLine
 10
3525.650562754836
 20
2574.923665068733
 30
0.0
 11
3875.650562754836
 21
2574.923665068733
 31
0.0
  0
LINE
  5
207
330
20
100
AcDbEntity
  8
_0-0_
  6
Continuous
 62
     7
100
AcDbLine
 10
3525.650562754836
 20
2574.923665068733
 30
0.0
 11
3425.650562754836
 21
2514.923665068734
 31
0.0
  0
LINE
  5
208
330
20
100
AcDbEntity
  8
_0-0_
  6
Continuous
 62
     7
100
AcDbLine
 10
3425.650562754836
 20
2514.923665068734
 30
0.0
 11
3525.650562754836
 21
2454.923665068734
 31
0.0
  0
LINE
  5
209
330
20
100
AcDbEntity
  8
_0-0_
  6
Continuous
 62
     7
100
AcDbLine
 10
3525.650562754836
 20
2454.923665068734
 30
0.0
 11
3875.650562754836
 21
2454.923665068734
 31
0.0
  0
LINE
  5
20A
330
20
100
AcDbEntity
  8
_0-0_
  6
Continuous
 62
     7
100
AcDbLine
 10
3875.650562754836
 20
2574.923665068733
 30
0.0
 11
3875.650562754836
 21
2454.923665068734
 31
0.0
  0
LINE
  5
20B
330
20
100
AcDbEntity
  8
_0-0_
  6
Continuous
 62
     7
100
AcDbLine
 10
3525.650562754836
 20
1844.923583325221
 30
0.0
 11
3875.650562754836
 21
1844.923583325221
 31
0.0
  0
LINE
  5
20C
330
20
100
AcDbEntity
  8
_0-0_
  6
Continuous
 62
     7
100
AcDbLine
 10
3525.650562754836
 20
1724.92358332522
 30
0.0
 11
3875.650562754836
 21
1724.92358332522
 31
0.0
  0
LINE
  5
20D
330
20
100
AcDbEntity
  8
_0-0_
  6
Continuous
 62
     7
100
AcDbLine
 10
3425.650562754836
 20
1784.923583325221
 30
0.0
 11
3525.650562754836
 21
1724.92358332522
 31
0.0
  0
LINE
  5
20E
330
20
100
AcDbEntity
  8
_0-0_
  6
Continuous
 62
     7
100
AcDbLine
 10
3525.650562754836
 20
1844.923583325221
 30
0.0
 11
3425.650562754836
 21
1784.923583325221
 31
0.0
  0
LINE
  5
20F
330
20
100
AcDbEntity
  8
_0-0_
  6
Continuous
 62
     7
100
AcDbLine
 10
3875.650562754836
 20
1844.923583325221
 30
0.0
 11
3875.650562754836
 21
1724.92358332522
 31
0.0
  0
LINE
  5
210
330
20
100
AcDbEntity
  8
_0-0_
  6
Continuous
 62
     4
100
AcDbLine
 10
2350.651107122445
 20
4619.924082181578
 30
0.0
 11
1480.652640365632
 21
4619.924082181578
 31
0.0
  0
LINE
  5
211
330
20
100
AcDbEntity
  8
_0-0_
  6
Continuous
 62
     4
100
AcDbLine
 10
1480.652640365632
 20
4259.924082181577
 30
0.0
 11
1480.652640365632
 21
4639.924082181577
 31
0.0
  0
LINE
  5
212
330
20
100
AcDbEntity
  8
_0-0_
  6
Continuous
 62
     4
100
AcDbLine
 10
2350.651107122445
 20
4259.924082181577
 30
0.0
 11
2350.651107122445
 21
4639.924082181577
 31
0.0
  0
LINE
  5
213
330
20
100
AcDbEntity
  8
_0-0_
  6
Continuous
 62
     4
100
AcDbLine
 10
1615.652640365632
 20
4259.924082181577
 30
0.0
 11
1615.652640365632
 21
4449.924082181577
 31
0.0
  0
LINE
  5
214
330
20
100
AcDbEntity
  8
_0-0_
  6
Continuous
 62
     4
100
AcDbLine
 10
2215.651107122445
 20
4259.924082181577
 30
0.0
 11
2215.651107122445
 21
4449.924082181577
 31
0.0
  0
LINE
  5
215
330
20
100
AcDbEntity
  8
_0-0_
  6
Continuous
 62
     4
100
AcDbLine
 10
2350.651107122445
 20
4429.924082181577
 30
0.0
 11
2215.651107122445
 21
4429.924082181577
 31
0.0
  0
LINE
  5
216
330
20
100
AcDbEntity
  8
_0-0_
  6
Continuous
 62
     4
100
AcDbLine
 10
1615.652640365632
 20
4429.924082181577
 30
0.0
 11
1480.652640365632
 21
4429.924082181577
 31
0.0
  0
LINE
  5
217
330
20
100
AcDbEntity
  8
_0-0_
  6
Continuous
 62
     4
100
AcDbLine
 10
2215.651107122445
 20
4429.924082181577
 30
0.0
 11
1615.652640365632
 21
4429.924082181577
 31
0.0
  0
LINE
  5
218
330
20
100
AcDbEntity
  8
_0-0_
  6
Continuous
 62
     4
100
AcDbLine
 10
2350.651107122445
 20
4619.924082181578
 30
0.0
 11
2314.428888636605
 21
4610.218367990233
 31
0.0
  0
LINE
  5
219
330
20
100
AcDbEntity
  8
_0-0_
  6
Continuous
 62
     4
100
AcDbLine
 10
2350.651107122445
 20
4619.924082181578
 30
0.0
 11
2314.428888636605
 21
4629.62979637292
 31
0.0
  0
LINE
  5
21A
330
20
100
AcDbEntity
  8
_0-0_
  6
Continuous
 62
     4
100
AcDbLine
 10
1480.652640365632
 20
4619.924082181578
 30
0.0
 11
1516.874858851472
 21
4629.62979637292
 31
0.0
  0
LINE
  5
21B
330
20
100
AcDbEntity
  8
_0-0_
  6
Continuous
 62
     4
100
AcDbLine
 10
1480.652640365632
 20
4619.924082181578
 30
0.0
 11
1516.874858851472
 21
4610.218367990233
 31
0.0
  0
LINE
  5
21C
330
20
100
AcDbEntity
  8
_0-0_
  6
Continuous
 62
     4
100
AcDbLine
 10
1480.652640365632
 20
4429.924082181577
 30
0.0
 11
1516.874858851472
 21
4439.629796372922
 31
0.0
  0
LINE
  5
21D
330
20
100
AcDbEntity
  8
_0-0_
  6
Continuous
 62
     4
100
AcDbLine
 10
1480.652640365632
 20
4429.924082181577
 30
0.0
 11
1516.874858851472
 21
4420.218367990234
 31
0.0
  0
LINE
  5
21E
330
20
100
AcDbEntity
  8
_0-0_
  6
Continuous
 62
     4
100
AcDbLine
 10
1615.652640365632
 20
4429.924082181577
 30
0.0
 11
1579.430421879792
 21
4420.218367990234
 31
0.0
  0
LINE
  5
21F
330
20
100
AcDbEntity
  8
_0-0_
  6
Continuous
 62
     4
100
AcDbLine
 10
1615.652640365632
 20
4429.924082181577
 30
0.0
 11
1579.430421879792
 21
4439.629796372922
 31
0.0
  0
LINE
  5
220
330
20
100
AcDbEntity
  8
_0-0_
  6
Continuous
 62
     4
100
AcDbLine
 10
1615.652640365632
 20
4429.924082181577
 30
0.0
 11
1651.874858851472
 21
4439.629796372922
 31
0.0
  0
LINE
  5
221
330
20
100
AcDbEntity
  8
_0-0_
  6
Continuous
 62
     4
100
AcDbLine
 10
1615.652640365632
 20
4429.924082181577
 30
0.0
 11
1651.874858851472
 21
4420.218367990234
 31
0.0
  0
LINE
  5
222
330
20
100
AcDbEntity
  8
_0-0_
  6
Continuous
 62
     4
100
AcDbLine
 10
2215.651107122445
 20
4429.924082181577
 30
0.0
 11
2179.428888636605
 21
4420.218367990234
 31
0.0
  0
LINE
  5
223
330
20
100
AcDbEntity
  8
_0-0_
  6
Continuous
 62
     4
100
AcDbLine
 10
2215.651107122445
 20
4429.924082181577
 30
0.0
 11
2179.428888636605
 21
4439.629796372922
 31
0.0
  0
LINE
  5
224
330
20
100
AcDbEntity
  8
_0-0_
  6
Continuous
 62
     4
100
AcDbLine
 10
2215.651107122445
 20
4429.924082181577
 30
0.0
 11
2251.873325608285
 21
4439.629796372922
 31
0.0
  0
LINE
  5
225
330
20
100
AcDbEntity
  8
_0-0_
  6
Continuous
 62
     4
100
AcDbLine
 10
2215.651107122445
 20
4429.924082181577
 30
0.0
 11
2251.873325608285
 21
4420.218367990234
 31
0.0
  0
LINE
  5
226
330
20
100
AcDbEntity
  8
_0-0_
  6
Continuous
 62
     4
100
AcDbLine
 10
2350.651107122445
 20
4429.924082181577
 30
0.0
 11
2314.428888636605
 21
4420.218367990234
 31
0.0
  0
LINE
  5
227
330
20
100
AcDbEntity
  8
_0-0_
  6
Continuous
 62
     4
100
AcDbLine
 10
2350.651107122445
 20
4429.924082181577
 30
0.0
 11
2314.428888636605
 21
4439.629796372922
 31
0.0
  0
TEXT
  5
228
330
20
100
AcDbEntity
  8
_0-0_
 62
     7
100
AcDbText
 10
1755.419357813301
 20
4444.258146807108
 30
0.0
 40
75.0
  1
φ600
100
AcDbText
  0
TEXT
  5
229
330
20
100
AcDbEntity
  8
_0-0_
 62
     7
100
AcDbText
 10
1810.372778143516
 20
4638.559496379197
 30
0.0
 40
75.0
  1
φ870
100
AcDbText
  0
TEXT
  5
22A
330
20
100
AcDbEntity
  8
_0-0_
 62
     7
100
AcDbText
 10
2162.352372954842
 20
4440.592083607636
 30
0.0
 40
75.0
  1
135
100
AcDbText
  0
TEXT
  5
22B
330
20
100
AcDbEntity
  8
_0-0_
 62
     7
100
AcDbText
 10
1485.926184990125
 20
4442.425115207373
 30
0.0
 40
75.0
  1
135
100
AcDbText
  0
LINE
  5
22C
330
20
100
AcDbEntity
  8
_0-0_
  6
Continuous
 62
     4
100
AcDbLine
 10
3175.650562754836
 20
539.9235015817083
 30
0.0
 11
1435.651442049919
 21
539.9235015817083
 31
0.0
  0
LINE
  5
22D
330
20
100
AcDbEntity
  8
_0-0_
  6
Continuous
 62
     4
100
AcDbLine
 10
1435.65144204992
 20
1279.923501581708
 30
0.0
 11
1435.65144204992
 21
519.9235015817085
 31
0.0
  0
LINE
  5
22E
330
20
100
AcDbEntity
  8
_0-0_
  6
Continuous
 62
     4
100
AcDbLine
 10
3175.650562754836
 20
1279.923501581708
 30
0.0
 11
3175.650562754836
 21
519.9235015817085
 31
0.0
  0
LINE
  5
22F
330
20
100
AcDbEntity
  8
_0-0_
  6
Continuous
 62
     4
100
AcDbLine
 10
2955.651664451189
 20
919.923501581708
 30
0.0
 11
1655.651302717734
 21
919.923501581708
 31
0.0
  0
LINE
  5
230
330
20
100
AcDbEntity
  8
_0-0_
  6
Continuous
 62
     4
100
AcDbLine
 10
1655.651302717734
 20
1279.923501581708
 30
0.0
 11
1655.651302717734
 21
899.9235015817079
 31
0.0
  0
LINE
  5
231
330
20
100
AcDbEntity
  8
_0-0_
  6
Continuous
 62
     4
100
AcDbLine
 10
2955.651664451189
 20
1279.923501581708
 30
0.0
 11
2955.651664451189
 21
899.9235015817079
 31
0.0
  0
LINE
  5
232
330
20
100
AcDbEntity
  8
_0-0_
  6
Continuous
 62
     4
100
AcDbLine
 10
2195.651334531426
 20
1456.788154178553
 30
0.0
 11
2195.651334531426
 21
1456.381048315039
 31
0.0
  0
LINE
  5
233
330
20
100
AcDbEntity
  8
_0-0_
  6
Continuous
 62
     4
100
AcDbLine
 10
2415.523522513141
 20
1279.923501581708
 30
0.0
 11
2415.523522513141
 21
1089.923501581708
 31
0.0
  0
LINE
  5
234
330
20
100
AcDbEntity
  8
_0-0_
  6
Continuous
 62
     4
100
AcDbLine
 10
2405.651444111919
 20
1279.923501581708
 30
0.0
 11
2405.651444111919
 21
1089.923501581708
 31
0.0
  0
LINE
  5
235
330
20
100
AcDbEntity
  8
_0-0_
  6
Continuous
 62
     4
100
AcDbLine
 10
2205.651523057005
 20
1279.923501581708
 30
0.0
 11
2205.651523057005
 21
1089.923501581708
 31
0.0
  0
LINE
  5
236
330
20
100
AcDbEntity
  8
_0-0_
  6
Continuous
 62
     4
100
AcDbLine
 10
2195.651334531426
 20
1279.923501581708
 30
0.0
 11
2195.651334531426
 21
1089.923501581708
 31
0.0
  0
LINE
  5
237
330
20
100
AcDbEntity
  8
_0-0_
  6
Continuous
 62
     4
100
AcDbLine
 10
2195.651334531426
 20
1109.923501581708
 30
0.0
 11
2115.651334531425
 21
1109.923501581708
 31
0.0
  0
LINE
  5
238
330
20
100
AcDbEntity
  8
_0-0_
  6
Continuous
 62
     4
100
AcDbLine
 10
2495.523522513142
 20
1109.923501581708
 30
0.0
 11
2415.523522513141
 21
1109.923501581708
 31
0.0
  0
LINE
  5
239
330
20
100
AcDbEntity
  8
_0-0_
  6
Continuous
 62
     4
100
AcDbLine
 10
2405.651444111919
 20
1109.923501581708
 30
0.0
 11
2205.651523057005
 21
1109.923501581708
 31
0.0
  0
LINE
  5
23A
330
20
100
AcDbEntity
  8
_0-0_
  6
Continuous
 62
     4
100
AcDbLine
 10
2205.651523057005
 20
1109.923501581708
 30
0.0
 11
2195.651334531426
 21
1109.923501581708
 31
0.0
  0
LINE
  5
23B
330
20
100
AcDbEntity
  8
_0-0_
  6
Continuous
 62
     4
100
AcDbLine
 10
2415.523522513141
 20
1109.923501581708
 30
0.0
 11
2405.651444111919
 21
1109.923501581708
 31
0.0
  0
LINE
  5
23C
330
20
100
AcDbEntity
  8
_0-0_
  6
Continuous
 62
     4
100
AcDbLine
 10
1555.65144204992
 20
1279.923501581708
 30
0.0
 11
1555.65144204992
 21
709.9235015817082
 31
0.0
  0
LINE
  5
23D
330
20
100
AcDbEntity
  8
_0-0_
  6
Continuous
 62
     4
100
AcDbLine
 10
3055.650562754836
 20
1279.923501581708
 30
0.0
 11
3055.650562754836
 21
709.9235015817082
 31
0.0
  0
LINE
  5
23E
330
20
100
AcDbEntity
  8
_0-0_
  6
Continuous
 62
     4
100
AcDbLine
 10
3175.650562754836
 20
729.923501581708
 30
0.0
 11
3055.650562754836
 21
729.923501581708
 31
0.0
  0
LINE
  5
23F
330
20
100
AcDbEntity
  8
_0-0_
  6
Continuous
 62
     4
100
AcDbLine
 10
1555.65144204992
 20
729.923501581708
 30
0.0
 11
1435.651442049919
 21
729.923501581708
 31
0.0
  0
LINE
  5
240
330
20
100
AcDbEntity
  8
_0-0_
  6
Continuous
 62
     4
100
AcDbLine
 10
3055.650562754836
 20
729.923501581708
 30
0.0
 11
1555.65144204992
 21
729.923501581708
 31
0.0
  0
LINE
  5
241
330
20
100
AcDbEntity
  8
_0-0_
  6
Continuous
 62
     4
100
AcDbLine
 10
2415.523522513141
 20
1109.923501581708
 30
0.0
 11
2451.745740998982
 21
1119.629215773053
 31
0.0
  0
LINE
  5
242
330
20
100
AcDbEntity
  8
_0-0_
  6
Continuous
 62
     4
100
AcDbLine
 10
2415.523522513141
 20
1109.923501581708
 30
0.0
 11
2451.745740998982
 21
1100.217787390363
 31
0.0
  0
LINE
  5
243
330
20
100
AcDbEntity
  8
_0-0_
  6
Continuous
 62
     4
100
AcDbLine
 10
2405.651444111919
 20
1109.923501581708
 30
0.0
 11
2369.429225626078
 21
1100.217787390363
 31
0.0
  0
LINE
  5
244
330
20
100
AcDbEntity
  8
_0-0_
  6
Continuous
 62
     4
100
AcDbLine
 10
2405.651444111919
 20
1109.923501581708
 30
0.0
 11
2369.429225626078
 21
1119.629215773053
 31
0.0
  0
LINE
  5
245
330
20
100
AcDbEntity
  8
_0-0_
  6
Continuous
 62
     4
100
AcDbLine
 10
2205.651523057005
 20
1109.923501581708
 30
0.0
 11
2241.873741542844
 21
1119.629215773053
 31
0.0
  0
LINE
  5
246
330
20
100
AcDbEntity
  8
_0-0_
  6
Continuous
 62
     4
100
AcDbLine
 10
2205.651523057005
 20
1109.923501581708
 30
0.0
 11
2241.873741542844
 21
1100.217787390363
 31
0.0
  0
LINE
  5
247
330
20
100
AcDbEntity
  8
_0-0_
  6
Continuous
 62
     4
100
AcDbLine
 10
2195.651334531426
 20
1109.923501581708
 30
0.0
 11
2159.429116045586
 21
1100.217787390363
 31
0.0
  0
LINE
  5
248
330
20
100
AcDbEntity
  8
_0-0_
  6
Continuous
 62
     4
100
AcDbLine
 10
2195.651334531426
 20
1109.923501581708
 30
0.0
 11
2159.429116045586
 21
1119.629215773053
 31
0.0
  0
LINE
  5
249
330
20
100
AcDbEntity
  8
_0-0_
  6
Continuous
 62
     4
100
AcDbLine
 10
1655.651302717734
 20
919.923501581708
 30
0.0
 11
1691.873521203573
 21
929.6292157730528
 31
0.0
  0
LINE
  5
24A
330
20
100
AcDbEntity
  8
_0-0_
  6
Continuous
 62
     4
100
AcDbLine
 10
1655.651302717734
 20
919.923501581708
 30
0.0
 11
1691.873521203573
 21
910.2177873903633
 31
0.0
  0
LINE
  5
24B
330
20
100
AcDbEntity
  8
_0-0_
  6
Continuous
 62
     4
100
AcDbLine
 10
2955.651664451189
 20
919.923501581708
 30
0.0
 11
2919.429445965349
 21
910.2177873903633
 31
0.0
  0
LINE
  5
24C
330
20
100
AcDbEntity
  8
_0-0_
  6
Continuous
 62
     4
100
AcDbLine
 10
2955.651664451189
 20
919.923501581708
 30
0.0
 11
2919.429445965349
 21
929.6292157730528
 31
0.0
  0
LINE
  5
24D
330
20
100
AcDbEntity
  8
_0-0_
  6
Continuous
 62
     4
100
AcDbLine
 10
3055.650562754836
 20
729.923501581708
 30
0.0
 11
3019.428344268996
 21
720.2177873903636
 31
0.0
  0
LINE
  5
24E
330
20
100
AcDbEntity
  8
_0-0_
  6
Continuous
 62
     4
100
AcDbLine
 10
3055.650562754836
 20
729.923501581708
 30
0.0
 11
3019.428344268996
 21
739.6292157730528
 31
0.0
  0
LINE
  5
24F
330
20
100
AcDbEntity
  8
_0-0_
  6
Continuous
 62
     4
100
AcDbLine
 10
3055.650562754836
 20
729.923501581708
 30
0.0
 11
3091.872781240676
 21
739.6292157730528
 31
0.0
  0
LINE
  5
250
330
20
100
AcDbEntity
  8
_0-0_
  6
Continuous
 62
     4
100
AcDbLine
 10
3055.650562754836
 20
729.923501581708
 30
0.0
 11
3091.872781240676
 21
720.2177873903636
 31
0.0
  0
LINE
  5
251
330
20
100
AcDbEntity
  8
_0-0_
  6
Continuous
 62
     4
100
AcDbLine
 10
3175.650562754836
 20
729.923501581708
 30
0.0
 11
3139.428344268996
 21
720.2177873903636
 31
0.0
  0
LINE
  5
252
330
20
100
AcDbEntity
  8
_0-0_
  6
Continuous
 62
     4
100
AcDbLine
 10
3175.650562754836
 20
729.923501581708
 30
0.0
 11
3139.428344268996
 21
739.6292157730528
 31
0.0
  0
LINE
  5
253
330
20
100
AcDbEntity
  8
_0-0_
  6
Continuous
 62
     4
100
AcDbLine
 10
3175.650562754836
 20
539.9235015817083
 30
0.0
 11
3139.428344268996
 21
530.2177873903637
 31
0.0
  0
LINE
  5
254
330
20
100
AcDbEntity
  8
_0-0_
  6
Continuous
 62
     4
100
AcDbLine
 10
3175.650562754836
 20
539.9235015817083
 30
0.0
 11
3139.428344268996
 21
549.6292157730529
 31
0.0
  0
LINE
  5
255
330
20
100
AcDbEntity
  8
_0-0_
  6
Continuous
 62
     4
100
AcDbLine
 10
1555.65144204992
 20
729.923501581708
 30
0.0
 11
1591.87366053576
 21
739.6292157730528
 31
0.0
  0
LINE
  5
256
330
20
100
AcDbEntity
  8
_0-0_
  6
Continuous
 62
     4
100
AcDbLine
 10
1555.65144204992
 20
729.923501581708
 30
0.0
 11
1591.87366053576
 21
720.2177873903636
 31
0.0
  0
LINE
  5
257
330
20
100
AcDbEntity
  8
_0-0_
  6
Continuous
 62
     4
100
AcDbLine
 10
1555.65144204992
 20
729.923501581708
 30
0.0
 11
1519.42922356408
 21
720.2177873903636
 31
0.0
  0
LINE
  5
258
330
20
100
AcDbEntity
  8
_0-0_
  6
Continuous
 62
     4
100
AcDbLine
 10
1555.65144204992
 20
729.923501581708
 30
0.0
 11
1519.42922356408
 21
739.6292157730528
 31
0.0
  0
LINE
  5
259
330
20
100
AcDbEntity
  8
_0-0_
  6
Continuous
 62
     4
100
AcDbLine
 10
1435.651442049919
 20
729.923501581708
 30
0.0
 11
1471.87366053576
 21
739.6292157730528
 31
0.0
  0
LINE
  5
25A
330
20
100
AcDbEntity
  8
_0-0_
  6
Continuous
 62
     4
100
AcDbLine
 10
1435.651442049919
 20
729.923501581708
 30
0.0
 11
1471.87366053576
 21
720.2177873903636
 31
0.0
  0
LINE
  5
25B
330
20
100
AcDbEntity
  8
_0-0_
  6
Continuous
 62
     4
100
AcDbLine
 10
1435.651442049919
 20
539.9235015817083
 30
0.0
 11
1471.87366053576
 21
549.6292157730529
 31
0.0
  0
LINE
  5
25C
330
20
100
AcDbEntity
  8
_0-0_
  6
Continuous
 62
     4
100
AcDbLine
 10
1435.651442049919
 20
539.9235015817083
 30
0.0
 11
1471.87366053576
 21
530.2177873903637
 31
0.0
  0
TEXT
  5
25D
330
20
100
AcDbEntity
  8
_0-0_
 62
     7
100
AcDbText
 10
2196.585155558151
 20
1122.02556317157
 30
0.0
 40
75.0
  1
φ200
 41
0.75
100
AcDbText
  0
TEXT
  5
25E
330
20
100
AcDbEntity
  8
_0-0_
 62
     7
100
AcDbText
 10
2427.537359364529
 20
1120.248116876157
 30
0.0
 40
75.0
  1
10
100
AcDbText
  0
TEXT
  5
25F
330
20
100
AcDbEntity
  8
_0-0_
 62
     7
100
AcDbText
 10
2103.153410451856
 20
1122.02556317157
 30
0.0
 40
75.0
  1
10
100
AcDbText
  0
TEXT
  5
260
330
20
100
AcDbEntity
  8
_0-0_
 62
     7
100
AcDbText
 10
2220.464865949042
 20
930.9500864147903
 30
0.0
 40
75.0
  1
1300
100
AcDbText
  0
TEXT
  5
261
330
20
100
AcDbEntity
  8
_0-0_
 62
     7
100
AcDbText
 10
2220.075050701863
 20
739.4253434984818
 30
0.0
 40
75.0
  1
1500
100
AcDbText
  0
TEXT
  5
262
330
20
100
AcDbEntity
  8
_0-0_
 62
     7
100
AcDbText
 10
2221.208376690947
 20
550.1599033213704
 30
0.0
 40
75.0
  1
1740
100
AcDbText
  0
TEXT
  5
263
330
20
100
AcDbEntity
  8
_0-0_
 62
     7
100
AcDbText
 10
1432.455658557497
 20
740.57469724574
 30
0.0
 40
75.0
  1
120
100
AcDbText
  0
TEXT
  5
264
330
20
100
AcDbEntity
  8
_0-0_
 62
     7
100
AcDbText
 10
3049.468036652021
 20
740.8664666166544
 30
0.0
 40
75.0
  1
120
100
AcDbText
  0
LINE
  5
265
330
20
100
AcDbEntity
  8
_0-0_
  6
Continuous
 62
     4
100
AcDbLine
 10
670.6521419511329
 20
4234.924244170432
 30
0.0
 11
670.6521419511329
 21
1304.923501581708
 31
0.0
  0
LINE
  5
266
330
20
100
AcDbEntity
  8
_0-0_
  6
Continuous
 62
     4
100
AcDbLine
 10
1410.652141951132
 20
1304.923501581708
 30
0.0
 11
650.6521419511329
 21
1304.923501581708
 31
0.0
  0
LINE
  5
267
330
20
100
AcDbEntity
  8
_0-0_
  6
Continuous
 62
     4
100
AcDbLine
 10
1410.652141951132
 20
4134.924244170433
 30
0.0
 11
840.6521419511328
 21
4134.924244170433
 31
0.0
  0
LINE
  5
268
330
20
100
AcDbEntity
  8
_0-0_
  6
Continuous
 62
     4
100
AcDbLine
 10
1410.652141951132
 20
3964.924244170433
 30
0.0
 11
840.6521419511328
 21
3964.924244170433
 31
0.0
  0
LINE
  5
269
330
20
100
AcDbEntity
  8
_0-0_
  6
Continuous
 62
     4
100
AcDbLine
 10
1410.652141951132
 20
1464.923501581708
 30
0.0
 11
840.6521419511328
 21
1464.923501581708
 31
0.0
  0
LINE
  5
26A
330
20
100
AcDbEntity
  8
_0-0_
  6
Continuous
 62
     4
100
AcDbLine
 10
1410.652141951132
 20
3264.924244170433
 30
0.0
 11
1030.652141951132
 21
3264.924244170433
 31
0.0
  0
LINE
  5
26B
330
20
100
AcDbEntity
  8
_0-0_
  6
Continuous
 62
     4
100
AcDbLine
 10
1410.652141951132
 20
2764.924244170433
 30
0.0
 11
1030.652141951132
 21
2764.924244170433
 31
0.0
  0
LINE
  5
26C
330
20
100
AcDbEntity
  8
_0-0_
  6
Continuous
 62
     4
100
AcDbLine
 10
1410.652141951132
 20
2264.924244170433
 30
0.0
 11
1030.652141951132
 21
2264.924244170433
 31
0.0
  0
LINE
  5
26D
330
20
100
AcDbEntity
  8
_0-0_
  6
Continuous
 62
     4
100
AcDbLine
 10
1410.652141951132
 20
2084.924244170433
 30
0.0
 11
1220.652141951132
 21
2084.924244170433
 31
0.0
  0
LINE
  5
26E
330
20
100
AcDbEntity
  8
_0-0_
  6
Continuous
 62
     4
100
AcDbLine
 10
1410.652141951132
 20
1534.924244170433
 30
0.0
 11
1220.652141951132
 21
1534.924244170433
 31
0.0
  0
LINE
  5
26F
330
20
100
AcDbEntity
  8
_0-0_
  6
Continuous
 62
     4
100
AcDbLine
 10
1240.652141951132
 20
2084.924244170433
 30
0.0
 11
1240.652141951132
 21
1534.924244170433
 31
0.0
  0
LINE
  5
270
330
20
100
AcDbEntity
  8
_0-0_
  6
Continuous
 62
     4
100
AcDbLine
 10
1240.652141951132
 20
2264.924244170433
 30
0.0
 11
1240.652141951132
 21
2084.924244170433
 31
0.0
  0
LINE
  5
271
330
20
100
AcDbEntity
  8
_0-0_
  6
Continuous
 62
     4
100
AcDbLine
 10
1050.652141951132
 20
3964.924244170433
 30
0.0
 11
1050.652141951132
 21
3264.924244170433
 31
0.0
  0
LINE
  5
272
330
20
100
AcDbEntity
  8
_0-0_
  6
Continuous
 62
     4
100
AcDbLine
 10
1050.652141951132
 20
2764.924244170433
 30
0.0
 11
1050.652141951132
 21
2264.924244170433
 31
0.0
  0
LINE
  5
273
330
20
100
AcDbEntity
  8
_0-0_
  6
Continuous
 62
     4
100
AcDbLine
 10
1050.652141951132
 20
3264.924244170433
 30
0.0
 11
1050.652141951132
 21
2764.924244170433
 31
0.0
  0
LINE
  5
274
330
20
100
AcDbEntity
  8
_0-0_
  6
Continuous
 62
     4
100
AcDbLine
 10
1050.652141951132
 20
2264.924244170433
 30
0.0
 11
1050.652141951132
 21
1464.923501581708
 31
0.0
  0
LINE
  5
275
330
20
100
AcDbEntity
  8
_0-0_
  6
Continuous
 62
     4
100
AcDbLine
 10
860.6521419511325
 20
1464.923501581708
 30
0.0
 11
860.6521419511325
 21
1304.923501581708
 31
0.0
  0
LINE
  5
276
330
20
100
AcDbEntity
  8
_0-0_
  6
Continuous
 62
     4
100
AcDbLine
 10
860.6521419511325
 20
3964.924244170433
 30
0.0
 11
860.6521419511325
 21
1464.923501581708
 31
0.0
  0
LINE
  5
277
330
20
100
AcDbEntity
  8
_0-0_
  6
Continuous
 62
     4
100
AcDbLine
 10
860.6521419511325
 20
4234.924244170432
 30
0.0
 11
860.6521419511325
 21
4134.924244170433
 31
0.0
  0
LINE
  5
278
330
20
100
AcDbEntity
  8
_0-0_
  6
Continuous
 62
     4
100
AcDbLine
 10
860.6521419511325
 20
4134.924244170433
 30
0.0
 11
860.6521419511325
 21
3964.924244170433
 31
0.0
  0
LINE
  5
279
330
20
100
AcDbEntity
  8
_0-0_
  6
Continuous
 62
     4
100
AcDbLine
 10
1455.652640365632
 20
4234.924244170432
 30
0.0
 11
650.6521419511329
 21
4234.924244170432
 31
0.0
  0
LINE
  5
27A
330
20
100
AcDbEntity
  8
_0-0_
  6
Continuous
 62
     4
100
AcDbLine
 10
860.6521419511325
 20
4234.924244170432
 30
0.0
 11
870.3578561424773
 21
4198.702025684593
 31
0.0
  0
LINE
  5
27B
330
20
100
AcDbEntity
  8
_0-0_
  6
Continuous
 62
     4
100
AcDbLine
 10
860.6521419511325
 20
4234.924244170432
 30
0.0
 11
850.9464277597881
 21
4198.702025684593
 31
0.0
  0
LINE
  5
27C
330
20
100
AcDbEntity
  8
_0-0_
  6
Continuous
 62
     4
100
AcDbLine
 10
860.6521419511325
 20
4134.924244170433
 30
0.0
 11
850.9464277597881
 21
4171.146462656273
 31
0.0
  0
LINE
  5
27D
330
20
100
AcDbEntity
  8
_0-0_
  6
Continuous
 62
     4
100
AcDbLine
 10
860.6521419511325
 20
4134.924244170433
 30
0.0
 11
870.3578561424773
 21
4171.146462656273
 31
0.0
  0
LINE
  5
27E
330
20
100
AcDbEntity
  8
_0-0_
  6
Continuous
 62
     4
100
AcDbLine
 10
860.6521419511325
 20
4134.924244170433
 30
0.0
 11
870.3578561424773
 21
4098.702025684593
 31
0.0
  0
LINE
  5
27F
330
20
100
AcDbEntity
  8
_0-0_
  6
Continuous
 62
     4
100
AcDbLine
 10
860.6521419511325
 20
4134.924244170433
 30
0.0
 11
850.9464277597881
 21
4098.702025684593
 31
0.0
  0
LINE
  5
280
330
20
100
AcDbEntity
  8
_0-0_
  6
Continuous
 62
     4
100
AcDbLine
 10
860.6521419511325
 20
3964.924244170433
 30
0.0
 11
850.9464277597881
 21
4001.146462656273
 31
0.0
  0
LINE
  5
281
330
20
100
AcDbEntity
  8
_0-0_
  6
Continuous
 62
     4
100
AcDbLine
 10
860.6521419511325
 20
3964.924244170433
 30
0.0
 11
870.3578561424773
 21
4001.146462656273
 31
0.0
  0
LINE
  5
282
330
20
100
AcDbEntity
  8
_0-0_
  6
Continuous
 62
     4
100
AcDbLine
 10
670.6521419511329
 20
4234.924244170432
 30
0.0
 11
680.3578561424776
 21
4198.702025684593
 31
0.0
  0
LINE
  5
283
330
20
100
AcDbEntity
  8
_0-0_
  6
Continuous
 62
     4
100
AcDbLine
 10
670.6521419511329
 20
4234.924244170432
 30
0.0
 11
660.9464277597883
 21
4198.702025684593
 31
0.0
  0
LINE
  5
284
330
20
100
AcDbEntity
  8
_0-0_
  6
Continuous
 62
     4
100
AcDbLine
 10
860.6521419511325
 20
3964.924244170433
 30
0.0
 11
870.3578561424773
 21
3928.702025684593
 31
0.0
  0
LINE
  5
285
330
20
100
AcDbEntity
  8
_0-0_
  6
Continuous
 62
     4
100
AcDbLine
 10
860.6521419511325
 20
3964.924244170433
 30
0.0
 11
850.9464277597881
 21
3928.702025684593
 31
0.0
  0
LINE
  5
286
330
20
100
AcDbEntity
  8
_0-0_
  6
Continuous
 62
     4
100
AcDbLine
 10
1050.652141951132
 20
3964.924244170433
 30
0.0
 11
1060.357856142477
 21
3928.702025684593
 31
0.0
  0
LINE
  5
287
330
20
100
AcDbEntity
  8
_0-0_
  6
Continuous
 62
     4
100
AcDbLine
 10
1050.652141951132
 20
3964.924244170433
 30
0.0
 11
1040.946427759788
 21
3928.702025684593
 31
0.0
  0
LINE
  5
288
330
20
100
AcDbEntity
  8
_0-0_
  6
Continuous
 62
     4
100
AcDbLine
 10
1050.652141951132
 20
3264.924244170433
 30
0.0
 11
1040.946427759788
 21
3301.146462656273
 31
0.0
  0
LINE
  5
289
330
20
100
AcDbEntity
  8
_0-0_
  6
Continuous
 62
     4
100
AcDbLine
 10
1050.652141951132
 20
3264.924244170433
 30
0.0
 11
1060.357856142477
 21
3301.146462656273
 31
0.0
  0
LINE
  5
28A
330
20
100
AcDbEntity
  8
_0-0_
  6
Continuous
 62
     4
100
AcDbLine
 10
1050.652141951132
 20
3264.924244170433
 30
0.0
 11
1060.357856142477
 21
3228.702025684594
 31
0.0
  0
LINE
  5
28B
330
20
100
AcDbEntity
  8
_0-0_
  6
Continuous
 62
     4
100
AcDbLine
 10
1050.652141951132
 20
3264.924244170433
 30
0.0
 11
1040.946427759788
 21
3228.702025684594
 31
0.0
  0
LINE
  5
28C
330
20
100
AcDbEntity
  8
_0-0_
  6
Continuous
 62
     4
100
AcDbLine
 10
1050.652141951132
 20
2764.924244170433
 30
0.0
 11
1040.946427759788
 21
2801.146462656273
 31
0.0
  0
LINE
  5
28D
330
20
100
AcDbEntity
  8
_0-0_
  6
Continuous
 62
     4
100
AcDbLine
 10
1050.652141951132
 20
2764.924244170433
 30
0.0
 11
1060.357856142477
 21
2801.146462656273
 31
0.0
  0
LINE
  5
28E
330
20
100
AcDbEntity
  8
_0-0_
  6
Continuous
 62
     4
100
AcDbLine
 10
1050.652141951132
 20
2764.924244170433
 30
0.0
 11
1060.357856142477
 21
2728.702025684593
 31
0.0
  0
LINE
  5
28F
330
20
100
AcDbEntity
  8
_0-0_
  6
Continuous
 62
     4
100
AcDbLine
 10
1050.652141951132
 20
2764.924244170433
 30
0.0
 11
1040.946427759788
 21
2728.702025684593
 31
0.0
  0
LINE
  5
290
330
20
100
AcDbEntity
  8
_0-0_
  6
Continuous
 62
     4
100
AcDbLine
 10
1050.652141951132
 20
2264.924244170433
 30
0.0
 11
1040.946427759788
 21
2301.146462656273
 31
0.0
  0
LINE
  5
291
330
20
100
AcDbEntity
  8
_0-0_
  6
Continuous
 62
     4
100
AcDbLine
 10
1050.652141951132
 20
2264.924244170433
 30
0.0
 11
1060.357856142477
 21
2301.146462656273
 31
0.0
  0
LINE
  5
292
330
20
100
AcDbEntity
  8
_0-0_
  6
Continuous
 62
     4
100
AcDbLine
 10
1240.652141951132
 20
2264.924244170433
 30
0.0
 11
1250.357856142477
 21
2228.702025684593
 31
0.0
  0
LINE
  5
293
330
20
100
AcDbEntity
  8
_0-0_
  6
Continuous
 62
     4
100
AcDbLine
 10
1240.652141951132
 20
2264.924244170433
 30
0.0
 11
1230.946427759788
 21
2228.702025684593
 31
0.0
  0
LINE
  5
294
330
20
100
AcDbEntity
  8
_0-0_
  6
Continuous
 62
     4
100
AcDbLine
 10
1240.652141951132
 20
2084.924244170433
 30
0.0
 11
1230.946427759788
 21
2121.146462656273
 31
0.0
  0
LINE
  5
295
330
20
100
AcDbEntity
  8
_0-0_
  6
Continuous
 62
     4
100
AcDbLine
 10
1240.652141951132
 20
2084.924244170433
 30
0.0
 11
1250.357856142477
 21
2121.146462656273
 31
0.0
  0
LINE
  5
296
330
20
100
AcDbEntity
  8
_0-0_
  6
Continuous
 62
     4
100
AcDbLine
 10
1240.652141951132
 20
2084.924244170433
 30
0.0
 11
1250.357856142477
 21
2048.702025684593
 31
0.0
  0
LINE
  5
297
330
20
100
AcDbEntity
  8
_0-0_
  6
Continuous
 62
     4
100
AcDbLine
 10
1240.652141951132
 20
2084.924244170433
 30
0.0
 11
1230.946427759788
 21
2048.702025684593
 31
0.0
  0
LINE
  5
298
330
20
100
AcDbEntity
  8
_0-0_
  6
Continuous
 62
     4
100
AcDbLine
 10
1240.652141951132
 20
1534.924244170433
 30
0.0
 11
1230.946427759788
 21
1571.146462656273
 31
0.0
  0
LINE
  5
299
330
20
100
AcDbEntity
  8
_0-0_
  6
Continuous
 62
     4
100
AcDbLine
 10
1240.652141951132
 20
1534.924244170433
 30
0.0
 11
1250.357856142477
 21
1571.146462656273
 31
0.0
  0
LINE
  5
29A
330
20
100
AcDbEntity
  8
_0-0_
  6
Continuous
 62
     4
100
AcDbLine
 10
1050.652141951132
 20
1464.923501581708
 30
0.0
 11
1040.946427759788
 21
1501.145720067548
 31
0.0
  0
LINE
  5
29B
330
20
100
AcDbEntity
  8
_0-0_
  6
Continuous
 62
     4
100
AcDbLine
 10
1050.652141951132
 20
1464.923501581708
 30
0.0
 11
1060.357856142477
 21
1501.145720067548
 31
0.0
  0
LINE
  5
29C
330
20
100
AcDbEntity
  8
_0-0_
  6
Continuous
 62
     4
100
AcDbLine
 10
1050.652141951132
 20
2264.924244170433
 30
0.0
 11
1060.357856142477
 21
2228.702025684593
 31
0.0
  0
LINE
  5
29D
330
20
100
AcDbEntity
  8
_0-0_
  6
Continuous
 62
     4
100
AcDbLine
 10
1050.652141951132
 20
2264.924244170433
 30
0.0
 11
1040.946427759788
 21
2228.702025684593
 31
0.0
  0
LINE
  5
29E
330
20
100
AcDbEntity
  8
_0-0_
  6
Continuous
 62
     4
100
AcDbLine
 10
860.6521419511325
 20
1464.923501581708
 30
0.0
 11
850.9464277597881
 21
1501.145720067548
 31
0.0
  0
LINE
  5
29F
330
20
100
AcDbEntity
  8
_0-0_
  6
Continuous
 62
     4
100
AcDbLine
 10
860.6521419511325
 20
1464.923501581708
 30
0.0
 11
870.3578561424773
 21
1501.145720067548
 31
0.0
  0
LINE
  5
2A0
330
20
100
AcDbEntity
  8
_0-0_
  6
Continuous
 62
     4
100
AcDbLine
 10
860.6521419511325
 20
1464.923501581708
 30
0.0
 11
870.3578561424773
 21
1428.701283095868
 31
0.0
  0
LINE
  5
2A1
330
20
100
AcDbEntity
  8
_0-0_
  6
Continuous
 62
     4
100
AcDbLine
 10
860.6521419511325
 20
1464.923501581708
 30
0.0
 11
850.9464277597881
 21
1428.701283095868
 31
0.0
  0
LINE
  5
2A2
330
20
100
AcDbEntity
  8
_0-0_
  6
Continuous
 62
     4
100
AcDbLine
 10
860.6521419511325
 20
1304.923501581708
 30
0.0
 11
850.9464277597881
 21
1341.145720067548
 31
0.0
  0
LINE
  5
2A3
330
20
100
AcDbEntity
  8
_0-0_
  6
Continuous
 62
     4
100
AcDbLine
 10
860.6521419511325
 20
1304.923501581708
 30
0.0
 11
870.3578561424773
 21
1341.145720067548
 31
0.0
  0
LINE
  5
2A4
330
20
100
AcDbEntity
  8
_0-0_
  6
Continuous
 62
     4
100
AcDbLine
 10
670.6521419511329
 20
1304.923501581708
 30
0.0
 11
660.9464277597883
 21
1341.145720067548
 31
0.0
  0
LINE
  5
2A5
330
20
100
AcDbEntity
  8
_0-0_
  6
Continuous
 62
     4
100
AcDbLine
 10
670.6521419511329
 20
1304.923501581708
 30
0.0
 11
680.3578561424776
 21
1341.145720067548
 31
0.0
  0
TEXT
  5
2A6
330
20
100
AcDbEntity
  8
_0-0_
 62
     7
100
AcDbText
 10
838.1138141678276
 20
4046.118257679289
 30
0.0
 40
75.0
  1
100
 50
90.0
100
AcDbText
  0
TEXT
  5
2A7
330
20
100
AcDbEntity
  8
_0-0_
 62
     7
100
AcDbText
 10
949.7553852748904
 20
3931.240699003906
 30
0.0
 40
75.0
  1
170
 50
90.0
100
AcDbText
  0
TEXT
  5
2A8
330
20
100
AcDbEntity
  8
_0-0_
 62
     7
100
AcDbText
 10
1037.127049619548
 20
3551.288848997964
 30
0.0
 40
75.0
  1
700
 50
90.0
100
AcDbText
  0
TEXT
  5
2A9
330
20
100
AcDbEntity
  8
_0-0_
 62
     7
100
AcDbText
 10
1039.394893366198
 20
2951.848676454828
 30
0.0
 40
75.0
  1
500
 50
90.0
100
AcDbText
  0
TEXT
  5
2AA
330
20
100
AcDbEntity
  8
_0-0_
 62
     7
100
AcDbText
 10
1039.394893366198
 20
2451.862072661023
 30
0.0
 40
75.0
  1
500
 50
90.0
100
AcDbText
  0
TEXT
  5
2AB
330
20
100
AcDbEntity
  8
_0-0_
 62
     7
100
AcDbText
 10
847.0923534455041
 20
2630.703434787268
 30
0.0
 40
75.0
  1
2500
 50
90.0
100
AcDbText
  0
TEXT
  5
2AC
330
20
100
AcDbEntity
  8
_0-0_
 62
     7
100
AcDbText
 10
656.7128389240167
 20
2684.548145965063
 30
0.0
 40
75.0
  1
2930
 50
90.0
100
AcDbText
  0
TEXT
  5
2AD
330
20
100
AcDbEntity
  8
_0-0_
 62
     7
100
AcDbText
 10
1228.328823277248
 20
2054.420958354458
 30
0.0
 40
75.0
  1
180
 50
90.0
100
AcDbText
  0
TEXT
  5
2AE
330
20
100
AcDbEntity
  8
_0-0_
 62
     7
100
AcDbText
 10
1228.328823277248
 20
1747.716482692102
 30
0.0
 40
75.0
  1
550
 50
90.0
100
AcDbText
  0
TEXT
  5
2AF
330
20
100
AcDbEntity
  8
_0-0_
 62
     7
100
AcDbText
 10
1038.426749544529
 20
1802.184519344121
 30
0.0
 40
75.0
  1
800
 50
90.0
100
AcDbText
  0
TEXT
  5
2B0
330
20
100
AcDbEntity
  8
_0-0_
 62
     7
100
AcDbText
 10
849.1332569708424
 20
1323.653812461509
 30
0.0
 40
75.0
  1
160
 50
90.0
100
AcDbText
  0
LINE
  5
2B1
330
20
100
AcDbEntity
  8
_0-0_
  6
Continuous
 62
     4
100
AcDbLine
 10
2305.651352352984
 20
3729.923642681321
 30
0.0
 11
2305.651352352984
 21
3539.923642681321
 31
0.0
  0
LINE
  5
2B2
330
20
100
AcDbEntity
  8
_0-0_
  6
Continuous
 62
     4
100
AcDbLine
 10
2505.651352352984
 20
3729.923642681321
 30
0.0
 11
2505.651352352984
 21
3539.923642681321
 31
0.0
  0
LINE
  5
2B3
330
20
100
AcDbEntity
  8
_0-0_
  6
Continuous
 62
     4
100
AcDbLine
 10
2105.651352352984
 20
3729.923642681321
 30
0.0
 11
2105.651352352984
 21
3539.923642681321
 31
0.0
  0
LINE
  5
2B4
330
20
100
AcDbEntity
  8
_0-0_
  6
Continuous
 62
     4
100
AcDbLine
 10
2105.651352352984
 20
3559.923642681321
 30
0.0
 11
2305.651352352984
 21
3559.923642681321
 31
0.0
  0
LINE
  5
2B5
330
20
100
AcDbEntity
  8
_0-0_
  6
Continuous
 62
     4
100
AcDbLine
 10
2505.651352352984
 20
3559.923642681321
 30
0.0
 11
2305.651352352984
 21
3559.923642681321
 31
0.0
  0
LINE
  5
2B6
330
20
100
AcDbEntity
  8
_0-0_
  6
Continuous
 62
     4
100
AcDbLine
 10
2105.651352352984
 20
3559.923642681321
 30
0.0
 11
2141.873570838824
 21
3569.629356872666
 31
0.0
  0
LINE
  5
2B7
330
20
100
AcDbEntity
  8
_0-0_
  6
Continuous
 62
     4
100
AcDbLine
 10
2105.651352352984
 20
3559.923642681321
 30
0.0
 11
2141.873570838824
 21
3550.217928489977
 31
0.0
  0
LINE
  5
2B8
330
20
100
AcDbEntity
  8
_0-0_
  6
Continuous
 62
     4
100
AcDbLine
 10
2305.651352352984
 20
3559.923642681321
 30
0.0
 11
2269.429133867144
 21
3550.217928489977
 31
0.0
  0
LINE
  5
2B9
330
20
100
AcDbEntity
  8
_0-0_
  6
Continuous
 62
     4
100
AcDbLine
 10
2305.651352352984
 20
3559.923642681321
 30
0.0
 11
2269.429133867144
 21
3569.629356872666
 31
0.0
  0
LINE
  5
2BA
330
20
100
AcDbEntity
  8
_0-0_
  6
Continuous
 62
     4
100
AcDbLine
 10
2305.651352352984
 20
3559.923642681321
 30
0.0
 11
2341.873570838824
 21
3569.629356872666
 31
0.0
  0
LINE
  5
2BB
330
20
100
AcDbEntity
  8
_0-0_
  6
Continuous
 62
     4
100
AcDbLine
 10
2305.651352352984
 20
3559.923642681321
 30
0.0
 11
2341.873570838824
 21
3550.217928489977
 31
0.0
  0
LINE
  5
2BC
330
20
100
AcDbEntity
  8
_0-0_
  6
Continuous
 62
     4
100
AcDbLine
 10
2505.651352352984
 20
3559.923642681321
 30
0.0
 11
2469.429133867144
 21
3550.217928489977
 31
0.0
  0
LINE
  5
2BD
330
20
100
AcDbEntity
  8
_0-0_
  6
Continuous
 62
     4
100
AcDbLine
 10
2505.651352352984
 20
3559.923642681321
 30
0.0
 11
2469.429133867144
 21
3569.629356872666
 31
0.0
  0
TEXT
  5
2BE
330
20
100
AcDbEntity
  8
_0-0_
 62
     7
100
AcDbText
 10
2117.371901890959
 20
3570.188345837395
 30
0.0
 40
75.0
  1
200
100
AcDbText
  0
TEXT
  5
2BF
330
20
100
AcDbEntity
  8
_0-0_
 62
     7
100
AcDbText
 10
2317.457505704672
 20
3570.188345837395
 30
0.0
 40
75.0
  1
200
100
AcDbText
  0
LINE
  5
2C0
330
20
100
AcDbEntity
  8
_0-0_
  6
Continuous
 62
     4
100
AcDbLine
 10
2109.824828470013
 20
3105.836289856152
 30
0.0
 11
2174.818959984681
 21
2939.073958484381
 31
0.0
  0
LINE
  5
2C1
330
20
100
AcDbEntity
  8
_0-0_
  6
Continuous
 62
     4
100
AcDbLine
 10
2109.824828470013
 20
3105.836289856152
 30
0.0
 11
2132.021580621127
 21
3075.611230816639
 31
0.0
  0
LINE
  5
2C2
330
20
100
AcDbEntity
  8
_0-0_
  6
Continuous
 62
     4
100
AcDbLine
 10
2109.824828470013
 20
3105.836289856152
 30
0.0
 11
2113.935250194628
 21
3068.562244821493
 31
0.0
  0
LINE
  5
2C3
330
20
100
AcDbEntity
  8
_0-0_
  6
Continuous
 62
     4
100
AcDbLine
 10
2110.147389204261
 20
2605.991491480681
 30
0.0
 11
2174.818959984681
 21
2439.073958484381
 31
0.0
  0
LINE
  5
2C4
330
20
100
AcDbEntity
  8
_0-0_
  6
Continuous
 62
     4
100
AcDbLine
 10
2110.147389204261
 20
2605.991491480681
 30
0.0
 11
2132.283835430751
 21
2575.722237303189
 31
0.0
  0
LINE
  5
2C5
330
20
100
AcDbEntity
  8
_0-0_
  6
Continuous
 62
     4
100
AcDbLine
 10
2110.147389204261
 20
2605.991491480681
 30
0.0
 11
2114.183486897163
 21
2568.709325296119
 31
0.0
  0
TEXT
  5
2C6
330
20
100
AcDbEntity
  8
_0-0_
 62
     7
100
AcDbText
 10
2191.918068802916
 20
2945.104490408316
 30
0.0
 40
75.0
  1
インサート M12
100
AcDbText
  0
TEXT
  5
2C7
330
20
100
AcDbEntity
  8
_0-0_
 62
     7
100
AcDbText
 10
2190.154190333297
 20
2447.690761976209
 30
0.0
 40
75.0
  1
インサート M12
100
AcDbText
  0
LINE
  5
2C8
330
20
100
AcDbEntity
  8
_0-0_
  6
Continuous
 62
     4
100
AcDbLine
 10
2174.818959984681
 20
2939.073958484381
 30
0.0
 11
2898.625065549304
 21
2939.073958484381
 31
0.0
  0
LINE
  5
2C9
330
20
100
AcDbEntity
  8
_0-0_
  6
Continuous
 62
     4
100
AcDbLine
 10
2174.818959984681
 20
2439.073958484381
 30
0.0
 11
2885.241644405818
 21
2439.073958484381
 31
0.0
  0
ENDSEC
  0
SECTION
  2
OBJECTS
  0
DICTIONARY
  5
C
330
0
100
AcDbDictionary
281
     1
  3
ACAD_COLOR
350
1B
  3
ACAD_GROUP
350
D
  3
ACAD_LAYOUT
350
19
  3
ACAD_MATERIAL
350
1A
  3
ACAD_MLINESTYLE
350
16
  3
ACAD_PLOTSETTINGS
350
18
  3
ACAD_PLOTSTYLENAME
350
E
  3
ACDBHEADERROUNDTRIPXREC
350
2D0
  3
AcDbVariableDictionary
350
2CC
  0
DICTIONARY
  5
1B
102
{ACAD_REACTORS
330
C
102
}
330
C
100
AcDbDictionary
281
     1
  0
DICTIONARY
  5
D
102
{ACAD_REACTORS
330
C
102
}
330
C
100
AcDbDictionary
281
     1
  0
DICTIONARY
  5
19
102
{ACAD_REACTORS
330
C
102
}
330
C
100
AcDbDictionary
281
     1
  3
Model
350
23
  3
レイアウト1
350
1F
  0
DICTIONARY
  5
1A
102
{ACAD_REACTORS
330
C
102
}
330
C
100
AcDbDictionary
281
     1
  0
DICTIONARY
  5
16
102
{ACAD_REACTORS
330
C
102
}
330
C
100
AcDbDictionary
281
     1
  3
Standard
350
17
  0
DICTIONARY
  5
18
102
{ACAD_REACTORS
330
C
102
}
330
C
100
AcDbDictionary
281
     1
  0
ACDBDICTIONARYWDFLT
  5
E
102
{ACAD_REACTORS
330
C
102
}
330
C
100
AcDbDictionary
281
     1
  3
Normal
350
F
100
AcDbDictionaryWithDefault
340
F
  0
DICTIONARY
  5
2D0
102
{ACAD_REACTORS
330
C
102
}
330
C
100
AcDbDictionary
281
     1
  3
COLORDICT
350
2D2
  3
MATERIALDICT
350
2D1
  0
DICTIONARY
  5
2CC
102
{ACAD_REACTORS
330
C
102
}
330
C
100
AcDbDictionary
281
     1
  3
DIMASSOC
350
2CD
  3
PROJECTNAME
350
2CE
  0
LAYOUT
  5
23
102
{ACAD_XDICTIONARY
360
2D5
102
}
102
{ACAD_REACTORS
330
19
102
}
330
19
100
AcDbPlotSettings
  1

  2
RICOH imagio MP C3300 RPCS
  4

  6

 40
0.0
 41
0.0
 42
0.0
 43
0.0
 44
0.0
 45
0.0
 46
0.0
 47
0.0
 48
0.0
 49
0.0
140
0.0
141
0.0
142
1.0
143
1.0
 70
  1712
 72
     0
 73
     0
 74
     0
  7

 75
     0
147
1.0
148
0.0
149
0.0
100
AcDbLayout
  1
Model
 70
     1
 71
     0
 10
0.0
 20
0.0
 11
12.0
 21
9.0
 12
0.0
 22
0.0
 32
0.0
 14
0.0
 24
0.0
 34
0.0
 15
0.0
 25
0.0
 35
0.0
146
0.0
 13
0.0
 23
0.0
 33
0.0
 16
1.0
 26
0.0
 36
0.0
 17
0.0
 27
1.0
 37
0.0
 76
     0
330
20
  0
LAYOUT
  5
1F
102
{ACAD_XDICTIONARY
360
2D3
102
}
102
{ACAD_REACTORS
330
19
102
}
330
19
100
AcDbPlotSettings
  1

  2
RICOH imagio MP C3300 RPCS
  4

  6

 40
0.0
 41
0.0
 42
0.0
 43
0.0
 44
0.0
 45
0.0
 46
0.0
 47
0.0
 48
0.0
 49
0.0
140
0.0
141
0.0
142
1.0
143
1.0
 70
   688
 72
     0
 73
     0
 74
     5
  7

 75
    16
147
1.0
148
0.0
149
0.0
100
AcDbLayout
  1
レイアウト1
 70
     1
 71
     1
 10
0.0
 20
0.0
 11
12.0
 21
9.0
 12
0.0
 22
0.0
 32
0.0
 14
1.000000000000000E+20
 24
1.000000000000000E+20
 34
1.000000000000000E+20
 15
-1.000000000000000E+20
 25
-1.000000000000000E+20
 35
-1.000000000000000E+20
146
0.0
 13
0.0
 23
0.0
 33
0.0
 16
1.0
 26
0.0
 36
0.0
 17
0.0
 27
1.0
 37
0.0
 76
     0
330
1C
  0
MLINESTYLE
  5
17
102
{ACAD_REACTORS
330
16
102
}
330
16
100
AcDbMlineStyle
  2
STANDARD
 70
     0
  3

 62
   256
 51
90.0
 52
90.0
 71
     2
 49
0.5
 62
   256
  6
BYLAYER
 49
-0.5
 62
   256
  6
BYLAYER
  0
ACDBPLACEHOLDER
  5
F
102
{ACAD_REACTORS
330
E
102
}
330
E
  0
XRECORD
  5
2D2
102
{ACAD_REACTORS
330
2D0
102
}
330
2D0
100
AcDbXrecord
280
     1
340
1B
  0
XRECORD
  5
2D1
102
{ACAD_REACTORS
330
2D0
102
}
330
2D0
100
AcDbXrecord
280
     1
340
1A
  0
DICTIONARYVAR
  5
2CD
102
{ACAD_REACTORS
330
2CC
102
}
330
2CC
100
DictionaryVariables
280
     0
  1
1
  0
DICTIONARYVAR
  5
2CE
102
{ACAD_REACTORS
330
2CC
102
}
330
2CC
100
DictionaryVariables
280
     0
  1

  0
DICTIONARY
  5
2D5
330
23
100
AcDbDictionary
280
     1
281
     1
  3
ACAD_XREC_ROUNDTRIP
360
2D6
  0
DICTIONARY
  5
2D3
330
1F
100
AcDbDictionary
280
     1
281
     1
  3
ACAD_XREC_ROUNDTRIP
360
2D4
  0
XRECORD
  5
2D6
102
{ACAD_REACTORS
330
2D5
102
}
330
2D5
100
AcDbXrecord
280
     1
102
SHADEPLOT
 70
     0
102
SHADEPLOTRESLEVEL
 70
     2
102
SHADEPLOTCUSTOMDPI
 70
   300
  0
XRECORD
  5
2D4
102
{ACAD_REACTORS
330
2D3
102
}
330
2D3
100
AcDbXrecord
280
     1
102
SHADEPLOT
 70
     0
102
SHADEPLOTRESLEVEL
 70
     2
102
SHADEPLOTCUSTOMDPI
 70
   300
  0
ENDSEC
  0
EOF
